  0
SECTION
  2
HEADER
  9
$ACADVER
  1
AC1021
  9
$ACADMAINTVER
 70
    53
  9
$DWGCODEPAGE
  3
ANSI_1252
  9
$LASTSAVEDBY
  1
Dallas Williams
  9
$INSBASE
 10
0.0
 20
0.0
 30
0.0
  9
$EXTMIN
 10
1718.777383569931
 20
-1890.586729339747
 30
-0.0000000000000024
  9
$EXTMAX
 10
8393.664686035618
 20
4169.588655042505
 30
0.0000000000000266
  9
$LIMMIN
 10
0.0
 20
0.0
  9
$LIMMAX
 10
12.0
 20
9.0
  9
$ORTHOMODE
 70
     0
  9
$REGENMODE
 70
     1
  9
$FILLMODE
 70
     1
  9
$QTEXTMODE
 70
     0
  9
$MIRRTEXT
 70
     0
  9
$LTSCALE
 40
1.0
  9
$ATTMODE
 70
     1
  9
$TEXTSIZE
 40
2.0
  9
$TRACEWID
 40
0.05
  9
$TEXTSTYLE
  7
2mm
  9
$CLAYER
  8
0
  9
$CELTYPE
  6
HIDDEN
  9
$CECOLOR
 62
   256
  9
$CELTSCALE
 40
1.0
  9
$DISPSILH
 70
     0
  9
$DIMSCALE
 40
1.0
  9
$DIMASZ
 40
3.0
  9
$DIMEXO
 40
3.0
  9
$DIMDLI
 40
400.0
  9
$DIMRND
 40
0.0
  9
$DIMDLE
 40
0.0
  9
$DIMEXE
 40
1.0
  9
$DIMTP
 40
0.0
  9
$DIMTM
 40
0.0
  9
$DIMTXT
 40
2.0
  9
$DIMCEN
 40
2.0
  9
$DIMTSZ
 40
0.0
  9
$DIMTOL
 70
     0
  9
$DIMLIM
 70
     0
  9
$DIMTIH
 70
     0
  9
$DIMTOH
 70
     0
  9
$DIMSE1
 70
     0
  9
$DIMSE2
 70
     0
  9
$DIMTAD
 70
     0
  9
$DIMZIN
 70
     0
  9
$DIMBLK
  1
OBLIQUE
  9
$DIMASO
 70
     1
  9
$DIMSHO
 70
     1
  9
$DIMPOST
  1

  9
$DIMAPOST
  1
M
  9
$DIMALT
 70
     0
  9
$DIMALTD
 70
     2
  9
$DIMALTF
 40
0.001
  9
$DIMLFAC
 40
1.0
  9
$DIMTOFL
 70
     0
  9
$DIMTVP
 40
0.0
  9
$DIMTIX
 70
     0
  9
$DIMSOXD
 70
     0
  9
$DIMSAH
 70
     0
  9
$DIMBLK1
  1

  9
$DIMBLK2
  1

  9
$DIMSTYLE
  2
2mm
  9
$DIMCLRD
 70
   256
  9
$DIMCLRE
 70
   256
  9
$DIMCLRT
 70
   256
  9
$DIMTFAC
 40
1.0
  9
$DIMGAP
 40
0.0
  9
$DIMJUST
 70
     0
  9
$DIMSD1
 70
     0
  9
$DIMSD2
 70
     0
  9
$DIMTOLJ
 70
     1
  9
$DIMTZIN
 70
     0
  9
$DIMALTZ
 70
     8
  9
$DIMALTTZ
 70
     0
  9
$DIMUPT
 70
     0
  9
$DIMDEC
 70
     0
  9
$DIMTDEC
 70
     0
  9
$DIMALTU
 70
     2
  9
$DIMALTTD
 70
     2
  9
$DIMTXSTY
  7
2mm
  9
$DIMAUNIT
 70
     0
  9
$DIMADEC
 70
     2
  9
$DIMALTRND
 40
0.0
  9
$DIMAZIN
 70
     0
  9
$DIMDSEP
 70
    46
  9
$DIMATFIT
 70
     3
  9
$DIMFRAC
 70
     0
  9
$DIMLDRBLK
  1
OBLIQUE
  9
$DIMLUNIT
 70
     2
  9
$DIMLWD
 70
     9
  9
$DIMLWE
 70
     9
  9
$DIMTMOVE
 70
     2
  9
$DIMFXL
 40
1.0
  9
$DIMFXLON
 70
     0
  9
$DIMJOGANG
 40
0.7853981633974483
  9
$DIMTFILL
 70
     0
  9
$DIMTFILLCLR
 70
     0
  9
$DIMARCSYM
 70
     0
  9
$DIMLTYPE
  6
ByLayer
  9
$DIMLTEX1
  6
ByLayer
  9
$DIMLTEX2
  6
ByLayer
  9
$LUNITS
 70
     2
  9
$LUPREC
 70
     4
  9
$SKETCHINC
 40
0.1
  9
$FILLETRAD
 40
0.0
  9
$AUNITS
 70
     0
  9
$AUPREC
 70
     2
  9
$MENU
  1
.
  9
$ELEVATION
 40
0.0
  9
$PELEVATION
 40
0.0
  9
$THICKNESS
 40
0.0
  9
$LIMCHECK
 70
     0
  9
$CHAMFERA
 40
0.0
  9
$CHAMFERB
 40
0.0
  9
$CHAMFERC
 40
0.0
  9
$CHAMFERD
 40
0.0
  9
$SKPOLY
 70
     0
  9
$TDCREATE
 40
2456332.398470405
  9
$TDUCREATE
 40
2456331.898470405
  9
$TDUPDATE
 40
2456554.815483032
  9
$TDUUPDATE
 40
2456554.315483032
  9
$TDINDWG
 40
0.1792587500
  9
$TDUSRTIMER
 40
0.1792587500
  9
$USRTIMER
 70
     1
  9
$ANGBASE
 50
0.0
  9
$ANGDIR
 70
     0
  9
$PDMODE
 70
    35
  9
$PDSIZE
 40
0.0
  9
$PLINEWID
 40
0.0
  9
$SPLFRAME
 70
     0
  9
$SPLINETYPE
 70
     6
  9
$SPLINESEGS
 70
     8
  9
$HANDSEED
  5
B3D7
  9
$SURFTAB1
 70
     6
  9
$SURFTAB2
 70
     6
  9
$SURFTYPE
 70
     6
  9
$SURFU
 70
     6
  9
$SURFV
 70
     6
  9
$UCSBASE
  2

  9
$UCSNAME
  2

  9
$UCSORG
 10
0.0
 20
0.0
 30
0.0
  9
$UCSXDIR
 10
1.0
 20
0.0
 30
0.0
  9
$UCSYDIR
 10
0.0
 20
1.0
 30
0.0
  9
$UCSORTHOREF
  2

  9
$UCSORTHOVIEW
 70
     0
  9
$UCSORGTOP
 10
0.0
 20
0.0
 30
0.0
  9
$UCSORGBOTTOM
 10
0.0
 20
0.0
 30
0.0
  9
$UCSORGLEFT
 10
0.0
 20
0.0
 30
0.0
  9
$UCSORGRIGHT
 10
0.0
 20
0.0
 30
0.0
  9
$UCSORGFRONT
 10
0.0
 20
0.0
 30
0.0
  9
$UCSORGBACK
 10
0.0
 20
0.0
 30
0.0
  9
$PUCSBASE
  2

  9
$PUCSNAME
  2

  9
$PUCSORG
 10
0.0
 20
0.0
 30
0.0
  9
$PUCSXDIR
 10
1.0
 20
0.0
 30
0.0
  9
$PUCSYDIR
 10
0.0
 20
1.0
 30
0.0
  9
$PUCSORTHOREF
  2

  9
$PUCSORTHOVIEW
 70
     0
  9
$PUCSORGTOP
 10
0.0
 20
0.0
 30
0.0
  9
$PUCSORGBOTTOM
 10
0.0
 20
0.0
 30
0.0
  9
$PUCSORGLEFT
 10
0.0
 20
0.0
 30
0.0
  9
$PUCSORGRIGHT
 10
0.0
 20
0.0
 30
0.0
  9
$PUCSORGFRONT
 10
0.0
 20
0.0
 30
0.0
  9
$PUCSORGBACK
 10
0.0
 20
0.0
 30
0.0
  9
$USERI1
 70
     0
  9
$USERI2
 70
     0
  9
$USERI3
 70
     0
  9
$USERI4
 70
     0
  9
$USERI5
 70
     0
  9
$USERR1
 40
0.0
  9
$USERR2
 40
0.0
  9
$USERR3
 40
0.0
  9
$USERR4
 40
0.0
  9
$USERR5
 40
0.0
  9
$WORLDVIEW
 70
     1
  9
$SHADEDGE
 70
     3
  9
$SHADEDIF
 70
    70
  9
$TILEMODE
 70
     1
  9
$MAXACTVP
 70
    64
  9
$PINSBASE
 10
0.0
 20
0.0
 30
0.0
  9
$PLIMCHECK
 70
     0
  9
$PEXTMIN
 10
1.000000000000000E+20
 20
1.000000000000000E+20
 30
1.000000000000000E+20
  9
$PEXTMAX
 10
-1.000000000000000E+20
 20
-1.000000000000000E+20
 30
-1.000000000000000E+20
  9
$PLIMMIN
 10
-0.7937499880790711
 20
-0.7937499880790711
  9
$PLIMMAX
 10
209.2062500119209
 20
296.2062500119209
  9
$UNITMODE
 70
     0
  9
$VISRETAIN
 70
     1
  9
$PLINEGEN
 70
     0
  9
$PSLTSCALE
 70
     1
  9
$TREEDEPTH
 70
  3020
  9
$CMLSTYLE
  2
Standard
  9
$CMLJUST
 70
     0
  9
$CMLSCALE
 40
1.0
  9
$PROXYGRAPHICS
 70
     1
  9
$MEASUREMENT
 70
     0
  9
$CELWEIGHT
370
    -1
  9
$ENDCAPS
280
     0
  9
$JOINSTYLE
280
     0
  9
$LWDISPLAY
290
     0
  9
$INSUNITS
 70
     4
  9
$HYPERLINKBASE
  1

  9
$STYLESHEET
  1

  9
$XEDIT
290
     1
  9
$CEPSNTYPE
380
     0
  9
$PSTYLEMODE
290
     1
  9
$FINGERPRINTGUID
  2
{C2DBB197-A9E4-43FA-9C69-81C1E1A60DB9}
  9
$VERSIONGUID
  2
{AFDD157E-AE07-4F52-8F7A-4D925D13FAC1}
  9
$EXTNAMES
290
     1
  9
$PSVPSCALE
 40
0.0
  9
$OLESTARTUP
290
     0
  9
$SORTENTS
280
   127
  9
$INDEXCTL
280
     0
  9
$HIDETEXT
280
     0
  9
$XCLIPFRAME
290
     0
  9
$HALOGAP
280
     0
  9
$OBSCOLOR
 70
   257
  9
$OBSLTYPE
280
     0
  9
$INTERSECTIONDISPLAY
280
     0
  9
$INTERSECTIONCOLOR
 70
   257
  9
$DIMASSOC
280
     1
  9
$PROJECTNAME
  1

  9
$CAMERADISPLAY
290
     0
  9
$LENSLENGTH
 40
50.0
  9
$CAMERAHEIGHT
 40
0.0
  9
$STEPSPERSEC
 40
2.0
  9
$STEPSIZE
 40
6.0
  9
$3DDWFPREC
 40
2.0
  9
$PSOLWIDTH
 40
0.25
  9
$PSOLHEIGHT
 40
4.0
  9
$LOFTANG1
 40
1.570796326794896
  9
$LOFTANG2
 40
1.570796326794896
  9
$LOFTMAG1
 40
0.0
  9
$LOFTMAG2
 40
0.0
  9
$LOFTPARAM
 70
     7
  9
$LOFTNORMALS
280
     1
  9
$LATITUDE
 40
37.795
  9
$LONGITUDE
 40
-122.394
  9
$NORTHDIRECTION
 40
0.0
  9
$TIMEZONE
 70
 -8000
  9
$LIGHTGLYPHDISPLAY
280
     1
  9
$TILEMODELIGHTSYNCH
280
     1
  9
$CMATERIAL
347
217
  9
$SOLIDHIST
280
     0
  9
$SHOWHIST
280
     1
  9
$DWFFRAME
280
     2
  9
$DGNFRAME
280
     0
  9
$REALWORLDSCALE
290
     1
  9
$INTERFERECOLOR
 62
     1
  9
$INTERFEREOBJVS
345
224
  9
$INTERFEREVPVS
346
221
  9
$CSHADOW
280
     0
  9
$SHADOWPLANELOCATION
 40
0.0
  0
ENDSEC
  0
SECTION
  2
CLASSES
  0
CLASS
  1
ACDBDICTIONARYWDFLT
  2
AcDbDictionaryWithDefault
  3
ObjectDBX Classes
 90
        0
 91
        1
280
     0
281
     0
  0
CLASS
  1
MATERIAL
  2
AcDbMaterial
  3
ObjectDBX Classes
 90
     1153
 91
        3
280
     0
281
     0
  0
CLASS
  1
VISUALSTYLE
  2
AcDbVisualStyle
  3
ObjectDBX Classes
 90
     4095
 91
       16
280
     0
281
     0
  0
CLASS
  1
TABLESTYLE
  2
AcDbTableStyle
  3
ObjectDBX Classes
 90
     4095
 91
        2
280
     0
281
     0
  0
CLASS
  1
DICTIONARYVAR
  2
AcDbDictionaryVar
  3
ObjectDBX Classes
 90
        0
 91
        9
280
     0
281
     0
  0
CLASS
  1
SCALE
  2
AcDbScale
  3
ObjectDBX Classes
 90
     1153
 91
       43
280
     0
281
     0
  0
CLASS
  1
MLEADERSTYLE
  2
AcDbMLeaderStyle
  3
ACDB_MLEADERSTYLE_CLASS
 90
     4095
 91
        2
280
     0
281
     0
  0
CLASS
  1
CELLSTYLEMAP
  2
AcDbCellStyleMap
  3
ObjectDBX Classes
 90
     1152
 91
        4
280
     0
281
     0
  0
CLASS
  1
ACDB_TEXTOBJECTCONTEXTDATA_CLASS
  2
AcDbTextObjectContextData
  3
ObjectDBX Classes
 90
     1153
 91
        0
280
     0
281
     0
  0
CLASS
  1
ACDB_ALDIMOBJECTCONTEXTDATA_CLASS
  2
AcDbAlignedDimensionObjectContextData
  3
ObjectDBX Classes
 90
     1153
 91
        0
280
     0
281
     0
  0
CLASS
  1
MULTILEADER
  2
AcDbMLeader
  3
ACDB_MLEADER_CLASS
 90
     1025
 91
        0
280
     0
281
     1
  0
CLASS
  1
ACDB_MLEADEROBJECTCONTEXTDATA_CLASS
  2
AcDbMLeaderObjectContextData
  3
ObjectDBX Classes
 90
     1153
 91
        0
280
     0
281
     0
  0
CLASS
  1
SORTENTSTABLE
  2
AcDbSortentsTable
  3
ObjectDBX Classes
 90
        0
 91
        3
280
     0
281
     0
  0
CLASS
  1
AEC_REFEDIT_STATUS_TRACKER
  2
AecDbRefEditStatusTracker
  3
AecArchBase50|Product Desc: Autodesk Architectural Desktop 2007 |Company: Autodesk,Inc. |WEB Address: www.autodesk.com
 90
      129
 91
        0
280
     0
281
     0
  0
CLASS
  1
NPOCOLLECTION
  2
AcDbImpNonPersistentObjectsCollection
  3
ObjectDBX Classes
 90
     1153
 91
        1
280
     0
281
     0
  0
CLASS
  1
ACAD_EVALUATION_GRAPH
  2
AcDbEvalGraph
  3
ObjectDBX Classes
 90
     1153
 91
        0
280
     0
281
     0
  0
CLASS
  1
BLOCKPOLARPARAMETER
  2
AcDbBlockPolarParameter
  3
ObjectDBX Classes
 90
     1153
 91
        0
280
     0
281
     0
  0
CLASS
  1
BLOCKPOLARGRIP
  2
AcDbBlockPolarGrip
  3
ObjectDBX Classes
 90
     1153
 91
        0
280
     0
281
     0
  0
CLASS
  1
BLOCKGRIPLOCATIONCOMPONENT
  2
AcDbBlockGripExpr
  3
ObjectDBX Classes
 90
     1153
 91
        0
280
     0
281
     0
  0
CLASS
  1
BLOCKPOLARSTRETCHACTION
  2
AcDbBlockPolarStretchAction
  3
ObjectDBX Classes
 90
     1153
 91
        0
280
     0
281
     0
  0
CLASS
  1
ACDB_DYNAMICBLOCKPURGEPREVENTER_VERSION
  2
AcDbDynamicBlockPurgePreventer
  3
ObjectDBX Classes
 90
     1153
 91
        0
280
     0
281
     0
  0
CLASS
  1
BLOCKROTATIONPARAMETER
  2
AcDbBlockRotationParameter
  3
ObjectDBX Classes
 90
     1153
 91
        0
280
     0
281
     0
  0
CLASS
  1
BLOCKROTATIONGRIP
  2
AcDbBlockRotationGrip
  3
ObjectDBX Classes
 90
     1153
 91
        0
280
     0
281
     0
  0
CLASS
  1
BLOCKFLIPPARAMETER
  2
AcDbBlockFlipParameter
  3
ObjectDBX Classes
 90
     1153
 91
        0
280
     0
281
     0
  0
CLASS
  1
BLOCKFLIPGRIP
  2
AcDbBlockFlipGrip
  3
ObjectDBX Classes
 90
     1153
 91
        0
280
     0
281
     0
  0
CLASS
  1
BLOCKROTATEACTION
  2
AcDbBlockRotateAction
  3
ObjectDBX Classes
 90
     1153
 91
        0
280
     0
281
     0
  0
CLASS
  1
BLOCKFLIPACTION
  2
AcDbBlockFlipAction
  3
ObjectDBX Classes
 90
     1153
 91
        0
280
     0
281
     0
  0
CLASS
  1
BLOCKLINEARPARAMETER
  2
AcDbBlockLinearParameter
  3
ObjectDBX Classes
 90
     1153
 91
        0
280
     0
281
     0
  0
CLASS
  1
BLOCKLINEARGRIP
  2
AcDbBlockLinearGrip
  3
ObjectDBX Classes
 90
     1153
 91
        0
280
     0
281
     0
  0
CLASS
  1
BLOCKSTRETCHACTION
  2
AcDbBlockStretchAction
  3
ObjectDBX Classes
 90
     1153
 91
        0
280
     0
281
     0
  0
CLASS
  1
BLOCKVISIBILITYPARAMETER
  2
AcDbBlockVisibilityParameter
  3
ObjectDBX Classes
 90
     1153
 91
        0
280
     0
281
     0
  0
CLASS
  1
BLOCKVISIBILITYGRIP
  2
AcDbBlockVisibilityGrip
  3
ObjectDBX Classes
 90
     1153
 91
        0
280
     0
281
     0
  0
CLASS
  1
BLOCKPOINTPARAMETER
  2
AcDbBlockPointParameter
  3
ObjectDBX Classes
 90
     1153
 91
        0
280
     0
281
     0
  0
CLASS
  1
BLOCKMOVEACTION
  2
AcDbBlockMoveAction
  3
ObjectDBX Classes
 90
     1153
 91
        0
280
     0
281
     0
  0
CLASS
  1
ACDB_BLOCKREPRESENTATION_DATA
  2
AcDbBlockRepresentationData
  3
ObjectDBX Classes
 90
     1153
 91
        0
280
     0
281
     0
  0
CLASS
  1
ACDB_BLKREFOBJECTCONTEXTDATA_CLASS
  2
AcDbBlkRefObjectContextData
  3
ObjectDBX Classes
 90
     1153
 91
        0
280
     0
281
     0
  0
CLASS
  1
ACDB_MTEXTATTRIBUTEOBJECTCONTEXTDATA_CLASS
  2
AcDbMTextAttributeObjectContextData
  3
ObjectDBX Classes
 90
     1153
 91
        0
280
     0
281
     0
  0
CLASS
  1
AEC_VARS_DWG_SETUP
  2
AecDbVarsDwgSetup
  3
AecBase50|Product Desc: Autodesk Architectural Desktop 2007 |Company: Autodesk,Inc. |WEB Address: www.autodesk.com
 90
      129
 91
        0
280
     0
281
     0
  0
CLASS
  1
AEC_DISP_REP_CONFIG
  2
AecDbDispRepConfig
  3
AecBase50|Product Desc: Autodesk Architectural Desktop 2007 |Company: Autodesk,Inc. |WEB Address: www.autodesk.com
 90
      129
 91
        0
280
     0
281
     0
  0
CLASS
  1
AEC_DISP_REP_SET
  2
AecDbDispRepSet
  3
AecBase50|Product Desc: Autodesk Architectural Desktop 2007 |Company: Autodesk,Inc. |WEB Address: www.autodesk.com
 90
      129
 91
        0
280
     0
281
     0
  0
CLASS
  1
AEC_DISP_REP_2D_SECTION
  2
AecDbDispRep2dSection
  3
AecBase50|Product Desc: Autodesk Architectural Desktop 2007 |Company: Autodesk,Inc. |WEB Address: www.autodesk.com
 90
      129
 91
        0
280
     0
281
     0
  0
CLASS
  1
AEC_DISP_REP_ANCHOR_BUB_TO_GRID
  2
AecDbDispRepAnchorBubToGrid
  3
AecStructureBase50|Product Desc: Autodesk Architectural Desktop 2007 |Company: Autodesk,Inc. |WEB Address: www.autodesk.com
 90
      129
 91
        0
280
     0
281
     0
  0
CLASS
  1
AEC_DISP_REP_ANCHOR_BUB_TO_GRID_MODEL
  2
AecDbDispRepAnchorBubToGridMdl
  3
AecStructureBase50|Product Desc: Autodesk Architectural Desktop 2007 |Company: Autodesk,Inc. |WEB Address: www.autodesk.com
 90
      129
 91
        0
280
     0
281
     0
  0
CLASS
  1
AEC_DISP_REP_ANCHOR_ENT_TO_NODE
  2
AecDbDispRepAnchorEntToNode
  3
AecBaseEx50|Product Desc: Autodesk Architectural Desktop 2007 |Company: Autodesk,Inc. |WEB Address: www.autodesk.com
 90
      129
 91
        0
280
     0
281
     0
  0
CLASS
  1
AEC_DISP_REP_ANCHOR_TAG_TO_ENT
  2
AecDbDispRepAnchorTagToEnt
  3
AecScheduleData50|Product Desc: Autodesk Architectural Desktop 2007 |Company: Autodesk,Inc. |WEB Address: www.autodesk.com
 90
      129
 91
        0
280
     0
281
     0
  0
CLASS
  1
AEC_DISP_REP_BDG_ELEVLINE_MODEL
  2
AecDbDispRepBdgElevLineModel
  3
AecArchBase50|Product Desc: Autodesk Architectural Desktop 2007 |Company: Autodesk,Inc. |WEB Address: www.autodesk.com
 90
      129
 91
        0
280
     0
281
     0
  0
CLASS
  1
AEC_DISP_REP_BDG_SECTIONLINE_PLAN
  2
AecDbDispRepBdgElevLinePlan
  3
AecArchBase50|Product Desc: Autodesk Architectural Desktop 2007 |Company: Autodesk,Inc. |WEB Address: www.autodesk.com
 90
      129
 91
        0
280
     0
281
     0
  0
CLASS
  1
AEC_DISP_REP_BDG_SECTIONLINE_MODEL
  2
AecDbDispRepBdgSectionLineModel
  3
AecArchBase50|Product Desc: Autodesk Architectural Desktop 2007 |Company: Autodesk,Inc. |WEB Address: www.autodesk.com
 90
      129
 91
        0
280
     0
281
     0
  0
CLASS
  1
AEC_DISP_REP_BDG_SECTIONLINE_PLAN
  2
AecDbDispRepBdgSectionLinePlan
  3
AecArchBase50|Product Desc: Autodesk Architectural Desktop 2007 |Company: Autodesk,Inc. |WEB Address: www.autodesk.com
 90
      129
 91
        0
280
     0
281
     0
  0
CLASS
  1
AEC_DISP_REP_BDG_SECTION_SUBDIV
  2
AecDbDispRepBdgSectionSubDiv
  3
AecArchBase50|Product Desc: Autodesk Architectural Desktop 2007 |Company: Autodesk,Inc. |WEB Address: www.autodesk.com
 90
      129
 91
        0
280
     0
281
     0
  0
CLASS
  1
AEC_DISP_REP_CEILING_GRID
  2
AecDbDispRepCeilingGrid
  3
AecArchBase50|Product Desc: Autodesk Architectural Desktop 2007 |Company: Autodesk,Inc. |WEB Address: www.autodesk.com
 90
      893
 91
        0
280
     0
281
     0
  0
CLASS
  1
AEC_DISP_REP_CEILING_GRID_MODEL
  2
AecDbDispRepCeilingGridModel
  3
AecArchBase50|Product Desc: Autodesk Architectural Desktop 2007 |Company: Autodesk,Inc. |WEB Address: www.autodesk.com
 90
      129
 91
        0
280
     0
281
     0
  0
CLASS
  1
AEC_DISP_REP_CEILING_GRID_RCP
  2
AecDbDispRepCeilingGridRcp
  3
AecArchBase50|Product Desc: Autodesk Architectural Desktop 2007 |Company: Autodesk,Inc. |WEB Address: www.autodesk.com
 90
      129
 91
        0
280
     0
281
     0
  0
CLASS
  1
AEC_DISP_REP_CLIP_VOLUME_MODEL
  2
AecDbDispRepClipVolModel
  3
AecBase50|Product Desc: Autodesk Architectural Desktop 2007 |Company: Autodesk,Inc. |WEB Address: www.autodesk.com
 90
      129
 91
        0
280
     0
281
     0
  0
CLASS
  1
AEC_DISP_REP_CLIP_VOLUME_PLAN
  2
AecDbDispRepClipVolPlan
  3
AecBase50|Product Desc: Autodesk Architectural Desktop 2007 |Company: Autodesk,Inc. |WEB Address: www.autodesk.com
 90
      129
 91
        0
280
     0
281
     0
  0
CLASS
  1
AEC_DISP_REP_CLIP_VOLUME_RESULT_SUBDIV
  2
AecDbDispRepClipVolResSubDiv
  3
AecBase50|Product Desc: Autodesk Architectural Desktop 2007 |Company: Autodesk,Inc. |WEB Address: www.autodesk.com
 90
      129
 91
        0
280
     0
281
     0
  0
CLASS
  1
AEC_DISP_REP_CLIP_VOLUME_RESULT
  2
AecDbDispRepClipVolResult
  3
AecBase50|Product Desc: Autodesk Architectural Desktop 2007 |Company: Autodesk,Inc. |WEB Address: www.autodesk.com
 90
      129
 91
        0
280
     0
281
     0
  0
CLASS
  1
AEC_DISP_REP_COLUMN_GRID
  2
AecDbDispRepColumnGrid
  3
AecStructureBase50|Product Desc: Autodesk Architectural Desktop 2007 |Company: Autodesk,Inc. |WEB Address: www.autodesk.com
 90
      129
 91
        0
280
     0
281
     0
  0
CLASS
  1
AEC_DISP_REP_COLUMN_GRID_MODEL
  2
AecDbDispRepColumnGridModel
  3
AecStructureBase50|Product Desc: Autodesk Architectural Desktop 2007 |Company: Autodesk,Inc. |WEB Address: www.autodesk.com
 90
      129
 91
        0
280
     0
281
     0
  0
CLASS
  1
AEC_DISP_REP_CURTAIN_WALL_LAYOUT_MODEL
  2
AecDbDispRepCurtainWallLayoutModel
  3
AecArchBase50|Product Desc: Autodesk Architectural Desktop 2007 |Company: Autodesk,Inc. |WEB Address: www.autodesk.com
 90
      129
 91
        0
280
     0
281
     0
  0
CLASS
  1
AEC_DISP_REP_CURTAIN_WALL_LAYOUT_PLAN
  2
AecDbDispRepCurtainWallLayoutPlan
  3
AecArchBase50|Product Desc: Autodesk Architectural Desktop 2007 |Company: Autodesk,Inc. |WEB Address: www.autodesk.com
 90
      129
 91
        0
280
     0
281
     0
  0
CLASS
  1
AEC_DISP_REP_CURTAIN_WALL_UNIT_MODEL
  2
AecDbDispRepCurtainWallUnitModel
  3
AecArchBase50|Product Desc: Autodesk Architectural Desktop 2007 |Company: Autodesk,Inc. |WEB Address: www.autodesk.com
 90
      129
 91
        0
280
     0
281
     0
  0
CLASS
  1
AEC_DISP_REP_CURTAIN_WALL_UNIT_PLAN
  2
AecDbDispRepCurtainWallUnitPlan
  3
AecArchBase50|Product Desc: Autodesk Architectural Desktop 2007 |Company: Autodesk,Inc. |WEB Address: www.autodesk.com
 90
      129
 91
        0
280
     0
281
     0
  0
CLASS
  1
AEC_DB_DISP_REP_DIM_GROUP_PLAN
  2
AecDbDispRepDimGroupPlan
  3
AecArchDACHBase50|Product Desc: Autodesk Architectural Desktop 2007 |Company: Autodesk,Inc. |WEB Address: www.autodesk.com
 90
      129
 91
        0
280
     0
281
     0
  0
CLASS
  1
AEC_DISP_REP_DISPLAYTHEME
  2
AecDbDispRepDisplayTheme
  3
AecBase50|Product Desc: Autodesk Architectural Desktop 2007 |Company: Autodesk,Inc. |WEB Address: www.autodesk.com
 90
      129
 91
        0
280
     0
281
     0
  0
CLASS
  1
AEC_DISP_REP_DOOR_MODEL
  2
AecDbDispRepDoorModel
  3
AecArchBase50|Product Desc: Autodesk Architectural Desktop 2007 |Company: Autodesk,Inc. |WEB Address: www.autodesk.com
 90
      129
 91
        0
280
     0
281
     0
  0
CLASS
  1
AEC_DISP_REP_DOOR_NOMINAL
  2
AecDbDispRepDoorNominal
  3
AecArchBase50|Product Desc: Autodesk Architectural Desktop 2007 |Company: Autodesk,Inc. |WEB Address: www.autodesk.com
 90
      129
 91
        0
280
     0
281
     0
  0
CLASS
  1
AEC_DISP_REP_DOOR_PLAN
  2
AecDbDispRepDoorPlan
  3
AecArchBase50|Product Desc: Autodesk Architectural Desktop 2007 |Company: Autodesk,Inc. |WEB Address: www.autodesk.com
 90
      129
 91
        0
280
     0
281
     0
  0
CLASS
  1
AEC_DISP_REP_EDITINPLACEPROFILE
  2
AecDbDispRepEditInPlaceProfile
  3
AecBase50|Product Desc: Autodesk Architectural Desktop 2007 |Company: Autodesk,Inc. |WEB Address: www.autodesk.com
 90
      129
 91
        0
280
     0
281
     0
  0
CLASS
  1
AEC_DISP_REP_ENT_REF
  2
AecDbDispRepEntRef
  3
AecBase50|Product Desc: Autodesk Architectural Desktop 2007 |Company: Autodesk,Inc. |WEB Address: www.autodesk.com
 90
      129
 91
        0
280
     0
281
     0
  0
CLASS
  1
AEC_DISP_REP_LAYOUT_CURVE
  2
AecDbDispRepLayoutCurve
  3
AecBase50|Product Desc: Autodesk Architectural Desktop 2007 |Company: Autodesk,Inc. |WEB Address: www.autodesk.com
 90
      129
 91
        0
280
     0
281
     0
  0
CLASS
  1
AEC_DISP_REP_LAYOUT_GRID2D
  2
AecDbDispRepLayoutGrid2d
  3
AecBase50|Product Desc: Autodesk Architectural Desktop 2007 |Company: Autodesk,Inc. |WEB Address: www.autodesk.com
 90
      129
 91
        0
280
     0
281
     0
  0
CLASS
  1
AEC_DISP_REP_LAYOUT_GRID3D
  2
AecDbDispRepLayoutGrid3d
  3
AecBase50|Product Desc: Autodesk Architectural Desktop 2007 |Company: Autodesk,Inc. |WEB Address: www.autodesk.com
 90
      129
 91
        0
280
     0
281
     0
  0
CLASS
  1
AEC_DISP_REP_MASKBLOCK_REF
  2
AecDbDispRepMaskBlockRef
  3
AecBase50|Product Desc: Autodesk Architectural Desktop 2007 |Company: Autodesk,Inc. |WEB Address: www.autodesk.com
 90
      129
 91
        0
280
     0
281
     0
  0
CLASS
  1
AEC_DISP_REP_MASKBLOCK_REF_RCP
  2
AecDbDispRepMaskBlockRefRcp
  3
AecArchBase50|Product Desc: Autodesk Architectural Desktop 2007 |Company: Autodesk,Inc. |WEB Address: www.autodesk.com
 90
      129
 91
        0
280
     0
281
     0
  0
CLASS
  1
AEC_DISP_REP_MASS_ELEM_MODEL
  2
AecDbDispRepMassElemModel
  3
AecBaseEx50|Product Desc: Autodesk Architectural Desktop 2007 |Company: Autodesk,Inc. |WEB Address: www.autodesk.com
 90
      129
 91
        0
280
     0
281
     0
  0
CLASS
  1
AEC_DISP_REP_MASS_ELEM_SCHEM
  2
AecDbDispRepMassElemSchem
  3
AecBaseEx50|Product Desc: Autodesk Architectural Desktop 2007 |Company: Autodesk,Inc. |WEB Address: www.autodesk.com
 90
      129
 91
        0
280
     0
281
     0
  0
CLASS
  1
AEC_DISP_REP_MASS_GROUP_MODEL
  2
AecDbDispRepMassGroupModel
  3
AecBaseEx50|Product Desc: Autodesk Architectural Desktop 2007 |Company: Autodesk,Inc. |WEB Address: www.autodesk.com
 90
      129
 91
        0
280
     0
281
     0
  0
CLASS
  1
AEC_DISP_REP_MASS_GROUP_PLAN
  2
AecDbDispRepMassGroupPlan
  3
AecBaseEx50|Product Desc: Autodesk Architectural Desktop 2007 |Company: Autodesk,Inc. |WEB Address: www.autodesk.com
 90
      129
 91
        0
280
     0
281
     0
  0
CLASS
  1
AEC_DISP_REP_MATERIAL
  2
AecDbDispRepMaterial
  3
AecBase50|Product Desc: Autodesk Architectural Desktop 2007 |Company: Autodesk,Inc. |WEB Address: www.autodesk.com
 90
      129
 91
        0
280
     0
281
     0
  0
CLASS
  1
AEC_DISP_REP_MVBLOCK_REF
  2
AecDbDispRepMvBlockRef
  3
AecBase50|Product Desc: Autodesk Architectural Desktop 2007 |Company: Autodesk,Inc. |WEB Address: www.autodesk.com
 90
      129
 91
        0
280
     0
281
     0
  0
CLASS
  1
AEC_DISP_REP_MVBLOCK_REF_MODEL
  2
AecDbDispRepMvBlockRefModel
  3
AecBase50|Product Desc: Autodesk Architectural Desktop 2007 |Company: Autodesk,Inc. |WEB Address: www.autodesk.com
 90
      129
 91
        0
280
     0
281
     0
  0
CLASS
  1
AEC_DISP_REP_OPENING
  2
AecDbDispRepOpening
  3
AecArchBase50|Product Desc: Autodesk Architectural Desktop 2007 |Company: Autodesk,Inc. |WEB Address: www.autodesk.com
 90
      129
 91
        0
280
     0
281
     0
  0
CLASS
  1
AEC_DISP_REP_OPENING_MODEL
  2
AecDbDispRepOpeningModel
  3
AecArchBase50|Product Desc: Autodesk Architectural Desktop 2007 |Company: Autodesk,Inc. |WEB Address: www.autodesk.com
 90
      129
 91
        0
280
     0
281
     0
  0
CLASS
  1
AEC_DISP_REP_POLYGON_MODEL
  2
AecDbDispRepPolygonModel
  3
AecBaseEx50|Product Desc: Autodesk Architectural Desktop 2007 |Company: Autodesk,Inc. |WEB Address: www.autodesk.com
 90
      129
 91
        0
280
     0
281
     0
  0
CLASS
  1
AEC_DISP_REP_RAILING_MODEL
  2
AecDbDispRepRailingModel
  3
AecArchBase50|Product Desc: Autodesk Architectural Desktop 2007 |Company: Autodesk,Inc. |WEB Address: www.autodesk.com
 90
      129
 91
        0
280
     0
281
     0
  0
CLASS
  1
AEC_DISP_REP_RAILING_PLAN
  2
AecDbDispRepRailingPlan
  3
AecArchBase50|Product Desc: Autodesk Architectural Desktop 2007 |Company: Autodesk,Inc. |WEB Address: www.autodesk.com
 90
      129
 91
        0
280
     0
281
     0
  0
CLASS
  1
AEC_DISP_REP_ROOF_MODEL
  2
AecDbDispRepRoofModel
  3
AecArchBase50|Product Desc: Autodesk Architectural Desktop 2007 |Company: Autodesk,Inc. |WEB Address: www.autodesk.com
 90
      129
 91
        0
280
     0
281
     0
  0
CLASS
  1
AEC_DISP_REP_ROOF_PLAN
  2
AecDbDispRepRoofPlan
  3
AecArchBase50|Product Desc: Autodesk Architectural Desktop 2007 |Company: Autodesk,Inc. |WEB Address: www.autodesk.com
 90
      129
 91
        0
280
     0
281
     0
  0
CLASS
  1
AEC_DISP_REP_ROOFSLAB_MODEL
  2
AecDbDispRepRoofSlabModel
  3
AecArchBase50|Product Desc: Autodesk Architectural Desktop 2007 |Company: Autodesk,Inc. |WEB Address: www.autodesk.com
 90
      129
 91
        0
280
     0
281
     0
  0
CLASS
  1
AEC_DISP_REP_ROOFSLAB_PLAN
  2
AecDbDispRepRoofSlabPlan
  3
AecArchBase50|Product Desc: Autodesk Architectural Desktop 2007 |Company: Autodesk,Inc. |WEB Address: www.autodesk.com
 90
      129
 91
        0
280
     0
281
     0
  0
CLASS
  1
AEC_DISP_REP_SCHEDULE_TABLE
  2
AecDbDispRepScheduleTable
  3
AecSchedule50|Product Desc: Autodesk Architectural Desktop 2007 |Company: Autodesk,Inc. |WEB Address: www.autodesk.com
 90
      129
 91
        0
280
     0
281
     0
  0
CLASS
  1
AEC_DISP_REP_SLAB_MODEL
  2
AecDbDispRepSlabModel
  3
AecArchBase50|Product Desc: Autodesk Architectural Desktop 2007 |Company: Autodesk,Inc. |WEB Address: www.autodesk.com
 90
      129
 91
        0
280
     0
281
     0
  0
CLASS
  1
AEC_DISP_REP_SLAB_PLAN
  2
AecDbDispRepSlabPlan
  3
AecArchBase50|Product Desc: Autodesk Architectural Desktop 2007 |Company: Autodesk,Inc. |WEB Address: www.autodesk.com
 90
      129
 91
        0
280
     0
281
     0
  0
CLASS
  1
AEC_DISP_REP_SLICE
  2
AecDbDispRepSlice
  3
AecBase50|Product Desc: Autodesk Architectural Desktop 2007 |Company: Autodesk,Inc. |WEB Address: www.autodesk.com
 90
      129
 91
        0
280
     0
281
     0
  0
CLASS
  1
AEC_DISP_REP_SPACE_DECOMPOSED
  2
AecDbDispRepSpaceDecomposed
  3
AecArchBase50|Product Desc: Autodesk Architectural Desktop 2007 |Company: Autodesk,Inc. |WEB Address: www.autodesk.com
 90
      129
 91
        0
280
     0
281
     0
  0
CLASS
  1
AEC_DISP_REP_SPACE_MODEL
  2
AecDbDispRepSpaceModel
  3
AecArchBase50|Product Desc: Autodesk Architectural Desktop 2007 |Company: Autodesk,Inc. |WEB Address: www.autodesk.com
 90
      129
 91
        0
280
     0
281
     0
  0
CLASS
  1
AEC_DISP_REP_SPACE_PLAN
  2
AecDbDispRepSpacePlan
  3
AecArchBase50|Product Desc: Autodesk Architectural Desktop 2007 |Company: Autodesk,Inc. |WEB Address: www.autodesk.com
 90
      129
 91
        0
280
     0
281
     0
  0
CLASS
  1
AEC_DISP_REP_STAIR_MODEL
  2
AecDbDispRepStairModel
  3
AecArchBase50|Product Desc: Autodesk Architectural Desktop 2007 |Company: Autodesk,Inc. |WEB Address: www.autodesk.com
 90
      129
 91
        0
280
     0
281
     0
  0
CLASS
  1
AEC_DISP_REP_STAIR_PLAN
  2
AecDbDispRepStairPlan
  3
AecArchBase50|Product Desc: Autodesk Architectural Desktop 2007 |Company: Autodesk,Inc. |WEB Address: www.autodesk.com
 90
      129
 91
        0
280
     0
281
     0
  0
CLASS
  1
AEC_DISP_REP_WALL_GRAPH
  2
AecDbDispRepWallGraph
  3
AecArchBase50|Product Desc: Autodesk Architectural Desktop 2007 |Company: Autodesk,Inc. |WEB Address: www.autodesk.com
 90
      129
 91
        0
280
     0
281
     0
  0
CLASS
  1
AEC_DISP_REP_WALL_MODEL
  2
AecDbDispRepWallModel
  3
AecArchBase50|Product Desc: Autodesk Architectural Desktop 2007 |Company: Autodesk,Inc. |WEB Address: www.autodesk.com
 90
      129
 91
        0
280
     0
281
     0
  0
CLASS
  1
AEC_DISP_REP_WALL_PLAN
  2
AecDbDispRepWallPlan
  3
AecArchBase50|Product Desc: Autodesk Architectural Desktop 2007 |Company: Autodesk,Inc. |WEB Address: www.autodesk.com
 90
      129
 91
        0
280
     0
281
     0
  0
CLASS
  1
AEC_DISP_REP_WALL_SCHEM
  2
AecDbDispRepWallSchem
  3
AecArchBase50|Product Desc: Autodesk Architectural Desktop 2007 |Company: Autodesk,Inc. |WEB Address: www.autodesk.com
 90
      129
 91
        0
280
     0
281
     0
  0
CLASS
  1
AEC_DISP_REP_WINDOW_ASSEMBLY_MODEL
  2
AecDbDispRepWindowAssemblyModel
  3
AecArchBase50|Product Desc: Autodesk Architectural Desktop 2007 |Company: Autodesk,Inc. |WEB Address: www.autodesk.com
 90
      129
 91
        0
280
     0
281
     0
  0
CLASS
  1
AEC_DISP_REP_WINDOW_ASSEMBLY_PLAN
  2
AecDbDispRepWindowAssemblyPlan
  3
AecArchBase50|Product Desc: Autodesk Architectural Desktop 2007 |Company: Autodesk,Inc. |WEB Address: www.autodesk.com
 90
      129
 91
        0
280
     0
281
     0
  0
CLASS
  1
AEC_AECDBDISPREPWINDOWASSEMBLYPLAN100
  2
AecDbDispRepWindowAssemblyPlan100
  3
AecArchDACHBase50|Product Desc: Autodesk Architectural Desktop 2007 |Company: Autodesk,Inc. |WEB Address: www.autodesk.com
 90
      129
 91
        0
280
     0
281
     0
  0
CLASS
  1
AEC_DISP_REP_WINDOW_MODEL
  2
AecDbDispRepWindowModel
  3
AecArchBase50|Product Desc: Autodesk Architectural Desktop 2007 |Company: Autodesk,Inc. |WEB Address: www.autodesk.com
 90
      129
 91
        0
280
     0
281
     0
  0
CLASS
  1
AEC_DISP_REP_WINDOW_NOMINAL
  2
AecDbDispRepWindowNominal
  3
AecArchBase50|Product Desc: Autodesk Architectural Desktop 2007 |Company: Autodesk,Inc. |WEB Address: www.autodesk.com
 90
      129
 91
        0
280
     0
281
     0
  0
CLASS
  1
AEC_DISP_REP_WINDOW_PLAN
  2
AecDbDispRepWindowPlan
  3
AecArchBase50|Product Desc: Autodesk Architectural Desktop 2007 |Company: Autodesk,Inc. |WEB Address: www.autodesk.com
 90
      129
 91
        0
280
     0
281
     0
  0
CLASS
  1
AEC_DISP_REP_ZONE
  2
AecDbDispRepZone
  3
AecArchBase50|Product Desc: Autodesk Architectural Desktop 2007 |Company: Autodesk,Inc. |WEB Address: www.autodesk.com
 90
      129
 91
        0
280
     0
281
     0
  0
CLASS
  1
AECS_DISP_REP_MEMBER_LOGICAL
  2
AecsDbDispRepMemberLogical
  3
AecStructureBase50|Product Desc: Autodesk Architectural Desktop 2007 |Company: Autodesk,Inc. |WEB Address: www.autodesk.com
 90
      129
 91
        0
280
     0
281
     0
  0
CLASS
  1
AECS_DISP_REP_MEMBER_MODEL_DESIGN
  2
AecsDbDispRepMemberModelDesign
  3
AecStructureBase50|Product Desc: Autodesk Architectural Desktop 2007 |Company: Autodesk,Inc. |WEB Address: www.autodesk.com
 90
      129
 91
        0
280
     0
281
     0
  0
CLASS
  1
AECS_DISP_REP_MEMBER_PLAN_DESIGN
  2
AecsDbDispRepMemberPlanDesign
  3
AecStructureBase50|Product Desc: Autodesk Architectural Desktop 2007 |Company: Autodesk,Inc. |WEB Address: www.autodesk.com
 90
      129
 91
        0
280
     0
281
     0
  0
CLASS
  1
AEC_DISP_PROPS_ENT
  2
AecDbDispPropsEnt
  3
AecBase50|Product Desc: Autodesk Architectural Desktop 2007 |Company: Autodesk,Inc. |WEB Address: www.autodesk.com
 90
      129
 91
        0
280
     0
281
     0
  0
CLASS
  1
AEC_DISP_PROPS_ZONE
  2
AecDbDispPropsZone
  3
AecArchBase50|Product Desc: Autodesk Architectural Desktop 2007 |Company: Autodesk,Inc. |WEB Address: www.autodesk.com
 90
      129
 91
        0
280
     0
281
     0
  0
CLASS
  1
AEC_DISP_PROPS_GRID_ASSEMBLY_MODEL
  2
AecDbDispPropsGridAssemblyModel
  3
AecArchBase50|Product Desc: Autodesk Architectural Desktop 2007 |Company: Autodesk,Inc. |WEB Address: www.autodesk.com
 90
      129
 91
        0
280
     0
281
     0
  0
CLASS
  1
AEC_DISP_PROPS_2D_SECTION
  2
AecDbDispProps2dSection
  3
AecBase50|Product Desc: Autodesk Architectural Desktop 2007 |Company: Autodesk,Inc. |WEB Address: www.autodesk.com
 90
      129
 91
        0
280
     0
281
     0
  0
CLASS
  1
AEC_DISP_PROPS_OPENING
  2
AecDbDispPropsOpening
  3
AecArchBase50|Product Desc: Autodesk Architectural Desktop 2007 |Company: Autodesk,Inc. |WEB Address: www.autodesk.com
 90
      129
 91
        0
280
     0
281
     0
  0
CLASS
  1
AEC_DISP_PROPS_DOOR
  2
AecDbDispPropsDoor
  3
AecArchBase50|Product Desc: Autodesk Architectural Desktop 2007 |Company: Autodesk,Inc. |WEB Address: www.autodesk.com
 90
      129
 91
        0
280
     0
281
     0
  0
CLASS
  1
AEC_DISP_PROPS_WALL_SCHEM
  2
AecDbDispPropsWallSchem
  3
AecArchBase50|Product Desc: Autodesk Architectural Desktop 2007 |Company: Autodesk,Inc. |WEB Address: www.autodesk.com
 90
      129
 91
        0
280
     0
281
     0
  0
CLASS
  1
AEC_DISP_PROPS_MASKBLOCK
  2
AecDbDispPropsMaskBlock
  3
AecBase50|Product Desc: Autodesk Architectural Desktop 2007 |Company: Autodesk,Inc. |WEB Address: www.autodesk.com
 90
      129
 91
        0
280
     0
281
     0
  0
CLASS
  1
AEC_DISP_PROPS_SCHEDULE_TABLE
  2
AecDbDispPropsScheduleTable
  3
AecSchedule50|Product Desc: Autodesk Architectural Desktop 2007 |Company: Autodesk,Inc. |WEB Address: www.autodesk.com
 90
      129
 91
        0
280
     0
281
     0
  0
CLASS
  1
AECS_DISP_PROPS_MEMBER
  2
AecsDbDispPropsMember
  3
AecStructureBase50|Product Desc: Autodesk Architectural Desktop 2007 |Company: Autodesk,Inc. |WEB Address: www.autodesk.com
 90
      129
 91
        0
280
     0
281
     0
  0
CLASS
  1
AEC_DISP_PROPS_LAYOUT_GRID2D
  2
AecDbDispPropsLayoutGrid2d
  3
AecBase50|Product Desc: Autodesk Architectural Desktop 2007 |Company: Autodesk,Inc. |WEB Address: www.autodesk.com
 90
      129
 91
        0
280
     0
281
     0
  0
CLASS
  1
AEC_DISP_PROPS_EDITINPLACEPROFILE_MODEL
  2
AecDbDispPropsEditInPlaceProfile
  3
AecBase50|Product Desc: Autodesk Architectural Desktop 2007 |Company: Autodesk,Inc. |WEB Address: www.autodesk.com
 90
      129
 91
        0
280
     0
281
     0
  0
CLASS
  1
AEC_DISP_PROPS_ENT_REF
  2
AecDbDispPropsEntRef
  3
AecBase50|Product Desc: Autodesk Architectural Desktop 2007 |Company: Autodesk,Inc. |WEB Address: www.autodesk.com
 90
      129
 91
        0
280
     0
281
     0
  0
CLASS
  1
AEC_DISP_PROPS_ROOFSLAB
  2
AecDbDispPropsRoofSlab
  3
AecArchBase50|Product Desc: Autodesk Architectural Desktop 2007 |Company: Autodesk,Inc. |WEB Address: www.autodesk.com
 90
      129
 91
        0
280
     0
281
     0
  0
CLASS
  1
AEC_DISP_PROPS_LAYOUT_GRID3D
  2
AecDbDispPropsLayoutGrid3d
  3
AecBase50|Product Desc: Autodesk Architectural Desktop 2007 |Company: Autodesk,Inc. |WEB Address: www.autodesk.com
 90
      129
 91
        0
280
     0
281
     0
  0
CLASS
  1
AEC_DISP_PROPS_WALL_GRAPH
  2
AecDbDispPropsWallGraph
  3
AecArchBase50|Product Desc: Autodesk Architectural Desktop 2007 |Company: Autodesk,Inc. |WEB Address: www.autodesk.com
 90
      129
 91
        0
280
     0
281
     0
  0
CLASS
  1
AEC_DISP_PROPS_DIM
  2
AecDbDispPropsDimGroup
  3
AecArchDACHBase50|Product Desc: Autodesk Architectural Desktop 2007 |Company: Autodesk,Inc. |WEB Address: www.autodesk.com
 90
      129
 91
        0
280
     0
281
     0
  0
CLASS
  1
AEC_DISP_PROPS_CLIP_VOLUME
  2
AecDbDispPropsClipVol
  3
AecBase50|Product Desc: Autodesk Architectural Desktop 2007 |Company: Autodesk,Inc. |WEB Address: www.autodesk.com
 90
      129
 91
        0
280
     0
281
     0
  0
CLASS
  1
AEC_DISP_PROPS_STAIR_MODEL
  2
AecDbDispPropsStairModel
  3
AecArchBase50|Product Desc: Autodesk Architectural Desktop 2007 |Company: Autodesk,Inc. |WEB Address: www.autodesk.com
 90
      129
 91
        0
280
     0
281
     0
  0
CLASS
  1
AEC_DISP_PROPS_MASS_GROUP
  2
AecDbDispPropsMassGroup
  3
AecBaseEx50|Product Desc: Autodesk Architectural Desktop 2007 |Company: Autodesk,Inc. |WEB Address: www.autodesk.com
 90
      129
 91
        0
280
     0
281
     0
  0
CLASS
  1
AEC_DISP_PROPS_GRID_ASSEMBLY_PLAN
  2
AecDbDispPropsGridAssemblyPlan
  3
AecArchBase50|Product Desc: Autodesk Architectural Desktop 2007 |Company: Autodesk,Inc. |WEB Address: www.autodesk.com
 90
      129
 91
        0
280
     0
281
     0
  0
CLASS
  1
AEC_DISP_PROPS_SLAB_PLAN
  2
AecDbDispPropsSlabPlan
  3
AecArchBase50|Product Desc: Autodesk Architectural Desktop 2007 |Company: Autodesk,Inc. |WEB Address: www.autodesk.com
 90
      129
 91
        0
280
     0
281
     0
  0
CLASS
  1
AEC_DISP_PROPS_RAILING_MODEL
  2
AecDbDispPropsRailingModel
  3
AecArchBase50|Product Desc: Autodesk Architectural Desktop 2007 |Company: Autodesk,Inc. |WEB Address: www.autodesk.com
 90
      129
 91
        0
280
     0
281
     0
  0
CLASS
  1
AEC_DISP_PROPS_MASS_ELEM_MODEL
  2
AecDbDispPropsMassElem
  3
AecBaseEx50|Product Desc: Autodesk Architectural Desktop 2007 |Company: Autodesk,Inc. |WEB Address: www.autodesk.com
 90
      129
 91
        0
280
     0
281
     0
  0
CLASS
  1
AEC_DISP_PROPS_SPACE_PLAN
  2
AecDbDispPropsSpacePlan
  3
AecArchBase50|Product Desc: Autodesk Architectural Desktop 2007 |Company: Autodesk,Inc. |WEB Address: www.autodesk.com
 90
      129
 91
        0
280
     0
281
     0
  0
CLASS
  1
AECS_DISP_PROPS_MEMBER_PLAN
  2
AecsDbDispPropsMemberPlan
  3
AecStructureBase50|Product Desc: Autodesk Architectural Desktop 2007 |Company: Autodesk,Inc. |WEB Address: www.autodesk.com
 90
      129
 91
        0
280
     0
281
     0
  0
CLASS
  1
AEC_DISP_PROPS_ROOF
  2
AecDbDispPropsRoof
  3
AecArchBase50|Product Desc: Autodesk Architectural Desktop 2007 |Company: Autodesk,Inc. |WEB Address: www.autodesk.com
 90
      129
 91
        0
280
     0
281
     0
  0
CLASS
  1
AEC_DISP_PROPS_DISPLAYTHEME
  2
AecDbDispPropsDisplayTheme
  3
AecBase50|Product Desc: Autodesk Architectural Desktop 2007 |Company: Autodesk,Inc. |WEB Address: www.autodesk.com
 90
      129
 91
        0
280
     0
281
     0
  0
CLASS
  1
AEC_DISP_PROPS_ROOFSLAB_PLAN
  2
AecDbDispPropsRoofSlabPlan
  3
AecArchBase50|Product Desc: Autodesk Architectural Desktop 2007 |Company: Autodesk,Inc. |WEB Address: www.autodesk.com
 90
      129
 91
        0
280
     0
281
     0
  0
CLASS
  1
AEC_DISP_PROPS_WINDOW_NOMINAL
  2
AecDbDispPropsWindowNominal
  3
AecArchBase50|Product Desc: Autodesk Architectural Desktop 2007 |Company: Autodesk,Inc. |WEB Address: www.autodesk.com
 90
      129
 91
        0
280
     0
281
     0
  0
CLASS
  1
AEC_DISP_PROPS_STAIR_PLAN
  2
AecDbDispPropsStairPlan
  3
AecArchBase50|Product Desc: Autodesk Architectural Desktop 2007 |Company: Autodesk,Inc. |WEB Address: www.autodesk.com
 90
      129
 91
        0
280
     0
281
     0
  0
CLASS
  1
AECS_DISP_PROPS_MEMBER_LOGICAL
  2
AecsDbDispPropsMemberLogical
  3
AecStructureBase50|Product Desc: Autodesk Architectural Desktop 2007 |Company: Autodesk,Inc. |WEB Address: www.autodesk.com
 90
      129
 91
        0
280
     0
281
     0
  0
CLASS
  1
AEC_DISP_PROPS_POLYGON_MODEL
  2
AecDbDispPropsPolygonModel
  3
AecBaseEx50|Product Desc: Autodesk Architectural Desktop 2007 |Company: Autodesk,Inc. |WEB Address: www.autodesk.com
 90
      129
 91
        0
280
     0
281
     0
  0
CLASS
  1
AEC_DISP_PROPS_LAYOUT_CURVE
  2
AecDbDispPropsLayoutCurve
  3
AecBase50|Product Desc: Autodesk Architectural Desktop 2007 |Company: Autodesk,Inc. |WEB Address: www.autodesk.com
 90
      129
 91
        0
280
     0
281
     0
  0
CLASS
  1
AEC_DISP_PROPS_SPACE_DECOMPOSED
  2
AecDbDispPropsSpaceDecomposed
  3
AecArchBase50|Product Desc: Autodesk Architectural Desktop 2007 |Company: Autodesk,Inc. |WEB Address: www.autodesk.com
 90
      129
 91
        0
280
     0
281
     0
  0
CLASS
  1
AEC_DISP_PROPS_RAILING_PLAN
  2
AecDbDispPropsRailingPlan
  3
AecArchBase50|Product Desc: Autodesk Architectural Desktop 2007 |Company: Autodesk,Inc. |WEB Address: www.autodesk.com
 90
      129
 91
        0
280
     0
281
     0
  0
CLASS
  1
AEC_DISP_PROPS_SLICE
  2
AecDbDispPropsSlice
  3
AecBase50|Product Desc: Autodesk Architectural Desktop 2007 |Company: Autodesk,Inc. |WEB Address: www.autodesk.com
 90
      129
 91
        0
280
     0
281
     0
  0
CLASS
  1
AEC_DISP_PROPS_WINDOW
  2
AecDbDispPropsWindow
  3
AecArchBase50|Product Desc: Autodesk Architectural Desktop 2007 |Company: Autodesk,Inc. |WEB Address: www.autodesk.com
 90
      129
 91
        0
280
     0
281
     0
  0
CLASS
  1
AEC_DISP_PROPS_SPACE_MODEL
  2
AecDbDispPropsSpaceModel
  3
AecArchBase50|Product Desc: Autodesk Architectural Desktop 2007 |Company: Autodesk,Inc. |WEB Address: www.autodesk.com
 90
      129
 91
        0
280
     0
281
     0
  0
CLASS
  1
AEC_DISP_PROPS_WALL_PLAN
  2
AecDbDispPropsWallPlan
  3
AecArchBase50|Product Desc: Autodesk Architectural Desktop 2007 |Company: Autodesk,Inc. |WEB Address: www.autodesk.com
 90
      129
 91
        0
280
     0
281
     0
  0
CLASS
  1
AEC_DISP_PROPS_SLAB
  2
AecDbDispPropsSlab
  3
AecArchBase50|Product Desc: Autodesk Architectural Desktop 2007 |Company: Autodesk,Inc. |WEB Address: www.autodesk.com
 90
      129
 91
        0
280
     0
281
     0
  0
CLASS
  1
AEC_DISP_PROPS_CLIP_VOLUME_RESULT
  2
AecDbDispPropsClipVolResSubDiv
  3
AecBase50|Product Desc: Autodesk Architectural Desktop 2007 |Company: Autodesk,Inc. |WEB Address: www.autodesk.com
 90
      129
 91
        0
280
     0
281
     0
  0
CLASS
  1
AEC_DISP_PROPS_DOOR_NOMINAL
  2
AecDbDispPropsDoorNominal
  3
AecArchBase50|Product Desc: Autodesk Architectural Desktop 2007 |Company: Autodesk,Inc. |WEB Address: www.autodesk.com
 90
      129
 91
        0
280
     0
281
     0
  0
CLASS
  1
AEC_DISP_PROPS_MATERIAL
  2
AecDbDispPropsMaterial
  3
AecBase50|Product Desc: Autodesk Architectural Desktop 2007 |Company: Autodesk,Inc. |WEB Address: www.autodesk.com
 90
      129
 91
        0
280
     0
281
     0
  0
CLASS
  1
AEC_DISP_PROPS_WALL_MODEL
  2
AecDbDispPropsWallModel
  3
AecArchBase50|Product Desc: Autodesk Architectural Desktop 2007 |Company: Autodesk,Inc. |WEB Address: www.autodesk.com
 90
      129
 91
        0
280
     0
281
     0
  0
CLASS
  1
AEC_LAYERKEY_STYLE
  2
AecDbLayerKeyStyle
  3
AecBase50|Product Desc: Autodesk Architectural Desktop 2007 |Company: Autodesk,Inc. |WEB Address: www.autodesk.com
 90
      129
 91
        0
280
     0
281
     0
  0
CLASS
  1
AEC_VARS_ARCHBASE
  2
AecDbVarsArchBase
  3
AecArchBase50|Product Desc: Autodesk Architectural Desktop 2007 |Company: Autodesk,Inc. |WEB Address: www.autodesk.com
 90
      129
 91
        0
280
     0
281
     0
  0
CLASS
  1
AEC_VARS_MUNICH
  2
AecDbVarsMunich
  3
AecArchDACHBase50|Product Desc: Autodesk Architectural Desktop 2007 |Company: Autodesk,Inc. |WEB Address: www.autodesk.com
 90
      129
 91
        0
280
     0
281
     0
  0
CLASS
  1
AEC_NOTIFICATION_TRACKER
  2
AecDbNotificationTracker
  3
AecBase50|Product Desc: Autodesk Architectural Desktop 2007 |Company: Autodesk,Inc. |WEB Address: www.autodesk.com
 90
      129
 91
        0
280
     0
281
     0
  0
CLASS
  1
AEC_DISP_REP_DOOR_THRESHOLD_SYMBOL_PLAN
  2
AecDbDispRepDoorThresholdSymbolPlan
  3
AecArchDACHBase50|Product Desc: Autodesk Architectural Desktop 2007 |Company: Autodesk,Inc. |WEB Address: www.autodesk.com
 90
      129
 91
        0
280
     0
281
     0
  0
CLASS
  1
AEC_DISP_PROPS_DOOR_THRESHOLD_SYMBOL_PLAN
  2
AecDbDispPropsDoorThresholdSymbolPlan
  3
AecArchDACHBase50|Product Desc: Autodesk Architectural Desktop 2007 |Company: Autodesk,Inc. |WEB Address: www.autodesk.com
 90
      129
 91
        0
280
     0
281
     0
  0
CLASS
  1
AEC_DISP_REP_RAILING_PLAN_100
  2
AecDbDispRepRailingPlan100
  3
AecArchDACHBase50|Product Desc: Autodesk Architectural Desktop 2007 |Company: Autodesk,Inc. |WEB Address: www.autodesk.com
 90
      129
 91
        0
280
     0
281
     0
  0
CLASS
  1
AEC_DISP_ROPS_RAILING_PLAN_100
  2
AecDbDispPropsRailingPlan100
  3
AecArchDACHBase50|Product Desc: Autodesk Architectural Desktop 2007 |Company: Autodesk,Inc. |WEB Address: www.autodesk.com
 90
      129
 91
        0
280
     0
281
     0
  0
CLASS
  1
AEC_DISP_REP_STAIR_PLAN_50
  2
AecDbDispRepStairPlan50
  3
AecArchDACHBase50|Product Desc: Autodesk Architectural Desktop 2007 |Company: Autodesk,Inc. |WEB Address: www.autodesk.com
 90
      129
 91
        0
280
     0
281
     0
  0
CLASS
  1
AEC_DISP_ROPS_STAIR_PLAN_50
  2
AecDbDispPropsStairPlan50
  3
AecArchDACHBase50|Product Desc: Autodesk Architectural Desktop 2007 |Company: Autodesk,Inc. |WEB Address: www.autodesk.com
 90
      129
 91
        0
280
     0
281
     0
  0
CLASS
  1
AEC_DISP_REP_STAIR_PLAN_100
  2
AecDbDispRepStairPlan100
  3
AecArchDACHBase50|Product Desc: Autodesk Architectural Desktop 2007 |Company: Autodesk,Inc. |WEB Address: www.autodesk.com
 90
      129
 91
        0
280
     0
281
     0
  0
CLASS
  1
AEC_DISP_ROPS_STAIR_PLAN_100
  2
AecDbDispPropsStairPlan100
  3
AecArchDACHBase50|Product Desc: Autodesk Architectural Desktop 2007 |Company: Autodesk,Inc. |WEB Address: www.autodesk.com
 90
      129
 91
        0
280
     0
281
     0
  0
CLASS
  1
AEC_DISP_REP_DOOR_PLAN_HEKTO
  2
AecDbDispRepDoorPlanHekto
  3
AecArchDACHBase50|Product Desc: Autodesk Architectural Desktop 2007 |Company: Autodesk,Inc. |WEB Address: www.autodesk.com
 90
      129
 91
        0
280
     0
281
     0
  0
CLASS
  1
AEC_DISP_PROPS_DOOR_PLAN_100
  2
AecDbDispPropsDoorPlan100
  3
AecArchDACHBase50|Product Desc: Autodesk Architectural Desktop 2007 |Company: Autodesk,Inc. |WEB Address: www.autodesk.com
 90
      129
 91
        0
280
     0
281
     0
  0
CLASS
  1
AEC_DB_DISP_REP_DIM_GROUP_PLAN50
  2
AecDbDispRepDimGroupPlan50
  3
AecArchDACHBase50|Product Desc: Autodesk Architectural Desktop 2007 |Company: Autodesk,Inc. |WEB Address: www.autodesk.com
 90
      129
 91
        0
280
     0
281
     0
  0
CLASS
  1
AEC_DISPREPAECDBDISPREPMASSGROUPPLAN100
  2
AecDbDispRepMassGroupPlan100
  3
AecArchDACHBase50|Product Desc: Autodesk Architectural Desktop 2007 |Company: Autodesk,Inc. |WEB Address: www.autodesk.com
 90
      129
 91
        0
280
     0
281
     0
  0
CLASS
  1
AEC_DISPROPSMASSGROUPPLANCOMMON
  2
AecDbDispPropsMassGroupPlanCommon
  3
AecArchDACHBase50|Product Desc: Autodesk Architectural Desktop 2007 |Company: Autodesk,Inc. |WEB Address: www.autodesk.com
 90
      129
 91
        0
280
     0
281
     0
  0
CLASS
  1
AEC_DISP_REP_WINDOW_PLAN_100
  2
AecDbDispRepWindowPlan100
  3
AecArchDACHBase50|Product Desc: Autodesk Architectural Desktop 2007 |Company: Autodesk,Inc. |WEB Address: www.autodesk.com
 90
      129
 91
        0
280
     0
281
     0
  0
CLASS
  1
AEC_DISP_PROPS_WINDOW_PLAN_100
  2
AecDbDispPropsWindowPlan100
  3
AecArchDACHBase50|Product Desc: Autodesk Architectural Desktop 2007 |Company: Autodesk,Inc. |WEB Address: www.autodesk.com
 90
      129
 91
        0
280
     0
281
     0
  0
CLASS
  1
AEC_DISPREPAECDBDISPREPMASSELEMPLAN50
  2
AecDbDispRepMassElemPlan50
  3
AecArchDACHBase50|Product Desc: Autodesk Architectural Desktop 2007 |Company: Autodesk,Inc. |WEB Address: www.autodesk.com
 90
      129
 91
        0
280
     0
281
     0
  0
CLASS
  1
AEC_DISPROPSMASSELEMPLANCOMMON
  2
AecDbDispPropsMassElemPlanCommon
  3
AecArchDACHBase50|Product Desc: Autodesk Architectural Desktop 2007 |Company: Autodesk,Inc. |WEB Address: www.autodesk.com
 90
      129
 91
        0
280
     0
281
     0
  0
CLASS
  1
AEC_DB_DISP_REP_DIM_GROUP_PLAN100
  2
AecDbDispRepDimGroupPlan100
  3
AecArchDACHBase50|Product Desc: Autodesk Architectural Desktop 2007 |Company: Autodesk,Inc. |WEB Address: www.autodesk.com
 90
      129
 91
        0
280
     0
281
     0
  0
CLASS
  1
AEC_DISPREPAECDBDISPREPMASSELEMPLAN100
  2
AecDbDispRepMassElemPlan100
  3
AecArchDACHBase50|Product Desc: Autodesk Architectural Desktop 2007 |Company: Autodesk,Inc. |WEB Address: www.autodesk.com
 90
      129
 91
        0
280
     0
281
     0
  0
CLASS
  1
AEC_DISP_REP_DOOR_PLAN_50
  2
AecDbDispRepDoorPlan50
  3
AecArchDACHBase50|Product Desc: Autodesk Architectural Desktop 2007 |Company: Autodesk,Inc. |WEB Address: www.autodesk.com
 90
      129
 91
        0
280
     0
281
     0
  0
CLASS
  1
AEC_DISP_PROPS_DOOR_PLAN_50
  2
AecDbDispPropsDoorPlan50
  3
AecArchDACHBase50|Product Desc: Autodesk Architectural Desktop 2007 |Company: Autodesk,Inc. |WEB Address: www.autodesk.com
 90
      129
 91
        0
280
     0
281
     0
  0
CLASS
  1
AEC_DISPREPAECDBDISPREPOPENINGPLANREFLECTED
  2
AecDbDispRepOpeningPlanReflected
  3
AecArchDACHBase50|Product Desc: Autodesk Architectural Desktop 2007 |Company: Autodesk,Inc. |WEB Address: www.autodesk.com
 90
      129
 91
        0
280
     0
281
     0
  0
CLASS
  1
AEC_DISPROPSOPENINGPLANCOMMON
  2
AecDbDispPropsOpeningPlanCommon
  3
AecArchDACHBase50|Product Desc: Autodesk Architectural Desktop 2007 |Company: Autodesk,Inc. |WEB Address: www.autodesk.com
 90
      129
 91
        0
280
     0
281
     0
  0
CLASS
  1
AEC_DISPREPAECDBDISPREPMASSGROUPPLAN50
  2
AecDbDispRepMassGroupPlan50
  3
AecArchDACHBase50|Product Desc: Autodesk Architectural Desktop 2007 |Company: Autodesk,Inc. |WEB Address: www.autodesk.com
 90
      129
 91
        0
280
     0
281
     0
  0
CLASS
  1
AEC_DISPREPAECDBDISPREPOPENINGPLAN50
  2
AecDbDispRepOpeningPlan50
  3
AecArchDACHBase50|Product Desc: Autodesk Architectural Desktop 2007 |Company: Autodesk,Inc. |WEB Address: www.autodesk.com
 90
      129
 91
        0
280
     0
281
     0
  0
CLASS
  1
AEC_DISPROPSOPENINGPLANCOMMONHATCHED
  2
AecDbDispPropsOpeningPlanCommonHatched
  3
AecArchDACHBase50|Product Desc: Autodesk Architectural Desktop 2007 |Company: Autodesk,Inc. |WEB Address: www.autodesk.com
 90
      129
 91
        0
280
     0
281
     0
  0
CLASS
  1
AEC_DISPREPAECDBDISPREPOPENINGSILLPLAN
  2
AecDbDispRepOpeningSillPlan
  3
AecArchDACHBase50|Product Desc: Autodesk Architectural Desktop 2007 |Company: Autodesk,Inc. |WEB Address: www.autodesk.com
 90
      129
 91
        0
280
     0
281
     0
  0
CLASS
  1
AEC_DISPROPSOPENINGSILLPLAN
  2
AecDbDispPropsOpeningSillPlan
  3
AecArchDACHBase50|Product Desc: Autodesk Architectural Desktop 2007 |Company: Autodesk,Inc. |WEB Address: www.autodesk.com
 90
      129
 91
        0
280
     0
281
     0
  0
CLASS
  1
AEC_DISP_REP_WINDOW_PLAN_50
  2
AecDbDispRepWindowPlan50
  3
AecArchDACHBase50|Product Desc: Autodesk Architectural Desktop 2007 |Company: Autodesk,Inc. |WEB Address: www.autodesk.com
 90
      129
 91
        0
280
     0
281
     0
  0
CLASS
  1
AEC_DISP_PROPS_WINDOW_PLAN_50
  2
AecDbDispPropsWindowPlan50
  3
AecArchDACHBase50|Product Desc: Autodesk Architectural Desktop 2007 |Company: Autodesk,Inc. |WEB Address: www.autodesk.com
 90
      129
 91
        0
280
     0
281
     0
  0
CLASS
  1
AEC_DISP_REP_RAILING_PLAN_50
  2
AecDbDispRepRailingPlan50
  3
AecArchDACHBase50|Product Desc: Autodesk Architectural Desktop 2007 |Company: Autodesk,Inc. |WEB Address: www.autodesk.com
 90
      129
 91
        0
280
     0
281
     0
  0
CLASS
  1
AEC_DISP_ROPS_RAILING_PLAN_50
  2
AecDbDispPropsRailingPlan50
  3
AecArchDACHBase50|Product Desc: Autodesk Architectural Desktop 2007 |Company: Autodesk,Inc. |WEB Address: www.autodesk.com
 90
      129
 91
        0
280
     0
281
     0
  0
CLASS
  1
AEC_DISPREPAECDBDISPREPOPENINGPLAN100
  2
AecDbDispRepOpeningPlan100
  3
AecArchDACHBase50|Product Desc: Autodesk Architectural Desktop 2007 |Company: Autodesk,Inc. |WEB Address: www.autodesk.com
 90
      129
 91
        0
280
     0
281
     0
  0
CLASS
  1
AEC_AECDBDISPREPCURTAINWALLUNITPLAN100
  2
AecDbDispRepCurtainWallUnitPlan100
  3
AecArchDACHBase50|Product Desc: Autodesk Architectural Desktop 2007 |Company: Autodesk,Inc. |WEB Address: www.autodesk.com
 90
      129
 91
        0
280
     0
281
     0
  0
CLASS
  1
AEC_AECDBDISPREPSPACEPLAN100
  2
AecDbDispRepSpacePlan100
  3
AecArchDACHBase50|Product Desc: Autodesk Architectural Desktop 2007 |Company: Autodesk,Inc. |WEB Address: www.autodesk.com
 90
      129
 91
        0
280
     0
281
     0
  0
CLASS
  1
AEC_DISP_REP_COLUMN_GRID_RCP
  2
AecDbDispRepColumnGridRcp
  3
AecStructureBase50|Product Desc: Autodesk Architectural Desktop 2007 |Company: Autodesk,Inc. |WEB Address: www.autodesk.com
 90
      129
 91
        0
280
     0
281
     0
  0
CLASS
  1
AEC_AECDBDISPREPBDGELEVLINEPLAN100
  2
AecDbDispRepBdgElevLinePlan100
  3
AecArchDACHBase50|Product Desc: Autodesk Architectural Desktop 2007 |Company: Autodesk,Inc. |WEB Address: www.autodesk.com
 90
      129
 91
        0
280
     0
281
     0
  0
CLASS
  1
AEC_AECDBDISPREPROOFPLAN100
  2
AecDbDispRepRoofPlan100
  3
AecArchDACHBase50|Product Desc: Autodesk Architectural Desktop 2007 |Company: Autodesk,Inc. |WEB Address: www.autodesk.com
 90
      129
 91
        0
280
     0
281
     0
  0
CLASS
  1
AEC_AECDBDISPREPROOFSLABPLAN50
  2
AecDbDispRepRoofSlabPlan50
  3
AecArchDACHBase50|Product Desc: Autodesk Architectural Desktop 2007 |Company: Autodesk,Inc. |WEB Address: www.autodesk.com
 90
      129
 91
        0
280
     0
281
     0
  0
CLASS
  1
AEC_AECDBDISPREPCOLUMNGRIDPLAN50
  2
AecDbDispRepColumnGridPlan50
  3
AecArchDACHBase50|Product Desc: Autodesk Architectural Desktop 2007 |Company: Autodesk,Inc. |WEB Address: www.autodesk.com
 90
      129
 91
        0
280
     0
281
     0
  0
CLASS
  1
AEC_AECDBDISPREPZONE50
  2
AecDbDispRepZonePlan50
  3
AecArchDACHBase50|Product Desc: Autodesk Architectural Desktop 2007 |Company: Autodesk,Inc. |WEB Address: www.autodesk.com
 90
      129
 91
        0
280
     0
281
     0
  0
CLASS
  1
AEC_AECDBDISPREPCURTAINWALLLAYOUTPLAN50
  2
AecDbDispRepCurtainWallLayoutPlan50
  3
AecArchDACHBase50|Product Desc: Autodesk Architectural Desktop 2007 |Company: Autodesk,Inc. |WEB Address: www.autodesk.com
 90
      129
 91
        0
280
     0
281
     0
  0
CLASS
  1
AEC_AECDBDISPREPZONE100
  2
AecDbDispRepZonePlan100
  3
AecArchDACHBase50|Product Desc: Autodesk Architectural Desktop 2007 |Company: Autodesk,Inc. |WEB Address: www.autodesk.com
 90
      129
 91
        0
280
     0
281
     0
  0
CLASS
  1
AEC_AECDBDISPREPMVBLOCKREFPLAN100
  2
AecDbDispRepMvBlockRefPlan100
  3
AecArchDACHBase50|Product Desc: Autodesk Architectural Desktop 2007 |Company: Autodesk,Inc. |WEB Address: www.autodesk.com
 90
      129
 91
        0
280
     0
281
     0
  0
CLASS
  1
AECS_DISP_REP_MEMBER_PLAN_SKETCH
  2
AecsDbDispRepMemberPlanSketch
  3
AecStructureBase50|Product Desc: Autodesk Architectural Desktop 2007 |Company: Autodesk,Inc. |WEB Address: www.autodesk.com
 90
      129
 91
        0
280
     0
281
     0
  0
CLASS
  1
AECS_DISP_PROPS_MEMBER_PLAN_SKETCH
  2
AecsDbDispPropsMemberPlanSketch
  3
AecStructureBase50|Product Desc: Autodesk Architectural Desktop 2007 |Company: Autodesk,Inc. |WEB Address: www.autodesk.com
 90
      129
 91
        0
280
     0
281
     0
  0
CLASS
  1
AECS_DISP_REP_MEMBER_PLAN_DETAIL
  2
AecsDbDispRepMemberPlanDetail
  3
AecStructureBase50|Product Desc: Autodesk Architectural Desktop 2007 |Company: Autodesk,Inc. |WEB Address: www.autodesk.com
 90
      129
 91
        0
280
     0
281
     0
  0
CLASS
  1
AEC_AECDBDISPREPBDGSECTIONLINEPLAN50
  2
AecDbDispRepBdgSectionLinePlan50
  3
AecArchDACHBase50|Product Desc: Autodesk Architectural Desktop 2007 |Company: Autodesk,Inc. |WEB Address: www.autodesk.com
 90
      129
 91
        0
280
     0
281
     0
  0
CLASS
  1
AEC_AECDBDISPREPCEILINGGRIDPLAN50
  2
AecDbDispRepCeilingGridPlan50
  3
AecArchDACHBase50|Product Desc: Autodesk Architectural Desktop 2007 |Company: Autodesk,Inc. |WEB Address: www.autodesk.com
 90
      129
 91
        0
280
     0
281
     0
  0
CLASS
  1
AECS_DISP_REP_MEMBER_ELEVATION_DESIGN
  2
AecsDbDispRepMemberElevationDesign
  3
AecStructureBase50|Product Desc: Autodesk Architectural Desktop 2007 |Company: Autodesk,Inc. |WEB Address: www.autodesk.com
 90
      129
 91
        0
280
     0
281
     0
  0
CLASS
  1
AECS_DISP_PROPS_MEMBER_PROJECTED
  2
AecsDbDispPropsMemberProjected
  3
AecStructureBase50|Product Desc: Autodesk Architectural Desktop 2007 |Company: Autodesk,Inc. |WEB Address: www.autodesk.com
 90
      129
 91
        0
280
     0
281
     0
  0
CLASS
  1
AEC_AECDBDISPREPWALLPLAN50
  2
AecDbDispRepWallPlan50
  3
AecArchDACHBase50|Product Desc: Autodesk Architectural Desktop 2007 |Company: Autodesk,Inc. |WEB Address: www.autodesk.com
 90
      129
 91
        0
280
     0
281
     0
  0
CLASS
  1
AEC_AECDBDISPREPSPACEPLAN50
  2
AecDbDispRepSpacePlan50
  3
AecArchDACHBase50|Product Desc: Autodesk Architectural Desktop 2007 |Company: Autodesk,Inc. |WEB Address: www.autodesk.com
 90
      129
 91
        0
280
     0
281
     0
  0
CLASS
  1
AEC_AECDBDISPREPWALLPLAN100
  2
AecDbDispRepWallPlan100
  3
AecArchDACHBase50|Product Desc: Autodesk Architectural Desktop 2007 |Company: Autodesk,Inc. |WEB Address: www.autodesk.com
 90
      129
 91
        0
280
     0
281
     0
  0
CLASS
  1
AEC_AECDBDISPREPCURTAINWALLUNITPLAN50
  2
AecDbDispRepCurtainWallUnitPlan50
  3
AecArchDACHBase50|Product Desc: Autodesk Architectural Desktop 2007 |Company: Autodesk,Inc. |WEB Address: www.autodesk.com
 90
      129
 91
        0
280
     0
281
     0
  0
CLASS
  1
AECS_DISP_REP_MEMBER_ELEVATION_DETAIL
  2
AecsDbDispRepMemberElevationDetail
  3
AecStructureBase50|Product Desc: Autodesk Architectural Desktop 2007 |Company: Autodesk,Inc. |WEB Address: www.autodesk.com
 90
      129
 91
        0
280
     0
281
     0
  0
CLASS
  1
AECS_DISP_REP_MEMBER_MODEL_DETAIL
  2
AecsDbDispRepMemberModelDetail
  3
AecStructureBase50|Product Desc: Autodesk Architectural Desktop 2007 |Company: Autodesk,Inc. |WEB Address: www.autodesk.com
 90
      129
 91
        0
280
     0
281
     0
  0
CLASS
  1
AEC_AECDBDISPREPCEILINGGRIDPLAN100
  2
AecDbDispRepCeilingGridPlan100
  3
AecArchDACHBase50|Product Desc: Autodesk Architectural Desktop 2007 |Company: Autodesk,Inc. |WEB Address: www.autodesk.com
 90
      129
 91
        0
280
     0
281
     0
  0
CLASS
  1
AEC_AECDBDISPREPBDGSECTIONLINEPLAN100
  2
AecDbDispRepBdgSectionLinePlan100
  3
AecArchDACHBase50|Product Desc: Autodesk Architectural Desktop 2007 |Company: Autodesk,Inc. |WEB Address: www.autodesk.com
 90
      129
 91
        0
280
     0
281
     0
  0
CLASS
  1
AEC_DISP_REP_ANCHOR_BUB_TO_GRID_RCP
  2
AecDbDispRepAnchorBubToGridRcp
  3
AecStructureBase50|Product Desc: Autodesk Architectural Desktop 2007 |Company: Autodesk,Inc. |WEB Address: www.autodesk.com
 90
      129
 91
        0
280
     0
281
     0
  0
CLASS
  1
AEC_AECDBDISPREPBDGELEVLINEPLAN50
  2
AecDbDispRepBdgElevLinePlan50
  3
AecArchDACHBase50|Product Desc: Autodesk Architectural Desktop 2007 |Company: Autodesk,Inc. |WEB Address: www.autodesk.com
 90
      129
 91
        0
280
     0
281
     0
  0
CLASS
  1
AEC_AECDBDISPREPWINDOWASSEMBLYPLAN50
  2
AecDbDispRepWindowAssemblyPlan50
  3
AecArchDACHBase50|Product Desc: Autodesk Architectural Desktop 2007 |Company: Autodesk,Inc. |WEB Address: www.autodesk.com
 90
      129
 91
        0
280
     0
281
     0
  0
CLASS
  1
AEC_AECDBDISPREPROOFSLABPLAN100
  2
AecDbDispRepRoofSlabPlan100
  3
AecArchDACHBase50|Product Desc: Autodesk Architectural Desktop 2007 |Company: Autodesk,Inc. |WEB Address: www.autodesk.com
 90
      129
 91
        0
280
     0
281
     0
  0
CLASS
  1
AEC_AECDBDISPREPROOFPLAN50
  2
AecDbDispRepRoofPlan50
  3
AecArchDACHBase50|Product Desc: Autodesk Architectural Desktop 2007 |Company: Autodesk,Inc. |WEB Address: www.autodesk.com
 90
      129
 91
        0
280
     0
281
     0
  0
CLASS
  1
AEC_AECDBDISPREPCOLUMNGRIDPLAN100
  2
AecDbDispRepColumnGridPlan100
  3
AecArchDACHBase50|Product Desc: Autodesk Architectural Desktop 2007 |Company: Autodesk,Inc. |WEB Address: www.autodesk.com
 90
      129
 91
        0
280
     0
281
     0
  0
CLASS
  1
AEC_AECDBDISPREPSLABPLAN50
  2
AecDbDispRepSlabPlan50
  3
AecArchDACHBase50|Product Desc: Autodesk Architectural Desktop 2007 |Company: Autodesk,Inc. |WEB Address: www.autodesk.com
 90
      129
 91
        0
280
     0
281
     0
  0
CLASS
  1
AEC_AECDBDISPREPSLABPLAN100
  2
AecDbDispRepSlabPlan100
  3
AecArchDACHBase50|Product Desc: Autodesk Architectural Desktop 2007 |Company: Autodesk,Inc. |WEB Address: www.autodesk.com
 90
      129
 91
        0
280
     0
281
     0
  0
CLASS
  1
AEC_AECDBDISPREPCURTAINWALLLAYOUTPLAN100
  2
AecDbDispRepCurtainWallLayoutPlan100
  3
AecArchDACHBase50|Product Desc: Autodesk Architectural Desktop 2007 |Company: Autodesk,Inc. |WEB Address: www.autodesk.com
 90
      129
 91
        0
280
     0
281
     0
  0
CLASS
  1
AEC_AECDBDISPREPMVBLOCKREFPLAN50
  2
AecDbDispRepMvBlockRefPlan50
  3
AecArchDACHBase50|Product Desc: Autodesk Architectural Desktop 2007 |Company: Autodesk,Inc. |WEB Address: www.autodesk.com
 90
      129
 91
        0
280
     0
281
     0
  0
CLASS
  1
AEC_DISP_REP_WINDOW_ELEV
  2
AecDbDispRepWindowElev
  3
AecArchBase50|Product Desc: Autodesk Architectural Desktop 2007 |Company: Autodesk,Inc. |WEB Address: www.autodesk.com
 90
      129
 91
        0
280
     0
281
     0
  0
CLASS
  1
AEC_DISP_REP_WINDOW_SILL_PLAN
  2
AecDbDispRepWindowSillPlan
  3
AecArchBase50|Product Desc: Autodesk Architectural Desktop 2007 |Company: Autodesk,Inc. |WEB Address: www.autodesk.com
 90
      129
 91
        0
280
     0
281
     0
  0
CLASS
  1
AEC_DISP_PROPS_WINDOW_SILL_PLAN
  2
AecDbDispPropsWindowSillPlan
  3
AecArchBase50|Product Desc: Autodesk Architectural Desktop 2007 |Company: Autodesk,Inc. |WEB Address: www.autodesk.com
 90
      129
 91
        0
280
     0
281
     0
  0
CLASS
  1
AEC_DISP_REP_WINDOW_RCP
  2
AecDbDispRepWindowRcp
  3
AecArchBase50|Product Desc: Autodesk Architectural Desktop 2007 |Company: Autodesk,Inc. |WEB Address: www.autodesk.com
 90
      129
 91
        0
280
     0
281
     0
  0
CLASS
  1
AEC_DISP_REP_WINDOWASSEMBLY_SILL_PLAN
  2
AecDbDispRepWindowAssemblySillPlan
  3
AecArchBase50|Product Desc: Autodesk Architectural Desktop 2007 |Company: Autodesk,Inc. |WEB Address: www.autodesk.com
 90
      129
 91
        0
280
     0
281
     0
  0
CLASS
  1
AEC_DISP_PROPS_WINDOW_ASSEMBLY_SILL_PLAN
  2
AecDbDispPropsWindowAssemblySillPlan
  3
AecArchBase50|Product Desc: Autodesk Architectural Desktop 2007 |Company: Autodesk,Inc. |WEB Address: www.autodesk.com
 90
      129
 91
        0
280
     0
281
     0
  0
CLASS
  1
AEC_DISP_REP_MASS_ELEM_RCP
  2
AecDbDispRepMassElemRcp
  3
AecArchBase50|Product Desc: Autodesk Architectural Desktop 2007 |Company: Autodesk,Inc. |WEB Address: www.autodesk.com
 90
      129
 91
        0
280
     0
281
     0
  0
CLASS
  1
AEC_DISP_REP_MVBLOCK_REF_RCP
  2
AecDbDispRepMvBlockRefRcp
  3
AecArchBase50|Product Desc: Autodesk Architectural Desktop 2007 |Company: Autodesk,Inc. |WEB Address: www.autodesk.com
 90
      129
 91
        0
280
     0
281
     0
  0
CLASS
  1
AEC_DISP_REP_DOOR_THRESHOLD_PLAN
  2
AecDbDispRepDoorThresholdPlan
  3
AecArchBase50|Product Desc: Autodesk Architectural Desktop 2007 |Company: Autodesk,Inc. |WEB Address: www.autodesk.com
 90
      129
 91
        0
280
     0
281
     0
  0
CLASS
  1
AEC_DISP_PROPS_DOOR_THRESHOLD_PLAN
  2
AecDbDispPropsDoorThresholdPlan
  3
AecArchBase50|Product Desc: Autodesk Architectural Desktop 2007 |Company: Autodesk,Inc. |WEB Address: www.autodesk.com
 90
      129
 91
        0
280
     0
281
     0
  0
CLASS
  1
AEC_DISP_REP_BDG_SECTIONLINE_RCP
  2
AecDbDispRepBdgSectionLineRcp
  3
AecArchBase50|Product Desc: Autodesk Architectural Desktop 2007 |Company: Autodesk,Inc. |WEB Address: www.autodesk.com
 90
      129
 91
        0
280
     0
281
     0
  0
CLASS
  1
AEC_DISP_REP_BDG_SECTION_MODEL
  2
AecDbDispRepBdgSectionModel
  3
AecArchBase50|Product Desc: Autodesk Architectural Desktop 2007 |Company: Autodesk,Inc. |WEB Address: www.autodesk.com
 90
      129
 91
        0
280
     0
281
     0
  0
CLASS
  1
AEC_DISP_REP_MASS_GROUP_RCP
  2
AecDbDispRepMassGroupRcp
  3
AecArchBase50|Product Desc: Autodesk Architectural Desktop 2007 |Company: Autodesk,Inc. |WEB Address: www.autodesk.com
 90
      129
 91
        0
280
     0
281
     0
  0
CLASS
  1
AEC_DISP_REP_DOOR_RCP
  2
AecDbDispRepDoorRcp
  3
AecArchBase50|Product Desc: Autodesk Architectural Desktop 2007 |Company: Autodesk,Inc. |WEB Address: www.autodesk.com
 90
      129
 91
        0
280
     0
281
     0
  0
CLASS
  1
AEC_DISP_REP_ROOF_RCP
  2
AecDbDispRepRoofRcp
  3
AecArchBase50|Product Desc: Autodesk Architectural Desktop 2007 |Company: Autodesk,Inc. |WEB Address: www.autodesk.com
 90
      129
 91
        0
280
     0
281
     0
  0
CLASS
  1
AEC_DISP_REP_BDG_ELEVLINE_RCP
  2
AecDbDispRepBdgElevLineRcp
  3
AecArchBase50|Product Desc: Autodesk Architectural Desktop 2007 |Company: Autodesk,Inc. |WEB Address: www.autodesk.com
 90
      129
 91
        0
280
     0
281
     0
  0
CLASS
  1
AEC_DISP_REP_WALL_RCP
  2
AecDbDispRepWallRcp
  3
AecArchBase50|Product Desc: Autodesk Architectural Desktop 2007 |Company: Autodesk,Inc. |WEB Address: www.autodesk.com
 90
      129
 91
        0
280
     0
281
     0
  0
CLASS
  1
AEC_DISP_REP_STAIR_RCP
  2
AecDbDispRepStairRcp
  3
AecArchBase50|Product Desc: Autodesk Architectural Desktop 2007 |Company: Autodesk,Inc. |WEB Address: www.autodesk.com
 90
      129
 91
        0
280
     0
281
     0
  0
CLASS
  1
AEC_DISP_REP_STAIR_PLAN_OVERLAPPING
  2
AecDbDispRepStairPlanOverlapping
  3
AecArchBase50|Product Desc: Autodesk Architectural Desktop 2007 |Company: Autodesk,Inc. |WEB Address: www.autodesk.com
 90
      129
 91
        0
280
     0
281
     0
  0
CLASS
  1
AEC_DISP_PROPS_STAIR_PLAN_OVERLAPPING
  2
AecDbDispPropsStairPlanOverlapping
  3
AecArchBase50|Product Desc: Autodesk Architectural Desktop 2007 |Company: Autodesk,Inc. |WEB Address: www.autodesk.com
 90
      129
 91
        0
280
     0
281
     0
  0
CLASS
  1
AEC_DISP_REP_SPACE_RCP
  2
AecDbDispRepSpaceRcp
  3
AecArchBase50|Product Desc: Autodesk Architectural Desktop 2007 |Company: Autodesk,Inc. |WEB Address: www.autodesk.com
 90
      129
 91
        0
280
     0
281
     0
  0
CLASS
  1
AEC_DISP_REP_SPACE_VOLUME
  2
AecDbDispRepSpaceVolume
  3
AecArchBase50|Product Desc: Autodesk Architectural Desktop 2007 |Company: Autodesk,Inc. |WEB Address: www.autodesk.com
 90
      129
 91
        0
280
     0
281
     0
  0
CLASS
  1
AEC_DISP_REP_DOOR_ELEV
  2
AecDbDispRepDoorElev
  3
AecArchBase50|Product Desc: Autodesk Architectural Desktop 2007 |Company: Autodesk,Inc. |WEB Address: www.autodesk.com
 90
      129
 91
        0
280
     0
281
     0
  0
CLASS
  1
AEC_DISP_REP_ANCHOR_EXT_TAG_TO_ENT
  2
AecDbDispRepAnchorExtendedTagToEnt
  3
AecScheduleData50|Product Desc: Autodesk Architectural Desktop 2007 |Company: Autodesk,Inc. |WEB Address: www.autodesk.com
 90
      129
 91
        0
280
     0
281
     0
  0
CLASS
  1
AEC_DISP_REP_ANCHOR
  2
AecDbDispRepAnchor
  3
AecBase50|Product Desc: Autodesk Architectural Desktop 2007 |Company: Autodesk,Inc. |WEB Address: www.autodesk.com
 90
      129
 91
        0
280
     0
281
     0
  0
CLASS
  1
AEC_DISP_REP_POLYGON_TRUECOLOUR
  2
AecDbDispRepPolygonTrueColour
  3
AecBaseEx50|Product Desc: Autodesk Architectural Desktop 2007 |Company: Autodesk,Inc. |WEB Address: www.autodesk.com
 90
      129
 91
        0
280
     0
281
     0
  0
CLASS
  1
AEC_DISP_PROPS_POLYGON_TRUECOLOUR
  2
AecDbDispPropsPolygonTrueColour
  3
AecBaseEx50|Product Desc: Autodesk Architectural Desktop 2007 |Company: Autodesk,Inc. |WEB Address: www.autodesk.com
 90
      129
 91
        0
280
     0
281
     0
  0
CLASS
  1
BINRECORD
  2
AcAecBinRecord
  3
AecBase50|Product Desc: Autodesk Architectural Desktop 2007 |Company: Autodesk,Inc. |WEB Address: www.autodesk.com
 90
      129
 91
        1
280
     0
281
     0
  0
CLASS
  1
ACSH_SPHERE_CLASS
  2
AcDbShSphere
  3
ObjectDBX Classes
 90
     1153
 91
        0
280
     0
281
     0
  0
CLASS
  1
ACSH_HISTORY_CLASS
  2
AcDbShHistory
  3
ObjectDBX Classes
 90
     1153
 91
        0
280
     0
281
     0
  0
CLASS
  1
SOLID_BACKGROUND
  2
AcDbSolidBackground
  3
SCENEOE
 90
     4095
 91
        0
280
     0
281
     0
  0
CLASS
  1
ACSH_BOX_CLASS
  2
AcDbShBox
  3
ObjectDBX Classes
 90
     1153
 91
        0
280
     0
281
     0
  0
CLASS
  1
ACSH_CONE_CLASS
  2
AcDbShCone
  3
ObjectDBX Classes
 90
     1153
 91
        0
280
     0
281
     0
  0
CLASS
  1
ACSH_TORUS_CLASS
  2
AcDbShTorus
  3
ObjectDBX Classes
 90
     1153
 91
        0
280
     0
281
     0
  0
CLASS
  1
HELIX
  2
AcDbHelix
  3
ObjectDBX Classes
 90
     4095
 91
        0
280
     0
281
     1
  0
CLASS
  1
ACSH_SWEEP_CLASS
  2
AcDbShSweep
  3
ObjectDBX Classes
 90
     1153
 91
        0
280
     0
281
     0
  0
CLASS
  1
EXACXREFPANELOBJECT
  2
ExAcXREFPanelObject
  3
EXAC_ESW
 90
     1025
 91
        1
280
     0
281
     0
  0
CLASS
  1
FIELD
  2
AcDbField
  3
ObjectDBX Classes
 90
     1152
 91
        0
280
     0
281
     0
  0
CLASS
  1
IMAGE
  2
AcDbRasterImage
  3
ISM
 90
     2175
 91
        0
280
     0
281
     1
  0
CLASS
  1
IMAGEDEF_REACTOR
  2
AcDbRasterImageDefReactor
  3
ISM
 90
        1
 91
        0
280
     0
281
     0
  0
CLASS
  1
IMAGEDEF
  2
AcDbRasterImageDef
  3
ISM
 90
        0
 91
        0
280
     0
281
     0
  0
CLASS
  1
FIELDLIST
  2
AcDbFieldList
  3
ObjectDBX Classes
 90
     1152
 91
        1
280
     0
281
     0
  0
CLASS
  1
RASTERVARIABLES
  2
AcDbRasterVariables
  3
ISM
 90
        0
 91
        1
280
     0
281
     0
  0
CLASS
  1
EXACTERMXREFMAP
  2
ExAcTermXrefMap
  3
EXAC_SERVICE
 90
     1025
 91
        0
280
     0
281
     0
  0
CLASS
  1
DWFDEFINITION
  2
AcDbDwfDefinition
  3
ObjectDBX Classes
 90
     1153
 91
        0
280
     0
281
     0
  0
CLASS
  1
DWFUNDERLAY
  2
AcDbDwfReference
  3
ObjectDBX Classes
 90
     1153
 91
        0
280
     0
281
     1
  0
CLASS
  1
ACAECUSTOBJ
  2
AcAeEditorObj
  3
AcAeEditorObj
 90
     1024
 91
        0
280
     0
281
     0
  0
CLASS
  1
ACDB_MTEXTOBJECTCONTEXTDATA_CLASS
  2
AcDbMTextObjectContextData
  3
ObjectDBX Classes
 90
     1153
 91
        0
280
     0
281
     0
  0
CLASS
  1
ACDB_HATCHVIEWCONTEXTDATA_CLASS
  2
AcDbHatchViewContextData
  3
ObjectDBX Classes
 90
     1153
 91
        0
280
     0
281
     0
  0
CLASS
  1
ACDB_HATCHSCALECONTEXTDATA_CLASS
  2
AcDbHatchScaleContextData
  3
ObjectDBX Classes
 90
     1153
 91
        0
280
     0
281
     0
  0
ENDSEC
  0
SECTION
  2
TABLES
  0
TABLE
  2
VPORT
  5
8
330
0
100
AcDbSymbolTable
 70
     1
  0
VPORT
  5
215
330
8
100
AcDbSymbolTableRecord
100
AcDbViewportTableRecord
  2
*Active
 70
     0
 10
0.0
 20
0.0
 11
1.0
 21
1.0
 12
4680.437055260603
 22
1609.856920299724
 13
0.0
 23
0.0
 14
0.5
 24
0.5
 15
0.5
 25
0.5
 16
0.0
 26
0.0
 36
1736.523449255554
 17
575.4799205165253
 27
202.4030064071585
 37
-142.8182665861146
 40
9181.139277801744
 41
2.116022099447513
 42
50.0
 43
0.0
 44
0.0
 50
0.0
 51
0.0
 71
     0
 72
  1000
 73
     1
 74
     3
 75
     0
 76
     0
 77
     0
 78
     0
281
     0
 65
     0
110
0.0
120
0.0
130
0.0
111
1.0
121
0.0
131
0.0
112
0.0
122
1.0
132
0.0
 79
     0
146
0.0
348
220
 60
     3
 61
     5
292
     1
282
     1
141
0.0
142
0.0
 63
   250
421
  3355443
  0
ENDTAB
  0
TABLE
  2
LTYPE
  5
5
330
0
100
AcDbSymbolTable
 70
     9
  0
LTYPE
  5
14
330
5
100
AcDbSymbolTableRecord
100
AcDbLinetypeTableRecord
  2
ByBlock
 70
     0
  3

 72
    65
 73
     0
 40
0.0
  0
LTYPE
  5
15
330
5
100
AcDbSymbolTableRecord
100
AcDbLinetypeTableRecord
  2
ByLayer
 70
     0
  3

 72
    65
 73
     0
 40
0.0
  0
LTYPE
  5
16
330
5
100
AcDbSymbolTableRecord
100
AcDbLinetypeTableRecord
  2
Continuous
 70
     0
  3
Solid line
 72
    65
 73
     0
 40
0.0
  0
LTYPE
  5
8CCB
330
5
100
AcDbSymbolTableRecord
100
AcDbLinetypeTableRecord
  2
HIDDEN
 70
     0
  3
Hidden __ __ __ __ __ __ __ __ __ __ __ __ __ __
 72
    65
 73
     2
 40
0.375
 49
0.25
 74
     0
 49
-0.125
 74
     0
  0
LTYPE
  5
B219
330
5
100
AcDbSymbolTableRecord
100
AcDbLinetypeTableRecord
  2
DASHED
 70
     0
  3
Dashed __ __ __ __ __ __ __ __ __ __ __ __ __ _
 72
    65
 73
     2
 40
0.75
 49
0.5
 74
     0
 49
-0.25
 74
     0
  0
LTYPE
  5
B21A
330
5
100
AcDbSymbolTableRecord
100
AcDbLinetypeTableRecord
  2
CENTER
 70
     0
  3
Center ____ _ ____ _ ____ _ ____ _ ____ _ ____
 72
    65
 73
     4
 40
2.0
 49
1.25
 74
     0
 49
-0.25
 74
     0
 49
0.25
 74
     0
 49
-0.25
 74
     0
  0
LTYPE
  5
B21B
330
5
100
AcDbSymbolTableRecord
100
AcDbLinetypeTableRecord
  2
DIVIDE2
 70
     0
  3
Divide (.5x) __..__..__..__..__..__..__..__.._
 72
    65
 73
     6
 40
0.625
 49
0.25
 74
     0
 49
-0.125
 74
     0
 49
0.0
 74
     0
 49
-0.125
 74
     0
 49
0.0
 74
     0
 49
-0.125
 74
     0
  0
LTYPE
  5
B391
330
5
100
AcDbSymbolTableRecord
100
AcDbLinetypeTableRecord
  2
mp000096$0$DASHED
 70
     0
  3
Dashed __ __ __ __ __ __ __ __ __ __ __ __ __ _
 72
    65
 73
     2
 40
0.75
 49
0.5
 74
     0
 49
-0.25
 74
     0
  0
LTYPE
  5
B392
330
5
100
AcDbSymbolTableRecord
100
AcDbLinetypeTableRecord
  2
mp000096$0$CENTER
 70
     0
  3
Center ____ _ ____ _ ____ _ ____ _ ____ _ ____
 72
    65
 73
     4
 40
2.0
 49
1.25
 74
     0
 49
-0.25
 74
     0
 49
0.25
 74
     0
 49
-0.25
 74
     0
  0
LTYPE
  5
B393
330
5
100
AcDbSymbolTableRecord
100
AcDbLinetypeTableRecord
  2
mp000096$0$HIDDEN
 70
     0
  3
Hidden __ __ __ __ __ __ __ __ __ __ __ __ __ _
 72
    65
 73
     2
 40
0.375
 49
0.25
 74
     0
 49
-0.125
 74
     0
  0
LTYPE
  5
B394
330
5
100
AcDbSymbolTableRecord
100
AcDbLinetypeTableRecord
  2
mp000096$0$DIVIDE2
 70
     0
  3
Divide (.5x) __..__..__..__..__..__..__..__.._
 72
    65
 73
     6
 40
0.625
 49
0.25
 74
     0
 49
-0.125
 74
     0
 49
0.0
 74
     0
 49
-0.125
 74
     0
 49
0.0
 74
     0
 49
-0.125
 74
     0
  0
ENDTAB
  0
TABLE
  2
LAYER
  5
2
102
{ACAD_XDICTIONARY
360
28F
102
}
330
0
100
AcDbSymbolTable
 70
    14
  0
LAYER
  5
10
102
{ACAD_XDICTIONARY
360
308
102
}
330
2
100
AcDbSymbolTableRecord
100
AcDbLayerTableRecord
  2
0
 70
     0
 62
     7
  6
Continuous
370
    -3
390
F
347
219
  0
LAYER
  5
37D
102
{ACAD_XDICTIONARY
360
37E
102
}
330
2
100
AcDbSymbolTableRecord
100
AcDbLayerTableRecord
  2
defpoints
 70
     0
 62
     4
  6
Continuous
290
     0
370
    -3
390
F
347
219
  0
LAYER
  5
A5F1
330
2
100
AcDbSymbolTableRecord
100
AcDbLayerTableRecord
  2
MASONS Dryfix DPC (00134138)
 70
     0
 62
    16
420
  8716288
  6
DASHED
370
    20
390
F
347
219
  0
LAYER
  5
A5F3
330
2
100
AcDbSymbolTableRecord
100
AcDbLayerTableRecord
  2
MASONS Barricade Building Wrap Hatch (00134140)
 70
     0
 62
   146
420
   218482
  6
Continuous
370
     0
390
F
347
219
  0
LAYER
  5
A5F6
330
2
100
AcDbSymbolTableRecord
100
AcDbLayerTableRecord
  2
MP Annotation (00134142)
 70
     0
 62
     7
  6
Continuous
370
     0
390
F
347
219
  0
LAYER
  5
A5F7
330
2
100
AcDbSymbolTableRecord
100
AcDbLayerTableRecord
  2
MASONS Hidden (00134167)
 70
     0
 62
     8
420
  8224125
  6
HIDDEN
370
     5
390
F
347
219
  0
LAYER
  5
A5F9
330
2
100
AcDbSymbolTableRecord
100
AcDbLayerTableRecord
  2
Timber Perimeter (00134144)
 70
     0
 62
    33
420
 11965012
  6
Continuous
370
    15
390
F
347
219
  0
LAYER
  5
A5FA
330
2
100
AcDbSymbolTableRecord
100
AcDbLayerTableRecord
  2
Timber Inner (00134145)
 70
     0
 62
    36
420
  7163415
  6
Continuous
370
     5
390
F
347
219
  0
LAYER
  5
A5FC
330
2
100
AcDbSymbolTableRecord
100
AcDbLayerTableRecord
  2
MP Panel Perimeter (00134148)
 70
     0
 62
   162
420
   279240
  6
Continuous
370
    15
390
F
347
219
  0
LAYER
  5
AA53
330
2
100
AcDbSymbolTableRecord
100
AcDbLayerTableRecord
  2
MP Barricade Building Wrap Perimeter Isometric (00134183)
 70
     0
 62
   142
420
   434907
  6
Continuous
370
    15
390
F
347
219
  0
LAYER
  5
ABBE
330
2
100
AcDbSymbolTableRecord
100
AcDbLayerTableRecord
  2
MP Cladding Grilles (00134176)
 70
     0
 62
    30
  6
Continuous
370
    -3
390
F
347
219
  0
LAYER
  5
ABC3
330
2
100
AcDbSymbolTableRecord
100
AcDbLayerTableRecord
  2
MP Dryfix DPC Hatch (00134182)
 70
     0
 62
    18
420
  6356992
  6
Continuous
370
    -3
390
F
347
219
  0
LAYER
  5
ABD1
330
2
100
AcDbSymbolTableRecord
100
AcDbLayerTableRecord
  2
MP Dryfix DPC Perimeter Isometric (00134196)
 70
     0
 62
    16
420
  8716288
  6
Continuous
370
    -3
390
F
347
219
  0
LAYER
  5
B1C8
330
2
100
AcDbSymbolTableRecord
100
AcDbLayerTableRecord
  2
MP Concrete Perimeter Isometric (00134230)
 70
     0
 62
   253
420
 10724259
  6
Continuous
370
    -3
390
F
347
219
  0
ENDTAB
  0
TABLE
  2
STYLE
  5
3
330
0
100
AcDbSymbolTable
 70
     6
  0
STYLE
  5
11
330
3
100
AcDbSymbolTableRecord
100
AcDbTextStyleTableRecord
  2
Standard
 70
     0
 40
0.0
 41
1.0
 50
0.0
 71
     0
 42
19.36617472281852
  3
ARIAL.TTF
  4

1001
ACAD
1000
Arial
1071
       34
  0
STYLE
  5
37F
330
3
100
AcDbSymbolTableRecord
100
AcDbTextStyleTableRecord
  2
x01
 70
     0
 40
2.0
 41
1.0
 50
0.0
 71
     0
 42
2.0
  3
ARIAL.TTF
  4

1001
AcadAnnotative
1000
AnnotativeData
1002
{
1070
     1
1070
     1
1002
}
1001
ACAD
1000
Arial
1071
       34
  0
STYLE
  5
380
330
3
100
AcDbSymbolTableRecord
100
AcDbTextStyleTableRecord
  2
2mm
 70
     0
 40
2.0
 41
1.0
 50
0.0
 71
     0
 42
2.0
  3
ARIAL.TTF
  4

1001
AcadAnnotative
1000
AnnotativeData
1002
{
1070
     1
1070
     1
1002
}
1001
ACAD
1000
Arial
1071
       34
  0
STYLE
  5
B384
330
3
100
AcDbSymbolTableRecord
100
AcDbTextStyleTableRecord
  2
mp000096$0$Standard
 70
     0
 40
0.0
 41
1.0
 50
0.0
 71
     0
 42
19.36617472281852
  3
ARIAL.TTF
  4

1001
ACAD
1000
Arial
1071
       34
  0
STYLE
  5
B38E
330
3
100
AcDbSymbolTableRecord
100
AcDbTextStyleTableRecord
  2
mp000096$0$x01
 70
     0
 40
2.0
 41
1.0
 50
0.0
 71
     0
 42
2.0
  3
ARIAL.TTF
  4

1001
AcadAnnotative
1000
AnnotativeData
1002
{
1070
     1
1070
     1
1002
}
1001
ACAD
1000
Arial
1071
       34
  0
STYLE
  5
B37B
330
3
100
AcDbSymbolTableRecord
100
AcDbTextStyleTableRecord
  2
mp000096$0$2mm
 70
     0
 40
2.0
 41
1.0
 50
0.0
 71
     0
 42
2.0
  3
ARIAL.TTF
  4

1001
AcadAnnotative
1000
AnnotativeData
1002
{
1070
     1
1070
     1
1002
}
1001
ACAD
1000
Arial
1071
       34
  0
ENDTAB
  0
TABLE
  2
VIEW
  5
6
330
0
100
AcDbSymbolTable
 70
     0
  0
ENDTAB
  0
TABLE
  2
UCS
  5
7
330
0
100
AcDbSymbolTable
 70
     0
  0
ENDTAB
  0
TABLE
  2
APPID
  5
9
330
0
100
AcDbSymbolTable
 70
    26
  0
APPID
  5
12
330
9
100
AcDbSymbolTableRecord
100
AcDbRegAppTableRecord
  2
ACAD
 70
     0
  0
APPID
  5
2C5
330
9
100
AcDbSymbolTableRecord
100
AcDbRegAppTableRecord
  2
ACAD_MLEADERVER
 70
     0
  0
APPID
  5
30C
330
9
100
AcDbSymbolTableRecord
100
AcDbRegAppTableRecord
  2
DCO15
 70
     0
  0
APPID
  5
347
330
9
100
AcDbSymbolTableRecord
100
AcDbRegAppTableRecord
  2
ACAD_EXEMPT_FROM_CAD_STANDARDS
 70
     0
  0
APPID
  5
384
330
9
100
AcDbSymbolTableRecord
100
AcDbRegAppTableRecord
  2
ACAD_PSEXT
 70
     0
  0
APPID
  5
385
330
9
100
AcDbSymbolTableRecord
100
AcDbRegAppTableRecord
  2
AcadAnnotative
 70
     0
  0
APPID
  5
386
330
9
100
AcDbSymbolTableRecord
100
AcDbRegAppTableRecord
  2
ACAD_DSTYLE_DIMJAG
 70
     0
  0
APPID
  5
387
330
9
100
AcDbSymbolTableRecord
100
AcDbRegAppTableRecord
  2
ACAD_DSTYLE_DIMTALN
 70
     0
  0
APPID
  5
388
330
9
100
AcDbSymbolTableRecord
100
AcDbRegAppTableRecord
  2
ACAD_DSTYLE_DIMBREAK
 70
     0
  0
APPID
  5
4EF
330
9
100
AcDbSymbolTableRecord
100
AcDbRegAppTableRecord
  2
AcDbBlockRepETag
 70
     0
  0
APPID
  5
4F0
330
9
100
AcDbSymbolTableRecord
100
AcDbRegAppTableRecord
  2
AcAecLayerStandard
 70
     0
  0
APPID
  5
4F1
330
9
100
AcDbSymbolTableRecord
100
AcDbRegAppTableRecord
  2
AcDbDynamicBlockGUID
 70
     0
  0
APPID
  5
4F2
330
9
100
AcDbSymbolTableRecord
100
AcDbRegAppTableRecord
  2
AcDbDynamicBlockTrueName
 70
     0
  0
APPID
  5
4F3
330
9
100
AcDbSymbolTableRecord
100
AcDbRegAppTableRecord
  2
AcDbBlockRepBTag
 70
     0
  0
APPID
  5
4F4
330
9
100
AcDbSymbolTableRecord
100
AcDbRegAppTableRecord
  2
AEC_XDATA_BOUND_SPACE
 70
     0
  0
APPID
  5
A0D
330
9
100
AcDbSymbolTableRecord
100
AcDbRegAppTableRecord
  2
AECBASE
 70
     0
  0
APPID
  5
A0E
330
9
100
AcDbSymbolTableRecord
100
AcDbRegAppTableRecord
  2
AEC_OBJVER_INFO
 70
     0
  0
APPID
  5
A0F
330
9
100
AcDbSymbolTableRecord
100
AcDbRegAppTableRecord
  2
AcadAnnoAV
 70
     0
  0
APPID
  5
A6C
330
9
100
AcDbSymbolTableRecord
100
AcDbRegAppTableRecord
  2
AcLayerTools
 70
     0
  0
APPID
  5
A6D
330
9
100
AcDbSymbolTableRecord
100
AcDbRegAppTableRecord
  2
AcadAnnotativeDecomposition
 70
     0
  0
APPID
  5
13E1
330
9
100
AcDbSymbolTableRecord
100
AcDbRegAppTableRecord
  2
ACAUTHENVIRON
 70
     0
  0
APPID
  5
13E2
330
9
100
AcDbSymbolTableRecord
100
AcDbRegAppTableRecord
  2
AcadAnnoPO
 70
     0
  0
APPID
  5
2C78
330
9
100
AcDbSymbolTableRecord
100
AcDbRegAppTableRecord
  2
PE_URL
 70
     0
  0
APPID
  5
4530
330
9
100
AcDbSymbolTableRecord
100
AcDbRegAppTableRecord
  2
AcadNonAnnoHatchDecomposition
 70
     0
  0
APPID
  5
70A1
330
9
100
AcDbSymbolTableRecord
100
AcDbRegAppTableRecord
  2
ACAD_MATERIAL_MAPPER
 70
     0
  0
APPID
  5
70A2
330
9
100
AcDbSymbolTableRecord
100
AcDbRegAppTableRecord
  2
ACAD_MATERIAL_MAPPER_2
 70
     0
  0
ENDTAB
  0
TABLE
  2
DIMSTYLE
  5
A
330
0
100
AcDbSymbolTable
 70
     4
100
AcDbDimStyleTable
 71
     2
340
383
340
27
  0
DIMSTYLE
105
27
330
A
100
AcDbSymbolTableRecord
100
AcDbDimStyleTableRecord
  2
Standard
 70
     0
340
11
  0
DIMSTYLE
105
383
330
A
100
AcDbSymbolTableRecord
100
AcDbDimStyleTableRecord
  2
2mm
 70
     0
  4
M
 41
3.0
 42
3.0
 43
400.0
 44
1.0
 73
     0
 74
     0
140
2.0
141
2.0
143
0.001
147
0.0
176
   256
177
   256
178
   256
179
     2
271
     0
272
     0
279
     2
285
     8
340
380
341
352
342
352
345
15
346
15
347
15
371
     9
372
     9
1001
ACAD_DSTYLE_DIMBREAK
1070
   391
1040
0.0
1001
AcadAnnotative
1000
AnnotativeData
1002
{
1070
     1
1070
     1
1002
}
1001
ACAD_DSTYLE_DIMJAG
1070
   388
1040
4.0
1001
ACAD_DSTYLE_DIMTALN
1070
   392
1070
     0
  0
DIMSTYLE
105
B395
330
A
100
AcDbSymbolTableRecord
100
AcDbDimStyleTableRecord
  2
mp000096$0$Standard
 70
     0
340
B384
  0
DIMSTYLE
105
B396
330
A
100
AcDbSymbolTableRecord
100
AcDbDimStyleTableRecord
  2
mp000096$0$2mm
 70
     0
  4
M
 41
3.0
 42
3.0
 43
400.0
 44
1.0
 73
     0
 74
     0
140
2.0
141
2.0
143
0.001
147
0.0
176
   256
177
   256
178
   256
179
     2
271
     0
272
     0
279
     2
285
     8
340
B37B
341
B385
342
B385
345
15
346
15
347
15
371
     9
372
     9
1001
ACAD_DSTYLE_DIMBREAK
1070
   391
1040
0.0
1001
AcadAnnotative
1000
AnnotativeData
1002
{
1070
     1
1070
     1
1002
}
1001
ACAD_DSTYLE_DIMJAG
1070
   388
1040
4.0
1001
ACAD_DSTYLE_DIMTALN
1070
   392
1070
     0
  0
ENDTAB
  0
TABLE
  2
BLOCK_RECORD
  5
1
330
0
100
AcDbSymbolTable
 70
     7
  0
BLOCK_RECORD
  5
1F
102
{ACAD_XDICTIONARY
360
102E
102
}
330
1
100
AcDbSymbolTableRecord
100
AcDbBlockTableRecord
  2
*Model_Space
340
22
 70
     0
280
     1
281
     0
  0
BLOCK_RECORD
  5
16B9
330
1
100
AcDbSymbolTableRecord
100
AcDbBlockTableRecord
  2
*Paper_Space
340
16BA
 70
     0
280
     1
281
     0
  0
BLOCK_RECORD
  5
352
330
1
100
AcDbSymbolTableRecord
100
AcDbBlockTableRecord
  2
_OBLIQUE
340
0
310
2800000020000000200000000100080000000000000400000000000000000000000000000000000000000000000080000080000000808000800000008000800080800000C0C0C000C0DCC000F0CAA6000020400000206000002080000020A0000020C0000020E00000400000004020000040400000406000004080000040A0
310
000040C0000040E00000600000006020000060400000606000006080000060A0000060C0000060E00000800000008020000080400000806000008080000080A0000080C0000080E00000A0000000A0200000A0400000A0600000A0800000A0A00000A0C00000A0E00000C0000000C0200000C0400000C0600000C0800000C0
310
A00000C0C00000C0E00000E0000000E0200000E0400000E0600000E0800000E0A00000E0C00000E0E00040000000400020004000400040006000400080004000A0004000C0004000E00040200000402020004020400040206000402080004020A0004020C0004020E000404000004040200040404000404060004040800040
310
40A0004040C0004040E00040600000406020004060400040606000406080004060A0004060C0004060E00040800000408020004080400040806000408080004080A0004080C0004080E00040A0000040A0200040A0400040A0600040A0800040A0A00040A0C00040A0E00040C0000040C0200040C0400040C0600040C08000
310
40C0A00040C0C00040C0E00040E0000040E0200040E0400040E0600040E0800040E0A00040E0C00040E0E00080000000800020008000400080006000800080008000A0008000C0008000E00080200000802020008020400080206000802080008020A0008020C0008020E00080400000804020008040400080406000804080
310
008040A0008040C0008040E00080600000806020008060400080606000806080008060A0008060C0008060E00080800000808020008080400080806000808080008080A0008080C0008080E00080A0000080A0200080A0400080A0600080A0800080A0A00080A0C00080A0E00080C0000080C0200080C0400080C0600080C0
310
800080C0A00080C0C00080C0E00080E0000080E0200080E0400080E0600080E0800080E0A00080E0C00080E0E000C0000000C0002000C0004000C0006000C0008000C000A000C000C000C000E000C0200000C0202000C0204000C0206000C0208000C020A000C020C000C020E000C0400000C0402000C0404000C0406000C0
310
408000C040A000C040C000C040E000C0600000C0602000C0604000C0606000C0608000C060A000C060C000C060E000C0800000C0802000C0804000C0806000C0808000C080A000C080C000C080E000C0A00000C0A02000C0A04000C0A06000C0A08000C0A0A000C0A0C000C0A0E000C0C00000C0C02000C0C04000C0C06000
310
C0C08000C0C0A000F0FBFF00A4A0A000808080000000FF0000FF000000FFFF00FF000000FF00FF00FFFF0000FFFFFF00000000000000000000000000000000000000000000000000000000000000000000FF0000000000000000000000000000000000000000000000000000000000000000FF000000000000000000000000
310
0000000000000000000000000000000000000000FF0000000000000000000000000000000000000000000000000000000000000000FF0000000000000000000000000000000000000000000000000000000000000000FF0000000000000000000000000000000000000000000000000000000000000000FF00000000000000
310
00000000000000000000000000000000000000000000000000FF0000000000000000000000000000000000000000000000000000000000000000FF0000000000000000000000000000000000000000000000000000000000000000FF0000000000000000000000000000000000000000000000000000000000000000FF0000
310
000000000000000000000000000000000000000000000000000000000000FF0000000000000000000000000000000000000000000000000000000000000000FF0000000000000000000000000000000000000000000000000000000000000000FF000000000000000000000000000000000000000000000000000000000000
310
0000FF0000000000000000000000000000000000000000000000000000000000000000FF0000000000000000000000000000000000000000000000000000000000000000FF0000000000000000000000000000000000000000000000000000000000000000FF00000000000000000000000000000000000000000000000000
310
00000000000000FF0000000000000000000000000000000000000000000000000000000000000000FF0000000000000000000000000000000000000000000000000000000000000000FF0000000000000000000000000000000000000000000000000000000000000000FF0000000000000000000000000000000000000000
310
000000000000000000000000FF0000000000000000000000000000000000000000000000000000000000000000FF0000000000000000000000000000000000000000000000000000000000000000FF0000000000000000000000000000000000000000000000000000000000000000FF000000000000000000000000000000
310
0000000000000000000000000000000000FF0000000000000000000000000000000000000000000000000000000000000000FF0000000000000000000000000000000000000000000000000000000000000000FF0000000000000000000000000000000000000000000000000000000000000000FF00000000000000000000
310
00000000000000000000000000000000000000000000FF000000000000000000000000000000000000000000000000000000000000000000
 70
     0
280
     1
281
     0
  0
BLOCK_RECORD
  5
356
330
1
100
AcDbSymbolTableRecord
100
AcDbBlockTableRecord
  2
_DetailCallout
340
0
310
2800000020000000200000000100080000000000000400000000000000000000000000000000000000000000000080000080000000808000800000008000800080800000C0C0C000C0DCC000F0CAA6000020400000206000002080000020A0000020C0000020E00000400000004020000040400000406000004080000040A0
310
000040C0000040E00000600000006020000060400000606000006080000060A0000060C0000060E00000800000008020000080400000806000008080000080A0000080C0000080E00000A0000000A0200000A0400000A0600000A0800000A0A00000A0C00000A0E00000C0000000C0200000C0400000C0600000C0800000C0
310
A00000C0C00000C0E00000E0000000E0200000E0400000E0600000E0800000E0A00000E0C00000E0E00040000000400020004000400040006000400080004000A0004000C0004000E00040200000402020004020400040206000402080004020A0004020C0004020E000404000004040200040404000404060004040800040
310
40A0004040C0004040E00040600000406020004060400040606000406080004060A0004060C0004060E00040800000408020004080400040806000408080004080A0004080C0004080E00040A0000040A0200040A0400040A0600040A0800040A0A00040A0C00040A0E00040C0000040C0200040C0400040C0600040C08000
310
40C0A00040C0C00040C0E00040E0000040E0200040E0400040E0600040E0800040E0A00040E0C00040E0E00080000000800020008000400080006000800080008000A0008000C0008000E00080200000802020008020400080206000802080008020A0008020C0008020E00080400000804020008040400080406000804080
310
008040A0008040C0008040E00080600000806020008060400080606000806080008060A0008060C0008060E00080800000808020008080400080806000808080008080A0008080C0008080E00080A0000080A0200080A0400080A0600080A0800080A0A00080A0C00080A0E00080C0000080C0200080C0400080C0600080C0
310
800080C0A00080C0C00080C0E00080E0000080E0200080E0400080E0600080E0800080E0A00080E0C00080E0E000C0000000C0002000C0004000C0006000C0008000C000A000C000C000C000E000C0200000C0202000C0204000C0206000C0208000C020A000C020C000C020E000C0400000C0402000C0404000C0406000C0
310
408000C040A000C040C000C040E000C0600000C0602000C0604000C0606000C0608000C060A000C060C000C060E000C0800000C0802000C0804000C0806000C0808000C080A000C080C000C080E000C0A00000C0A02000C0A04000C0A06000C0A08000C0A0A000C0A0C000C0A0E000C0C00000C0C02000C0C04000C0C06000
310
C0C08000C0C0A000F0FBFF00A4A0A000808080000000FF0000FF000000FFFF00FF000000FF00FF00FFFF0000FFFFFF00000000000000000000000000000000000000000000000000000000000000000000000000000000000000000000FFFFFFFFFFFF0000000000000000000000000000000000000000000000FFFFFF0000
310
00000000FFFFFF000000000000000000000000000000000000FFFF000000000000000000000000FFFF000000000000000000000000000000FF00000000000000000000000000000000FF00000000000000FFFF00FFFFFFFFFF0000FF000000FF0000FF0000FFFFFF00FFFF0000FF00FFFF000000FF00FF00000000FF000000
310
FF00FFFF00FF000000FFFF00FF00FF00FF00000000FFFF0000000000FF000000FF00FFFF00FF000000FFFF00FFFFFF00FF00FF0000FFFFFF00000000FF000000FFFF00FF00FF000000FFFFFF00FFFF00FFFF000000FF000000000000FF000000FFFF00FF00FF000000FFFFFF00FFFF00FF00FFFF00FFFFFFFFFFFFFFFFFFFF
310
00FF0000FF00FF000000FFFF000000FF00FFFF000000FF000000000000000000000000000000000000000000000000FF0000000000FF0000000000000000000000000000000000000000000000000000FF00000000FF0000000000000000000000000000000000000000000000000000FF00000000FF000000000000000000
310
0000000000000000000000000000000000FF000000FF00000000000000000000000000000000000000000000000000000000FF0000FFFFFFFFFFFFFFFFFFFFFFFFFFFFFFFFFFFFFFFFFFFFFFFFFFFFFFFFFFFF00FFFFFFFF000000FFFF000000FF000000FF00FFFFFF0000FF0000FF00FFFFFF00FF00FF00000000FFFF0000
310
00FF0000FFFFFF000000FF00FF0000FF0000FF00FFFF00FF000000FF00FFFF0000FF0000FFFFFF000000FF00FFFF00FF0000FF00FFFFFF00FF0000FF00FFFF0000FF00FF00FFFF000000FF00FFFFFFFF00FFFFFF00FF0000FF0000FF0000FF0000FFFF0000FFFF000000FF00FFFFFFFF00FFFF00FFFF0000FF00FF00000000
310
FF00FFFF0000FFFF000000FF00FF0000FF00FFFF00FFFFFFFFFFFFFF00000000FF00FF000000FFFF000000FF00FF0000FFFFFFFFFF0000000000FF00000000000000000000000000000000000000000000FF000000000000000000FF0000000000000000000000000000000000000000FF0000000000000000000000FF0000
310
00000000000000000000000000000000FF00000000000000000000000000FF00000000000000000000000000000000FF000000000000000000000000000000FFFF000000000000000000000000FFFF000000000000000000000000000000000000FFFFFF000000000000FFFFFF000000000000000000000000000000000000
310
0000000000FFFFFFFFFFFF000000000000000000000000000000000000000000000000000000000000000000000000000000000000000000
 70
     4
280
     1
281
     0
  0
BLOCK_RECORD
  5
8FF1
330
1
100
AcDbSymbolTableRecord
100
AcDbBlockTableRecord
  2
A$C4D527D5B
340
0
102
{BLKREFS
331
902B
102
}
 70
     4
280
     1
281
     0
  0
BLOCK_RECORD
  5
A672
102
{ACAD_XDICTIONARY
360
B11B
102
}
330
1
100
AcDbSymbolTableRecord
100
AcDbBlockTableRecord
  2
building wrap
340
0
 70
     4
280
     1
281
     1
1001
AcDbDynamicBlockGUID
1000
{767624A7-C587-4ED2-AA73-4DA98D565768}
1001
AcDbBlockRepETag
1070
     1
1071
      243
  0
BLOCK_RECORD
  5
ACB9
102
{ACAD_XDICTIONARY
360
B37F
102
}
330
1
100
AcDbSymbolTableRecord
100
AcDbBlockTableRecord
  2
mp000096
340
0
102
{BLKREFS
331
ACCC
102
}
 70
     0
280
     1
281
     0
  0
BLOCK_RECORD
  5
B385
330
1
100
AcDbSymbolTableRecord
100
AcDbBlockTableRecord
  2
mp000096$0$_OBLIQUE
340
0
310
2800000020000000200000000100080000000000000400000000000000000000000000000000000000000000000080000080000000808000800000008000800080800000C0C0C000C0DCC000F0CAA6000020400000206000002080000020A0000020C0000020E00000400000004020000040400000406000004080000040A0
310
000040C0000040E00000600000006020000060400000606000006080000060A0000060C0000060E00000800000008020000080400000806000008080000080A0000080C0000080E00000A0000000A0200000A0400000A0600000A0800000A0A00000A0C00000A0E00000C0000000C0200000C0400000C0600000C0800000C0
310
A00000C0C00000C0E00000E0000000E0200000E0400000E0600000E0800000E0A00000E0C00000E0E00040000000400020004000400040006000400080004000A0004000C0004000E00040200000402020004020400040206000402080004020A0004020C0004020E000404000004040200040404000404060004040800040
310
40A0004040C0004040E00040600000406020004060400040606000406080004060A0004060C0004060E00040800000408020004080400040806000408080004080A0004080C0004080E00040A0000040A0200040A0400040A0600040A0800040A0A00040A0C00040A0E00040C0000040C0200040C0400040C0600040C08000
310
40C0A00040C0C00040C0E00040E0000040E0200040E0400040E0600040E0800040E0A00040E0C00040E0E00080000000800020008000400080006000800080008000A0008000C0008000E00080200000802020008020400080206000802080008020A0008020C0008020E00080400000804020008040400080406000804080
310
008040A0008040C0008040E00080600000806020008060400080606000806080008060A0008060C0008060E00080800000808020008080400080806000808080008080A0008080C0008080E00080A0000080A0200080A0400080A0600080A0800080A0A00080A0C00080A0E00080C0000080C0200080C0400080C0600080C0
310
800080C0A00080C0C00080C0E00080E0000080E0200080E0400080E0600080E0800080E0A00080E0C00080E0E000C0000000C0002000C0004000C0006000C0008000C000A000C000C000C000E000C0200000C0202000C0204000C0206000C0208000C020A000C020C000C020E000C0400000C0402000C0404000C0406000C0
310
408000C040A000C040C000C040E000C0600000C0602000C0604000C0606000C0608000C060A000C060C000C060E000C0800000C0802000C0804000C0806000C0808000C080A000C080C000C080E000C0A00000C0A02000C0A04000C0A06000C0A08000C0A0A000C0A0C000C0A0E000C0C00000C0C02000C0C04000C0C06000
310
C0C08000C0C0A000F0FBFF00A4A0A000808080000000FF0000FF000000FFFF00FF000000FF00FF00FFFF0000FFFFFF00000000000000000000000000000000000000000000000000000000000000000000FF0000000000000000000000000000000000000000000000000000000000000000FF000000000000000000000000
310
0000000000000000000000000000000000000000FF0000000000000000000000000000000000000000000000000000000000000000FF0000000000000000000000000000000000000000000000000000000000000000FF0000000000000000000000000000000000000000000000000000000000000000FF00000000000000
310
00000000000000000000000000000000000000000000000000FF0000000000000000000000000000000000000000000000000000000000000000FF0000000000000000000000000000000000000000000000000000000000000000FF0000000000000000000000000000000000000000000000000000000000000000FF0000
310
000000000000000000000000000000000000000000000000000000000000FF0000000000000000000000000000000000000000000000000000000000000000FF0000000000000000000000000000000000000000000000000000000000000000FF000000000000000000000000000000000000000000000000000000000000
310
0000FF0000000000000000000000000000000000000000000000000000000000000000FF0000000000000000000000000000000000000000000000000000000000000000FF0000000000000000000000000000000000000000000000000000000000000000FF00000000000000000000000000000000000000000000000000
310
00000000000000FF0000000000000000000000000000000000000000000000000000000000000000FF0000000000000000000000000000000000000000000000000000000000000000FF0000000000000000000000000000000000000000000000000000000000000000FF0000000000000000000000000000000000000000
310
000000000000000000000000FF0000000000000000000000000000000000000000000000000000000000000000FF0000000000000000000000000000000000000000000000000000000000000000FF0000000000000000000000000000000000000000000000000000000000000000FF000000000000000000000000000000
310
0000000000000000000000000000000000FF0000000000000000000000000000000000000000000000000000000000000000FF0000000000000000000000000000000000000000000000000000000000000000FF0000000000000000000000000000000000000000000000000000000000000000FF00000000000000000000
310
00000000000000000000000000000000000000000000FF000000000000000000000000000000000000000000000000000000000000000000
 70
     0
280
     1
281
     0
  0
BLOCK_RECORD
  5
B389
330
1
100
AcDbSymbolTableRecord
100
AcDbBlockTableRecord
  2
mp000096$0$_DetailCallout
340
0
310
2800000020000000200000000100080000000000000400000000000000000000000000000000000000000000000080000080000000808000800000008000800080800000C0C0C000C0DCC000F0CAA6000020400000206000002080000020A0000020C0000020E00000400000004020000040400000406000004080000040A0
310
000040C0000040E00000600000006020000060400000606000006080000060A0000060C0000060E00000800000008020000080400000806000008080000080A0000080C0000080E00000A0000000A0200000A0400000A0600000A0800000A0A00000A0C00000A0E00000C0000000C0200000C0400000C0600000C0800000C0
310
A00000C0C00000C0E00000E0000000E0200000E0400000E0600000E0800000E0A00000E0C00000E0E00040000000400020004000400040006000400080004000A0004000C0004000E00040200000402020004020400040206000402080004020A0004020C0004020E000404000004040200040404000404060004040800040
310
40A0004040C0004040E00040600000406020004060400040606000406080004060A0004060C0004060E00040800000408020004080400040806000408080004080A0004080C0004080E00040A0000040A0200040A0400040A0600040A0800040A0A00040A0C00040A0E00040C0000040C0200040C0400040C0600040C08000
310
40C0A00040C0C00040C0E00040E0000040E0200040E0400040E0600040E0800040E0A00040E0C00040E0E00080000000800020008000400080006000800080008000A0008000C0008000E00080200000802020008020400080206000802080008020A0008020C0008020E00080400000804020008040400080406000804080
310
008040A0008040C0008040E00080600000806020008060400080606000806080008060A0008060C0008060E00080800000808020008080400080806000808080008080A0008080C0008080E00080A0000080A0200080A0400080A0600080A0800080A0A00080A0C00080A0E00080C0000080C0200080C0400080C0600080C0
310
800080C0A00080C0C00080C0E00080E0000080E0200080E0400080E0600080E0800080E0A00080E0C00080E0E000C0000000C0002000C0004000C0006000C0008000C000A000C000C000C000E000C0200000C0202000C0204000C0206000C0208000C020A000C020C000C020E000C0400000C0402000C0404000C0406000C0
310
408000C040A000C040C000C040E000C0600000C0602000C0604000C0606000C0608000C060A000C060C000C060E000C0800000C0802000C0804000C0806000C0808000C080A000C080C000C080E000C0A00000C0A02000C0A04000C0A06000C0A08000C0A0A000C0A0C000C0A0E000C0C00000C0C02000C0C04000C0C06000
310
C0C08000C0C0A000F0FBFF00A4A0A000808080000000FF0000FF000000FFFF00FF000000FF00FF00FFFF0000FFFFFF00000000000000000000000000000000000000000000000000000000000000000000000000000000000000000000FFFFFFFFFFFF0000000000000000000000000000000000000000000000FFFFFF0000
310
00000000FFFFFF000000000000000000000000000000000000FFFF000000000000000000000000FFFF000000000000000000000000000000FF00000000000000000000000000000000FF00000000000000FFFF00FFFFFFFFFF0000FF000000FF0000FF0000FFFFFF00FFFF0000FF00FFFF000000FF00FF00000000FF000000
310
FF00FFFF00FF000000FFFF00FF00FF00FF00000000FFFF0000000000FF000000FF00FFFF00FF000000FFFF00FFFFFF00FF00FF0000FFFFFF00000000FF000000FFFF00FF00FF000000FFFFFF00FFFF00FFFF000000FF000000000000FF000000FFFF00FF00FF000000FFFFFF00FFFF00FF00FFFF00FFFFFFFFFFFFFFFFFFFF
310
00FF0000FF00FF000000FFFF000000FF00FFFF000000FF000000000000000000000000000000000000000000000000FF0000000000FF0000000000000000000000000000000000000000000000000000FF00000000FF0000000000000000000000000000000000000000000000000000FF00000000FF000000000000000000
310
0000000000000000000000000000000000FF000000FF00000000000000000000000000000000000000000000000000000000FF0000FFFFFFFFFFFFFFFFFFFFFFFFFFFFFFFFFFFFFFFFFFFFFFFFFFFFFFFFFFFF00FFFFFFFF000000FFFF000000FF000000FF00FFFFFF0000FF0000FF00FFFFFF00FF00FF00000000FFFF0000
310
00FF0000FFFFFF000000FF00FF0000FF0000FF00FFFF00FF000000FF00FFFF0000FF0000FFFFFF000000FF00FFFF00FF0000FF00FFFFFF00FF0000FF00FFFF0000FF00FF00FFFF000000FF00FFFFFFFF00FFFFFF00FF0000FF0000FF0000FF0000FFFF0000FFFF000000FF00FFFFFFFF00FFFF00FFFF0000FF00FF00000000
310
FF00FFFF0000FFFF000000FF00FF0000FF00FFFF00FFFFFFFFFFFFFF00000000FF00FF000000FFFF000000FF00FF0000FFFFFFFFFF0000000000FF00000000000000000000000000000000000000000000FF000000000000000000FF0000000000000000000000000000000000000000FF0000000000000000000000FF0000
310
00000000000000000000000000000000FF00000000000000000000000000FF00000000000000000000000000000000FF000000000000000000000000000000FFFF000000000000000000000000FFFF000000000000000000000000000000000000FFFFFF000000000000FFFFFF000000000000000000000000000000000000
310
0000000000FFFFFFFFFFFF000000000000000000000000000000000000000000000000000000000000000000000000000000000000000000
 70
     4
280
     1
281
     0
  0
ENDTAB
  0
ENDSEC
  0
SECTION
  2
BLOCKS
  0
BLOCK
  5
20
330
1F
100
AcDbEntity
  8
0
100
AcDbBlockBegin
  2
*Model_Space
 70
     0
 10
0.0
 20
0.0
 30
0.0
  3
*Model_Space
  1

  0
ENDBLK
  5
21
330
1F
100
AcDbEntity
  8
0
100
AcDbBlockEnd
  0
BLOCK
  5
16BB
330
16B9
100
AcDbEntity
 67
     1
  8
0
100
AcDbBlockBegin
  2
*Paper_Space
 70
     0
 10
0.0
 20
0.0
 30
0.0
  3
*Paper_Space
  1

  0
ENDBLK
  5
16BC
330
16B9
100
AcDbEntity
 67
     1
  8
0
100
AcDbBlockEnd
  0
BLOCK
  5
353
330
352
100
AcDbEntity
  8
0
100
AcDbBlockBegin
  2
_OBLIQUE
 70
     0
 10
0.0
 20
0.0
 30
0.0
  3
_OBLIQUE
  1

  0
LINE
  5
354
330
352
100
AcDbEntity
  8
0
  6
ByBlock
 62
     0
100
AcDbLine
 10
-0.5
 20
-0.5
 30
0.0
 11
0.5
 21
0.5
 31
0.0
  0
ENDBLK
  5
355
330
352
100
AcDbEntity
  8
0
100
AcDbBlockEnd
  0
BLOCK
  5
357
330
356
100
AcDbEntity
  8
0
100
AcDbBlockBegin
  2
_DetailCallout
 70
     2
 10
0.0
 20
0.0
 30
0.0
  3
_DetailCallout
  1

  0
CIRCLE
  5
358
330
356
100
AcDbEntity
  8
0
  6
ByBlock
 62
     0
370
    -2
100
AcDbCircle
 10
0.0
 20
0.0
 30
0.0
 40
8.0
  0
LINE
  5
359
330
356
100
AcDbEntity
  8
0
  6
ByBlock
 62
     0
370
    -2
100
AcDbLine
 10
8.0
 20
0.0
 30
0.0
 11
-8.0
 21
0.0
 31
0.0
  0
ATTDEF
  5
35A
330
356
100
AcDbEntity
  8
0
 62
     0
100
AcDbText
 10
-14.43622100954979
 20
1.0
 30
0.0
 40
3.0
  1
VIEWNUMBER
  7
x01
 72
     1
 11
0.0
 21
1.0
 31
0.0
100
AcDbAttributeDefinition
  3
Enter view number
  2
VIEWNUMBER
 70
     0
280
     0
  0
ATTDEF
  5
35B
330
356
100
AcDbEntity
  8
0
 62
     0
100
AcDbText
 10
-16.06718963165075
 20
-6.0
 30
0.0
 40
3.0
  1
SHEETNUMBER
  7
x01
 72
     1
 11
0.0
 21
-6.0
 31
0.0
100
AcDbAttributeDefinition
  3
Enter sheet number
  2
SHEETNUMBER
 70
     0
280
     0
  0
ENDBLK
  5
35C
330
356
100
AcDbEntity
  8
0
100
AcDbBlockEnd
  0
BLOCK
  5
8FF2
330
8FF1
100
AcDbEntity
  8
0
100
AcDbBlockBegin
  2
A$C4D527D5B
 70
     0
 10
0.0
 20
0.0
 30
0.0
  3
A$C4D527D5B
  1

  0
LINE
  5
8FF3
330
8FF1
100
AcDbEntity
  8
0
  6
Continuous
 62
     0
370
     0
100
AcDbLine
 10
-23.59373134298565
 20
-11.70637172479124
 30
0.0
 11
-58.949070402313
 21
8.706042798401911
 31
0.0
210
0.0000000000000003
220
0.8164965809277259
230
0.5773502691896261
  0
LINE
  5
8FF4
330
8FF1
100
AcDbEntity
  8
0
  6
Continuous
 62
     0
370
     0
100
AcDbLine
 10
-23.24017795239238
 20
-11.50224757955931
 30
0.0000000000000018
 11
-23.24017795239235
 21
70.14741051321327
 31
0.0000000000000284
210
0.0000000000000003
220
0.8164965809277259
230
0.5773502691896261
  0
LINE
  5
8FF5
330
8FF1
100
AcDbEntity
  8
0
  6
Continuous
 62
     0
370
     0
100
AcDbLine
 10
-23.24017795239238
 20
-11.50224757955931
 30
0.0000000000000018
 11
-23.59373134298565
 21
-11.70637172479124
 31
0.0
210
0.0000000000000003
220
0.8164965809277259
230
0.5773502691896261
  0
LINE
  5
8FF6
330
8FF1
100
AcDbEntity
  8
0
  6
Continuous
 62
     0
370
     0
100
AcDbLine
 10
-23.59373134298562
 20
69.94328636798134
 30
0.0000000000000142
 11
-23.59373134298565
 21
-11.70637172479124
 31
0.0
210
0.0000000000000003
220
0.8164965809277259
230
0.5773502691896261
  0
LINE
  5
8FF7
330
8FF1
100
AcDbEntity
  8
0
  6
Continuous
 62
     0
370
     0
100
AcDbLine
 10
-23.24017795239234
 20
70.14741051321329
 30
0.0000000000000142
 11
-58.5955170117197
 21
90.55982503640644
 31
0.0000000000000213
210
0.0000000000000003
220
0.8164965809277259
230
0.5773502691896261
  0
LINE
  5
8FF8
330
8FF1
100
AcDbEntity
  8
0
  6
Continuous
 62
     0
370
     0
100
AcDbLine
 10
-23.24017795239234
 20
70.14741051321329
 30
0.0000000000000142
 11
-23.59373134298562
 21
69.94328636798136
 31
0.0000000000000142
210
0.0000000000000003
220
0.8164965809277259
230
0.5773502691896261
  0
LINE
  5
8FF9
330
8FF1
100
AcDbEntity
  8
0
  6
Continuous
 62
     0
370
     0
100
AcDbLine
 10
-58.94907040231299
 20
90.35570089117451
 30
0.0000000000000142
 11
-23.59373134298562
 21
69.94328636798136
 31
0.0000000000000142
210
0.0000000000000003
220
0.8164965809277259
230
0.5773502691896261
  0
LINE
  5
8FFA
330
8FF1
100
AcDbEntity
  8
0
  6
Continuous
 62
     0
370
     0
100
AcDbLine
 10
-58.59551701171972
 20
90.55982503640644
 30
0.0000000000000142
 11
-58.94907040231299
 21
90.35570089117454
 31
0.0000000000000284
210
0.0000000000000003
220
0.8164965809277259
230
0.5773502691896261
  0
LINE
  5
8FFB
330
8FF1
100
AcDbEntity
  8
0
  6
Continuous
 62
     0
370
     0
100
AcDbLine
 10
-58.949070402313
 20
8.706042798401918
 30
0.0
 11
-58.94907040231299
 21
90.35570089117454
 31
0.0000000000000284
210
0.0000000000000003
220
0.8164965809277259
230
0.5773502691896261
  0
ELLIPSE
  5
8FFC
330
8FF1
100
AcDbEntity
  8
0
  6
Continuous
 62
     0
370
     0
100
AcDbEllipse
 10
-40.91784748205603
 20
73.61484611134364
 30
0.0000000000000213
 11
0.7487349454540885
 21
-1.296846966928793
 31
-0.0000000000000004
210
0.0
220
-0.0000000000000003
230
1.0
 40
0.577350269189626
 41
3.379943584392139
 42
6.044834376377241
  0
ELLIPSE
  5
8FFD
330
8FF1
100
AcDbEntity
  8
0
  6
Continuous
 62
     0
370
     0
100
AcDbEllipse
 10
-41.27140087264931
 20
73.41072196611169
 30
0.0000000000000142
 11
-0.7487349454540885
 21
1.296846966928793
 31
0.0000000000000004
210
0.0
220
-0.0000000000000003
230
1.0
 40
0.577350269189626
 41
0.0
 42
6.283185307179585
  0
ELLIPSE
  5
8FFE
330
8FF1
100
AcDbEntity
  8
0
  6
Continuous
 62
     0
370
     0
100
AcDbEllipse
 10
-40.91784748205607
 20
5.278823560720191
 30
0.0000000000000013
 11
0.7487349454540885
 21
-1.296846966928793
 31
-0.0000000000000004
210
0.0
220
-0.0000000000000003
230
1.0
 40
0.577350269189626
 41
4.168515992915541
 42
6.044834376377241
  0
ELLIPSE
  5
8FFF
330
8FF1
100
AcDbEntity
  8
0
  6
Continuous
 62
     0
370
     0
100
AcDbEllipse
 10
-41.27140087264932
 20
5.074699415488261
 30
0.0000000000000009
 11
-0.7487349454540885
 21
1.296846966928793
 31
0.0000000000000004
210
0.0
220
-0.0000000000000003
230
1.0
 40
0.577350269189626
 41
3.926990816987241
 42
4.021845714147336
  0
ELLIPSE
  5
9000
330
8FF1
100
AcDbEntity
  8
0
  6
Continuous
 62
     0
370
     0
100
AcDbEllipse
 10
-41.27140087264932
 20
5.074699415488261
 30
0.0000000000000009
 11
-0.7487349454540885
 21
1.296846966928793
 31
0.0000000000000004
210
0.0
220
-0.0000000000000003
230
1.0
 40
0.577350269189626
 41
0.690543266237351
 42
3.926990816987241
  0
ELLIPSE
  5
9001
330
8FF1
100
AcDbEntity
  8
0
  6
Continuous
 62
     0
370
     0
100
AcDbEllipse
 10
-34.15260399403486
 20
6.64557695408098
 30
0.0000000000000022
 11
-6.815844310624012
 21
0.0000000000000041
 31
0.0000000000000005
210
0.0000000000000001
220
-0.0000000000000001
230
1.0
 40
0.5773502691896259
 41
0.7853981633974481
 42
2.356194490192345
  0
SPLINE
  5
9002
330
8FF1
100
AcDbEntity
  8
0
  6
Continuous
 62
     0
370
     0
100
AcDbSpline
210
-0.0000000000000095
220
-0.0000000000000036
230
1.0
 70
     8
 71
     3
 72
    10
 73
     6
 74
     0
 42
0.0000000001
 43
0.0000000001
 40
0.0
 40
0.0
 40
0.0
 40
0.0
 40
2.676441451981454
 40
6.452604380760535
 40
10.0073629441889
 40
10.0073629441889
 40
10.0073629441889
 40
10.0073629441889
 10
-29.33307426248087
 20
3.863020166200876
 30
0.0000000000000036
 10
-29.33307426248087
 20
4.591455264399626
 30
0.000000000000004
 10
-29.28393283966217
 20
6.344770329235863
 30
0.0000000000000044
 10
-30.35988446990046
 20
9.517576617637015
 30
0.0000000000000089
 10
-31.62169335594218
 20
11.6623907164524
 30
0.0000000000000089
 10
-32.31294786836989
 20
12.60591786026851
 30
0.0000000000000036
  0
LINE
  5
9003
330
8FF1
100
AcDbEntity
  8
0
  6
Continuous
 62
     0
370
     0
100
AcDbLine
 10
-38.97213372558886
 20
3.863020166200881
 30
0.0000000000000031
 11
-53.20972748281779
 21
12.08309875454954
 31
0.0000000000000027
210
0.0000000000000003
220
0.8164965809277259
230
0.5773502691896261
  0
ELLIPSE
  5
9004
330
8FF1
100
AcDbEntity
  8
0
  6
Continuous
 62
     0
370
     0
100
AcDbEllipse
 10
-48.3901977512638
 20
14.86565554242964
 30
0.0000000000000009
 11
-6.815844310624012
 21
0.0000000000000041
 31
0.0000000000000005
210
0.0000000000000001
220
-0.0000000000000001
230
1.0
 40
0.5773502691896259
 41
0.0000000000000001
 42
0.7853981633974488
  0
ELLIPSE
  5
9005
330
8FF1
100
AcDbEntity
  8
0
  6
Continuous
 62
     0
370
     0
100
AcDbEllipse
 10
-34.15260399403486
 20
16.39499861976542
 30
0.0000000000000071
 11
-6.815844310624012
 21
0.0000000000000041
 31
0.0000000000000005
210
0.0000000000000001
220
-0.0000000000000001
230
1.0
 40
0.5773502691896259
 41
0.7853981633974482
 42
2.356194490192344
  0
SPLINE
  5
9006
330
8FF1
100
AcDbEntity
  8
0
  6
Continuous
 62
     0
370
     0
100
AcDbSpline
210
0.0
220
0.0
230
1.0
 70
     8
 71
     3
 72
    10
 73
     6
 74
     0
 42
0.0000000001
 43
0.0000000001
 40
0.0
 40
0.0
 40
0.0
 40
0.0
 40
2.676441451981454
 40
6.452604380760535
 40
10.00736294418849
 40
10.00736294418849
 40
10.00736294418849
 40
10.00736294418849
 10
-29.33307426248087
 20
13.61244183188532
 30
0.0000000000000053
 10
-29.33307426248087
 20
14.34087693008407
 30
0.0000000000000053
 10
-29.28393283966217
 20
16.0941919949203
 30
0.0000000000000089
 10
-30.35988446990042
 20
19.26699828332132
 30
0.0000000000000089
 10
-31.62169335594202
 20
21.4118123821366
 30
0.0000000000000053
 10
-32.31294786836964
 20
22.35533952595261
 30
0.0000000000000071
  0
LINE
  5
9007
330
8FF1
100
AcDbEntity
  8
0
  6
Continuous
 62
     0
370
     0
100
AcDbLine
 10
-38.97213372558886
 20
13.61244183188532
 30
0.0000000000000053
 11
-53.20972748281779
 21
21.83252042023399
 31
0.0000000000000018
210
0.0000000000000003
220
0.8164965809277259
230
0.5773502691896261
  0
ELLIPSE
  5
9008
330
8FF1
100
AcDbEntity
  8
0
  6
Continuous
 62
     0
370
     0
100
AcDbEllipse
 10
-48.39019775126377
 20
24.61507720811408
 30
0.0000000000000053
 11
-6.815844310624012
 21
0.0000000000000041
 31
0.0000000000000005
210
0.0000000000000001
220
-0.0000000000000001
230
1.0
 40
0.5773502691896259
 41
0.0
 42
0.7853981633974491
  0
ELLIPSE
  5
9009
330
8FF1
100
AcDbEntity
  8
0
  6
Continuous
 62
     0
370
     0
100
AcDbEllipse
 10
-34.15260399403486
 20
26.14442028544949
 30
0.0000000000000071
 11
-6.815844310624012
 21
0.0000000000000041
 31
0.0000000000000005
210
0.0000000000000001
220
-0.0000000000000001
230
1.0
 40
0.5773502691896259
 41
0.7853981633974485
 42
2.356194490192345
  0
SPLINE
  5
900A
330
8FF1
100
AcDbEntity
  8
0
  6
Continuous
 62
     0
370
     0
100
AcDbSpline
210
0.0
220
0.0
230
1.0
 70
     8
 71
     3
 72
    10
 73
     6
 74
     0
 42
0.0000000001
 43
0.0000000001
 40
0.0
 40
0.0
 40
0.0
 40
0.0
 40
2.676441451981454
 40
6.452604380760535
 40
10.0073629441889
 40
10.0073629441889
 40
10.0073629441889
 40
10.0073629441889
 10
-29.33307426248087
 20
23.36186349756939
 30
0.0000000000000107
 10
-29.33307426248087
 20
24.09029859576814
 30
0.0000000000000089
 10
-29.28393283966217
 20
25.84361366060438
 30
0.0000000000000124
 10
-30.35988446990046
 20
29.01641994900553
 30
0.0000000000000071
 10
-31.62169335594218
 20
31.16123404782091
 30
0.0000000000000124
 10
-32.31294786836989
 20
32.10476119163702
 30
0.0000000000000089
  0
LINE
  5
900B
330
8FF1
100
AcDbEntity
  8
0
  6
Continuous
 62
     0
370
     0
100
AcDbLine
 10
-38.97213372558884
 20
23.36186349756939
 30
0.0000000000000107
 11
-53.20972748281779
 21
31.58194208591806
 31
0.0000000000000071
210
0.0000000000000003
220
0.8164965809277259
230
0.5773502691896261
  0
ELLIPSE
  5
900C
330
8FF1
100
AcDbEntity
  8
0
  6
Continuous
 62
     0
370
     0
100
AcDbEllipse
 10
-48.39019775126377
 20
34.36449887379815
 30
0.0000000000000036
 11
-6.815844310624012
 21
0.0000000000000041
 31
0.0000000000000005
210
0.0000000000000001
220
-0.0000000000000001
230
1.0
 40
0.5773502691896259
 41
0.0000000000000001
 42
0.7853981633974485
  0
ELLIPSE
  5
900D
330
8FF1
100
AcDbEntity
  8
0
  6
Continuous
 62
     0
370
     0
100
AcDbEllipse
 10
-34.15260399403486
 20
35.89384195113394
 30
0.0000000000000107
 11
-6.815844310624012
 21
0.0000000000000041
 31
0.0000000000000005
210
0.0000000000000001
220
-0.0000000000000001
230
1.0
 40
0.5773502691896259
 41
0.7853981633974485
 42
2.356194490192345
  0
SPLINE
  5
900E
330
8FF1
100
AcDbEntity
  8
0
  6
Continuous
 62
     0
370
     0
100
AcDbSpline
210
-0.000000000000005
220
-0.0000000000000019
230
1.0
 70
     8
 71
     3
 72
    10
 73
     6
 74
     0
 42
0.0000000001
 43
0.0000000001
 40
0.0
 40
0.0
 40
0.0
 40
0.0
 40
2.676441451981454
 40
6.452604380760535
 40
10.00736294418848
 40
10.00736294418848
 40
10.00736294418848
 40
10.00736294418848
 10
-29.33307426248087
 20
33.11128516325382
 30
0.0000000000000142
 10
-29.33307426248087
 20
33.83972026145258
 30
0.0000000000000107
 10
-29.28393283966217
 20
35.59303532628883
 30
0.0000000000000142
 10
-30.35988446990041
 20
38.76584161468983
 30
0.0000000000000142
 10
-31.62169335594202
 20
40.91065571350511
 30
0.0000000000000142
 10
-32.31294786836964
 20
41.85418285732112
 30
0.0000000000000142
  0
LINE
  5
900F
330
8FF1
100
AcDbEntity
  8
0
  6
Continuous
 62
     0
370
     0
100
AcDbLine
 10
-38.97213372558886
 20
33.11128516325384
 30
0.0000000000000107
 11
-53.20972748281779
 21
41.33136375160249
 31
0.0000000000000107
210
0.0000000000000003
220
0.8164965809277259
230
0.5773502691896261
  0
ELLIPSE
  5
9010
330
8FF1
100
AcDbEntity
  8
0
  6
Continuous
 62
     0
370
     0
100
AcDbEllipse
 10
-48.39019775126377
 20
44.11392053948261
 30
0.0000000000000107
 11
-6.815844310624012
 21
0.0000000000000041
 31
0.0000000000000005
210
0.0000000000000001
220
-0.0000000000000001
230
1.0
 40
0.5773502691896259
 41
0.0000000000000003
 42
0.7853981633974485
  0
ELLIPSE
  5
9011
330
8FF1
100
AcDbEntity
  8
0
  6
Continuous
 62
     0
370
     0
100
AcDbEllipse
 10
-34.15260399403486
 20
45.64326361681799
 30
0.0000000000000142
 11
-6.815844310624012
 21
0.0000000000000041
 31
0.0000000000000005
210
0.0000000000000001
220
-0.0000000000000001
230
1.0
 40
0.5773502691896259
 41
0.7853981633974474
 42
2.356194490192345
  0
SPLINE
  5
9012
330
8FF1
100
AcDbEntity
  8
0
  6
Continuous
 62
     0
370
     0
100
AcDbSpline
210
-0.0000000000000029
220
-0.0000000000000011
230
1.0
 70
     8
 71
     3
 72
    10
 73
     6
 74
     0
 42
0.0000000001
 43
0.0000000001
 40
0.0
 40
0.0
 40
0.0
 40
0.0
 40
2.676441451981454
 40
6.452604380760535
 40
10.00736294418849
 40
10.00736294418849
 40
10.00736294418849
 40
10.00736294418849
 10
-29.33307426248087
 20
42.8607068289379
 30
0.0000000000000178
 10
-29.33307426248087
 20
43.58914192713664
 30
0.0000000000000142
 10
-29.28393283966216
 20
45.34245699197288
 30
0.0000000000000071
 10
-30.35988446990041
 20
48.51526328037393
 30
0.0000000000000213
 10
-31.62169335594202
 20
50.66007737918919
 30
0.0000000000000142
 10
-32.31294786836964
 20
51.60360452300521
 30
0.0000000000000142
  0
LINE
  5
9013
330
8FF1
100
AcDbEntity
  8
0
  6
Continuous
 62
     0
370
     0
100
AcDbLine
 10
-38.97213372558884
 20
42.8607068289379
 30
0.0000000000000178
 11
-53.20972748281778
 21
51.08078541728657
 31
0.0000000000000107
210
0.0000000000000003
220
0.8164965809277259
230
0.5773502691896261
  0
ELLIPSE
  5
9014
330
8FF1
100
AcDbEntity
  8
0
  6
Continuous
 62
     0
370
     0
100
AcDbEllipse
 10
-48.39019775126377
 20
53.86334220516668
 30
0.0000000000000142
 11
-6.815844310624012
 21
0.0000000000000041
 31
0.0000000000000005
210
0.0000000000000001
220
-0.0000000000000001
230
1.0
 40
0.5773502691896259
 41
-0.0000000000000001
 42
0.7853981633974501
  0
ELLIPSE
  5
9015
330
8FF1
100
AcDbEntity
  8
0
  6
Continuous
 62
     0
370
     0
100
AcDbEllipse
 10
-34.15260399403486
 20
55.39268528250207
 30
0.0000000000000178
 11
-6.815844310624012
 21
0.0000000000000041
 31
0.0000000000000005
210
0.0000000000000001
220
-0.0000000000000001
230
1.0
 40
0.5773502691896259
 41
0.7853981633974481
 42
2.356194490192345
  0
SPLINE
  5
9016
330
8FF1
100
AcDbEntity
  8
0
  6
Continuous
 62
     0
370
     0
100
AcDbSpline
210
-0.0000000000000069
220
-0.0000000000000033
230
1.0
 70
     8
 71
     3
 72
    11
 73
     7
 74
     0
 42
0.0000000001
 43
0.0000000001
 40
0.0
 40
0.0
 40
0.0
 40
0.0
 40
2.676441451981454
 40
6.452604380760535
 40
10.14964142087356
 40
12.94449963440371
 40
12.94449963440371
 40
12.94449963440371
 40
12.94449963440371
 10
-29.33307426248086
 20
52.61012849462199
 30
0.0000000000000107
 10
-29.33307426248086
 20
53.33856359282073
 30
0.0000000000000178
 10
-29.28393283966216
 20
55.09187865765698
 30
0.0000000000000142
 10
-30.37518168254182
 20
58.30979393711267
 30
0.0000000000000142
 10
-32.15540954513012
 20
61.3090509815183
 30
0.0000000000000178
 10
-33.54150784349445
 20
62.87623805506168
 30
0.0000000000000142
 10
-34.15260399403484
 20
63.5235591843192
 30
0.0000000000000178
  0
LINE
  5
9017
330
8FF1
100
AcDbEntity
  8
0
  6
Continuous
 62
     0
370
     0
100
AcDbLine
 10
-34.15260399403484
 20
63.5235591843192
 30
0.0000000000000178
 11
-48.39019775126377
 21
71.74363777266788
 31
0.0000000000000142
210
0.0000000000000003
220
0.8164965809277259
230
0.5773502691896261
  0
LINE
  5
9018
330
8FF1
100
AcDbEntity
  8
0
  6
Continuous
 62
     0
370
     0
100
AcDbLine
 10
-38.97213372558884
 20
52.61012849462197
 30
0.0000000000000178
 11
-53.20972748281778
 21
60.83020708297064
 31
0.0000000000000142
210
0.0000000000000003
220
0.8164965809277259
230
0.5773502691896261
  0
ELLIPSE
  5
9019
330
8FF1
100
AcDbEntity
  8
0
  6
Continuous
 62
     0
370
     0
100
AcDbEllipse
 10
-48.39019775126377
 20
63.61276387085076
 30
0.0000000000000142
 11
-6.815844310624012
 21
0.0000000000000041
 31
0.0000000000000005
210
0.0000000000000001
220
-0.0000000000000001
230
1.0
 40
0.5773502691896259
 41
-0.0000000000000001
 42
0.7853981633974485
  0
SPLINE
  5
901A
330
8FF1
100
AcDbEntity
  8
0
  6
Continuous
 62
     0
370
     0
100
AcDbSpline
210
0.0
220
0.0
230
1.0
 70
     8
 71
     3
 72
     9
 73
     5
 74
     0
 42
0.0000000001
 43
0.0000000001
 40
8.0824184928929
 40
8.0824184928929
 40
8.0824184928929
 40
8.0824184928929
 40
10.14964142087356
 40
12.94449963440371
 40
12.94449963440371
 40
12.94449963440371
 40
12.94449963440371
 10
-51.27789499733086
 20
71.29847483714856
 30
0.0000000000000142
 10
-50.93136472125761
 20
71.4985441853218
 30
0.0000000000000142
 10
-50.03940713891708
 20
71.82692060008463
 30
0.0000000000000142
 10
-49.00129390180417
 20
71.80194969744082
 30
0.0000000000000142
 10
-48.39019775126377
 20
71.74363777266785
 30
0.0000000000000142
  0
SPLINE
  5
901B
330
8FF1
100
AcDbEntity
  8
0
  6
Continuous
 62
     0
370
     0
100
AcDbSpline
210
0.0
220
0.0
230
1.0
 70
     8
 71
     3
 72
    18
 73
    14
 74
     0
 42
0.0000000001
 43
0.0000000001
 40
0.0
 40
0.0
 40
0.0
 40
0.0
 40
1.031657309432499
 40
1.031657309432499
 40
2.054748466231953
 40
2.054748466231953
 40
3.185581221995031
 40
3.185581221995031
 40
4.511601676502009
 40
4.511601676502009
 40
6.622404590574295
 40
6.622404590574295
 40
7.618724331184785
 40
7.618724331184785
 40
7.618724331184785
 40
7.618724331184785
 10
-55.20604206188782
 20
14.86565554242964
 30
0.0000000000000027
 10
-55.20604206188781
 20
15.12160641751288
 30
0.0000000000000018
 10
-55.21053677391832
 20
15.41915224895715
 30
0.0
 10
-55.20303368714039
 20
16.04680304663903
 30
0.0000000000000036
 10
-55.1902712312669
 20
16.38297927413698
 30
0.0000000000000018
 10
-55.11915809840617
 20
17.09041834726884
 30
0.0000000000000018
 10
-55.05485148134411
 20
17.46725516913048
 30
0.0000000000000018
 10
-54.84549171703186
 20
18.25897527272816
 30
0.0
 10
-54.68941750848525
 20
18.67714575259112
 30
-0.0000000000000018
 10
-54.19588980630845
 20
19.70807646714167
 30
0.0
 10
-53.80003620494746
 20
20.30051956444906
 30
0.0000000000000036
 10
-53.13686672191042
 20
21.06958448413824
 30
0.0
 10
-52.91051489939775
 20
21.30336056613931
 30
0.0000000000000053
 10
-52.67239026750566
 20
21.52228863432793
 30
0.0
  0
SPLINE
  5
901C
330
8FF1
100
AcDbEntity
  8
0
  6
Continuous
 62
     0
370
     0
100
AcDbSpline
210
0.000000000000006
220
-0.0000000000000026
230
1.0
 70
     8
 71
     3
 72
    18
 73
    14
 74
     0
 42
0.0000000001
 43
0.0000000001
 40
0.0
 40
0.0
 40
0.0
 40
0.0
 40
1.031657309435529
 40
1.031657309435529
 40
2.054748466234999
 40
2.054748466234999
 40
3.18558122199863
 40
3.18558122199863
 40
4.511601676504818
 40
4.511601676504818
 40
6.622404590577206
 40
6.622404590577206
 40
7.618724331184425
 40
7.618724331184425
 40
7.618724331184425
 40
7.618724331184425
 10
-55.20604206188782
 20
24.61507720811409
 30
0.0000000000000036
 10
-55.20604206188782
 20
24.87102808319808
 30
0.0000000000000036
 10
-55.21053677391837
 20
25.16857391464336
 30
0.0000000000000036
 10
-55.20303368714031
 20
25.79622471232641
 30
0.0000000000000018
 10
-55.19027123126672
 20
26.13240093982444
 30
0.0000000000000036
 10
-55.11915809840571
 20
26.83984001295652
 30
0.0000000000000053
 10
-55.05485148134344
 20
27.2166768348183
 30
0.0000000000000036
 10
-54.84549171703076
 20
28.00839693841579
 30
0.0000000000000071
 10
-54.68941750848408
 20
28.42656741827844
 30
0.0000000000000053
 10
-54.19588980630696
 20
29.45749813282857
 30
0.0000000000000053
 10
-53.80003620494576
 20
30.04994123013583
 30
0.0000000000000053
 10
-53.13686672190915
 20
30.81900614982397
 30
0.0000000000000071
 10
-52.9105148993972
 20
31.05278223182423
 30
0.0000000000000053
 10
-52.6723902675059
 20
31.27171030001214
 30
0.0000000000000036
  0
SPLINE
  5
901D
330
8FF1
100
AcDbEntity
  8
0
  6
Continuous
 62
     0
370
     0
100
AcDbSpline
210
0.0000000000000101
220
-0.0000000000000043
230
1.0
 70
     8
 71
     3
 72
    18
 73
    14
 74
     0
 42
0.0000000001
 43
0.0000000001
 40
0.0
 40
0.0
 40
0.0
 40
0.0
 40
1.03165730943862
 40
1.03165730943862
 40
2.054748466238128
 40
2.054748466238128
 40
3.185581222002014
 40
3.185581222002014
 40
4.511601676507183
 40
4.511601676507183
 40
6.62240459058009
 40
6.62240459058009
 40
7.61872433118478
 40
7.61872433118478
 40
7.61872433118478
 40
7.61872433118478
 10
-55.20604206188781
 20
34.36449887379815
 30
0.0000000000000036
 10
-55.20604206188781
 20
34.62044974888293
 30
0.0000000000000071
 10
-55.21053677391837
 20
34.91799558032923
 30
0.0000000000000036
 10
-55.20303368714021
 20
35.54564637801347
 30
0.0000000000000071
 10
-55.19027123126654
 20
35.88182260551157
 30
0.0000000000000071
 10
-55.11915809840524
 20
36.58926167864382
 30
0.0000000000000036
 10
-55.05485148134275
 20
36.96609850050562
 30
0.0000000000000036
 10
-54.84549171702976
 20
37.75781860410277
 30
0.0000000000000071
 10
-54.68941750848301
 20
38.17598908396503
 30
0.0000000000000036
 10
-54.19588980630567
 20
39.20691979851483
 30
0.0000000000000036
 10
-53.80003620494418
 20
39.7993628958221
 30
0.0000000000000036
 10
-53.13686672190778
 20
40.56842781550948
 30
0.0000000000000142
 10
-52.91051489939636
 20
40.80220389750911
 30
0.0000000000000107
 10
-52.67239026750565
 20
41.02113196569646
 30
0.0000000000000071
  0
SPLINE
  5
901E
330
8FF1
100
AcDbEntity
  8
0
  6
Continuous
 62
     0
370
     0
100
AcDbSpline
210
0.0000000000000049
220
-0.0000000000000021
230
1.0
 70
     8
 71
     3
 72
    18
 73
    14
 74
     0
 42
0.0000000001
 43
0.0000000001
 40
0.0
 40
0.0
 40
0.0
 40
0.0
 40
1.031657309432529
 40
1.031657309432529
 40
2.054748466232068
 40
2.054748466232068
 40
3.185581221995096
 40
3.185581221995096
 40
4.511601676501856
 40
4.511601676501856
 40
6.622404590574031
 40
6.622404590574031
 40
7.618724331184438
 40
7.618724331184438
 40
7.618724331184438
 40
7.618724331184438
 10
-55.20604206188778
 20
44.11392053948261
 30
0.0000000000000071
 10
-55.20604206188778
 20
44.36987141456584
 30
0.0000000000000036
 10
-55.21053677391831
 20
44.66741724601013
 30
0.0000000000000036
 10
-55.20303368714037
 20
45.29506804369203
 30
0.0000000000000071
 10
-55.19027123126687
 20
45.63124427119002
 30
0.0000000000000071
 10
-55.11915809840616
 20
46.33868334432189
 30
0.0000000000000071
 10
-55.05485148134408
 20
46.71552016618352
 30
0.0000000000000107
 10
-54.84549171703185
 20
47.50724026978111
 30
0.0000000000000071
 10
-54.68941750848527
 20
47.92541074964401
 30
0.0000000000000071
 10
-54.19588980630853
 20
48.95634146419446
 30
0.0000000000000071
 10
-53.80003620494758
 20
49.54878456150183
 30
0.0000000000000036
 10
-53.1368667219106
 20
50.31784948119097
 30
0.0000000000000071
 10
-52.91051489939796
 20
50.55162556319204
 30
0.0000000000000107
 10
-52.6723902675059
 20
50.77055363138065
 30
0.0000000000000071
  0
SPLINE
  5
901F
330
8FF1
100
AcDbEntity
  8
0
  6
Continuous
 62
     0
370
     0
100
AcDbSpline
210
0.0000000000000053
220
-0.0000000000000023
230
1.0
 70
     8
 71
     3
 72
    18
 73
    14
 74
     0
 42
0.0000000001
 43
0.0000000001
 40
0.0
 40
0.0
 40
0.0
 40
0.0
 40
1.031657309438591
 40
1.031657309438591
 40
2.05474846623797
 40
2.05474846623797
 40
3.185581222002037
 40
3.185581222002037
 40
4.511601676507582
 40
4.511601676507582
 40
6.622404590580379
 40
6.622404590580379
 40
7.618724331184403
 40
7.618724331184403
 40
7.618724331184403
 40
7.618724331184403
 10
-55.2060420618878
 20
53.86334220516668
 30
0.0000000000000142
 10
-55.2060420618878
 20
54.11929308025142
 30
0.0000000000000107
 10
-55.21053677391837
 20
54.41683891169772
 30
0.0000000000000107
 10
-55.20303368714021
 20
55.04448970938193
 30
0.0000000000000071
 10
-55.19027123126654
 20
55.38066593687998
 30
0.0000000000000071
 10
-55.11915809840527
 20
56.08810501001222
 30
0.0000000000000036
 10
-55.05485148134275
 20
56.46494183187411
 30
0.0000000000000142
 10
-54.84549171702972
 20
57.25666193547143
 30
0.0000000000000071
 10
-54.68941750848292
 20
57.6748324153338
 30
0.0000000000000107
 10
-54.19588980630546
 20
58.70576312988365
 30
0.0000000000000107
 10
-53.80003620494397
 20
59.29820622719089
 30
0.0000000000000142
 10
-53.13686672190771
 20
60.06727114687804
 30
0.0000000000000178
 10
-52.91051489939643
 20
60.30104722887752
 30
0.0000000000000107
 10
-52.67239026750591
 20
60.51997529706472
 30
0.0000000000000071
  0
SPLINE
  5
9020
330
8FF1
100
AcDbEntity
  8
0
  6
Continuous
 62
     0
370
     0
100
AcDbSpline
210
0.0000000000000109
220
-0.0000000000000064
230
1.0
 70
     8
 71
     3
 72
    20
 73
    16
 74
     0
 42
0.0000000001
 43
0.0000000001
 40
0.0
 40
0.0
 40
0.0
 40
0.0
 40
1.031657309438607
 40
1.031657309438607
 40
2.054748466238148
 40
2.054748466238148
 40
3.18558122200203
 40
3.18558122200203
 40
4.511601676507228
 40
4.511601676507228
 40
6.622404590580087
 40
6.622404590580087
 40
8.921962766575964
 40
8.921962766575964
 40
9.417794311182577
 40
9.417794311182577
 40
9.417794311182577
 40
9.417794311182577
 10
-55.20604206188778
 20
63.61276387085074
 30
0.0000000000000107
 10
-55.20604206188778
 20
63.86871474593548
 30
0.0000000000000036
 10
-55.21053677391837
 20
64.16626057738182
 30
0.0000000000000107
 10
-55.20303368714021
 20
64.79391137506607
 30
0.0000000000000107
 10
-55.19027123126653
 20
65.13008760256418
 30
0.0000000000000107
 10
-55.11915809840523
 20
65.83752667569642
 30
0.0000000000000036
 10
-55.05485148134273
 20
66.21436349755825
 30
0.0000000000000178
 10
-54.84549171702974
 20
67.00608360115538
 30
0.0000000000000071
 10
-54.689417508483
 20
67.42425408101765
 30
0.0000000000000142
 10
-54.19588980630564
 20
68.45518479556748
 30
0.0000000000000142
 10
-53.80003620494416
 20
69.0476278928747
 30
0.0000000000000142
 10
-52.85870970799957
 20
70.13926616226192
 30
0.0000000000000142
 10
-52.29491054082713
 20
70.64009991531732
 30
0.0000000000000142
 10
-51.54964921423772
 20
71.13567583350368
 30
0.0000000000000142
 10
-51.41490431903751
 20
71.21937246837976
 30
0.0000000000000142
 10
-51.27789499733086
 20
71.29847483714856
 30
0.0000000000000142
  0
ENDBLK
  5
9021
330
8FF1
100
AcDbEntity
  8
0
100
AcDbBlockEnd
  0
BLOCK
  5
A675
330
A672
100
AcDbEntity
  8
0
100
AcDbBlockBegin
  2
building wrap
 70
     0
 10
0.0
 20
0.0
 30
0.0
  3
building wrap
  1

  0
LWPOLYLINE
  5
B0D1
102
{ACAD_REACTORS
330
B11A
102
}
330
A672
100
AcDbEntity
  8
MP Panel Perimeter (00134148)
100
AcDbPolyline
 90
        3
 70
     0
 43
0.0
 10
552.6784155653984
 20
-447.7758406716411
 10
341.0007817358492
 20
-325.563701798726
 10
341.0007817358492
 20
-325.563701798726
1001
AcDbBlockRepETag
1070
     1
1071
      168
1005
B0D1
  0
ARC
  5
B0D2
330
A672
100
AcDbEntity
  8
MP Panel Perimeter (00134148)
100
AcDbCircle
 10
-2673.050081972746
 20
-2638.844600331911
 30
0.0
 40
3564.674102084402
100
AcDbArc
 50
3.298388023019066
 51
7.299103600235329
1001
AcDbBlockRepETag
1070
     1
1071
      170
1005
B0D2
  0
LINE
  5
B0D3
102
{ACAD_REACTORS
330
B11A
102
}
330
A672
100
AcDbEntity
  8
MP Barricade Building Wrap Perimeter Isometric (00134183)
100
AcDbLine
 10
954.4764608936604
 20
-469.6092844059585
 30
0.0
 11
951.2820803662997
 21
-713.0079370489182
 31
0.0
1001
AcDbBlockRepETag
1070
     1
1071
      171
1005
B0D3
  0
LINE
  5
B0D4
102
{ACAD_REACTORS
330
B11A
102
}
330
A672
100
AcDbEntity
  8
MP Barricade Building Wrap Perimeter Isometric (00134183)
100
AcDbLine
 10
951.2820803662997
 20
-713.0079370489182
 30
0.0
 11
968.9949649300579
 21
-982.8389604197584
 31
0.0
1001
AcDbBlockRepETag
1070
     1
1071
      172
1005
B0D4
  0
LINE
  5
B0D5
102
{ACAD_REACTORS
330
B11A
102
}
330
A672
100
AcDbEntity
  8
MP Barricade Building Wrap Perimeter Isometric (00134183)
100
AcDbLine
 10
968.9949649300579
 20
-982.8389604197584
 30
0.0
 11
978.7037116438167
 21
-1064.604185010416
 31
0.0
1001
AcDbBlockRepETag
1070
     1
1071
      173
1005
B0D5
  0
LINE
  5
B0D6
102
{ACAD_REACTORS
330
B11A
102
}
330
A672
100
AcDbEntity
  8
MP Barricade Building Wrap Perimeter Isometric (00134183)
100
AcDbLine
 10
978.7037116438167
 20
-1064.604185010416
 30
0.0
 11
1141.180448608655
 21
-1751.729999647256
 31
0.0
1001
AcDbBlockRepETag
1070
     1
1071
      174
1005
B0D6
  0
LINE
  5
B0D7
102
{ACAD_REACTORS
330
B11A
102
}
330
A672
100
AcDbEntity
  8
MP Barricade Building Wrap Perimeter Isometric (00134183)
100
AcDbLine
 10
1141.180448608655
 20
-1751.729999647256
 30
0.0
 11
1202.964673864073
 21
-2018.976156086959
 31
0.0
1001
AcDbBlockRepETag
1070
     1
1071
      175
1005
B0D7
  0
LINE
  5
B0D8
102
{ACAD_REACTORS
330
B11A
102
}
330
A672
100
AcDbEntity
  8
MP Barricade Building Wrap Perimeter Isometric (00134183)
100
AcDbLine
 10
1202.964673864073
 20
-2018.976156086959
 30
0.0
 11
1254.894461328658
 21
-2340.829404468248
 31
0.0
1001
AcDbBlockRepETag
1070
     1
1071
      176
1005
B0D8
  0
LINE
  5
B0D9
102
{ACAD_REACTORS
330
B11A
102
}
330
A672
100
AcDbEntity
  8
MP Barricade Building Wrap Perimeter Isometric (00134183)
100
AcDbLine
 10
1254.894461328658
 20
-2340.829404468248
 30
0.0
 11
1281.870430372704
 21
-2640.591228318385
 31
0.0
1001
AcDbBlockRepETag
1070
     1
1071
      177
1005
B0D9
  0
LINE
  5
B0DA
102
{ACAD_REACTORS
330
B11A
102
}
330
A672
100
AcDbEntity
  8
MP Barricade Building Wrap Perimeter Isometric (00134183)
100
AcDbLine
 10
1281.870430372704
 20
-2640.591228318385
 30
0.0
 11
1288.200753171282
 21
-3040.087126910385
 31
0.0
1001
AcDbBlockRepETag
1070
     1
1071
      178
1005
B0DA
  0
LINE
  5
B0DB
102
{ACAD_REACTORS
330
B11A
102
}
330
A672
100
AcDbEntity
  8
MP Barricade Building Wrap Perimeter Isometric (00134183)
100
AcDbLine
 10
1288.200753171282
 20
-3040.087126910385
 30
0.0
 11
894.0885958481922
 21
-2812.243243919354
 31
0.0
1001
AcDbBlockRepETag
1070
     1
1071
      179
1005
B0DB
  0
LINE
  5
B0DC
330
A672
100
AcDbEntity
  8
Timber Perimeter (00134144)
100
AcDbLine
 10
924.6078992659258
 20
-2775.651777201114
 30
0.0
 11
924.615542315756
 21
-2574.601776737108
 31
0.0
1001
AcDbBlockRepETag
1070
     1
1071
      180
1005
B0DC
  0
LINE
  5
B0DD
330
A672
100
AcDbEntity
  8
Timber Perimeter (00134144)
100
AcDbLine
 10
924.615542315756
 20
-2574.601776737108
 30
0.0
 11
893.7769186048496
 21
-2620.718513902306
 31
0.0
1001
AcDbBlockRepETag
1070
     1
1071
      181
1005
B0DD
  0
LINE
  5
B0DE
102
{ACAD_REACTORS
330
B11A
102
}
330
A672
100
AcDbEntity
  8
MP Panel Perimeter (00134148)
100
AcDbLine
 10
893.7769186048496
 20
-2620.718513902306
 30
0.0
 11
885.7189084057242
 21
-2433.747727630649
 31
0.0
1001
AcDbBlockRepETag
1070
     1
1071
      182
1005
B0DE
  0
LINE
  5
B0DF
330
A672
100
AcDbEntity
  8
Timber Perimeter (00134144)
100
AcDbLine
 10
924.6191935251973
 20
-2375.380292381823
 30
0.0
 11
924.6268365750257
 21
-2174.330291917817
 31
0.0
1001
AcDbBlockRepETag
1070
     1
1071
      183
1005
B0DF
  0
LINE
  5
B0E0
330
A672
100
AcDbEntity
  8
Timber Perimeter (00134144)
100
AcDbLine
 10
924.6268365750257
 20
-2174.330291917817
 30
0.0
 11
885.6556934047258
 21
-2151.830291917817
 31
0.0
1001
AcDbBlockRepETag
1070
     1
1071
      184
1005
B0E0
  0
LINE
  5
B0E2
102
{ACAD_REACTORS
330
B11A
102
}
330
A672
100
AcDbEntity
  8
MP Panel Perimeter (00134148)
100
AcDbLine
 10
862.7726908524619
 20
-2186.149224605467
 30
0.0
 11
769.716894390247
 21
-1676.13347221197
 31
0.0
1001
AcDbBlockRepETag
1070
     1
1071
      186
1005
B0E2
  0
LINE
  5
B0E3
102
{ACAD_REACTORS
330
B11A
102
}
330
A672
100
AcDbEntity
  8
MP Panel Perimeter (00134148)
100
AcDbLine
 10
769.716894390247
 20
-1676.13347221197
 30
0.0
 11
656.7516142894837
 21
-1273.486967677987
 31
0.0
1001
AcDbBlockRepETag
1070
     1
1071
      187
1005
B0E3
  0
LINE
  5
B0E4
102
{ACAD_REACTORS
330
B11A
102
}
330
A672
100
AcDbEntity
  8
MP Panel Perimeter (00134148)
100
AcDbLine
 10
656.7516142894837
 20
-1273.486967677987
 30
0.0
 11
595.5882499747586
 21
-982.9268171389557
 31
0.0
1001
AcDbBlockRepETag
1070
     1
1071
      188
1005
B0E4
  0
LINE
  5
B0E5
102
{ACAD_REACTORS
330
B11A
102
}
330
A672
100
AcDbEntity
  8
MP Panel Perimeter (00134148)
100
AcDbLine
 10
595.5882499747586
 20
-982.9268171389557
 30
0.0
 11
578.2846847650271
 21
-863.2919478953517
 31
0.0
1001
AcDbBlockRepETag
1070
     1
1071
      189
1005
B0E5
  0
LINE
  5
B0E6
102
{ACAD_REACTORS
330
B11A
102
}
330
A672
100
AcDbEntity
  8
MP Panel Perimeter (00134148)
100
AcDbLine
 10
578.2846847650271
 20
-863.2919478953517
 30
0.0
 11
557.9125224677318
 21
-639.7578637679488
 31
0.0
1001
AcDbBlockRepETag
1070
     1
1071
      190
1005
B0E6
  0
LINE
  5
B0E7
102
{ACAD_REACTORS
330
B11A
102
}
330
A672
100
AcDbEntity
  8
MP Panel Perimeter (00134148)
100
AcDbLine
 10
557.9125224677318
 20
-639.7578637679488
 30
0.0
 11
552.6784155654004
 21
-447.7758406716401
 31
0.0
1001
AcDbBlockRepETag
1070
     1
1071
      191
1005
B0E7
  0
LINE
  5
B0E8
102
{ACAD_REACTORS
330
B11A
102
}
330
A672
100
AcDbEntity
  8
Timber Perimeter (00134144)
100
AcDbLine
 10
341.0007817358492
 20
-280.563701798726
 30
0.0
 11
245.0502096872078
 21
-231.479804527884
 31
0.0
1001
AcDbBlockRepETag
1070
     1
1071
      192
1005
B0E8
  0
LINE
  5
B0E9
330
A672
100
AcDbEntity
  8
Timber Perimeter (00134144)
100
AcDbLine
 10
245.0502096872078
 20
-231.479804527884
 30
0.0
 11
245.0502104846582
 21
-231.479804988292
 31
0.0
1001
AcDbBlockRepETag
1070
     1
1071
      193
1005
B0E9
  0
LINE
  5
B0EA
102
{ACAD_REACTORS
330
B11A
102
}
330
A672
100
AcDbEntity
  8
Timber Perimeter (00134144)
100
AcDbLine
 10
245.0502104846582
 20
-231.479804988292
 30
0.0
 11
245.0502096872078
 21
-141.4798045278849
 31
0.0
1001
AcDbBlockRepETag
1070
     1
1071
      194
1005
B0EA
  0
LINE
  5
B0EB
102
{ACAD_REACTORS
330
B11A
102
}
330
A672
100
AcDbEntity
  8
Timber Perimeter (00134144)
100
AcDbLine
 10
245.0502096872078
 20
-141.4798045278849
 30
0.0
 11
0.0
 21
0.0
 31
0.0
1001
AcDbBlockRepETag
1070
     1
1071
      195
1005
B0EB
  0
LINE
  5
B0EC
102
{ACAD_REACTORS
330
B11A
102
}
330
A672
100
AcDbEntity
  8
MP Barricade Building Wrap Perimeter Isometric (00134183)
100
AcDbLine
 10
0.0
 20
0.0
 30
0.0
 11
0.0
 21
167.3883556596465
 31
0.0
1001
AcDbBlockRepETag
1070
     1
1071
      196
1005
B0EC
  0
LINE
  5
B0ED
102
{ACAD_REACTORS
330
B11A
102
}
330
A672
100
AcDbEntity
  8
MP Barricade Building Wrap Perimeter Isometric (00134183)
100
AcDbLine
 10
0.0
 20
167.3883556596465
 30
0.0
 11
959.7014736207691
 21
-386.6955484768832
 31
0.0
1001
AcDbBlockRepETag
1070
     1
1071
      197
1005
B0ED
  0
LINE
  5
B0EE
102
{ACAD_REACTORS
330
B11A
102
}
330
A672
100
AcDbEntity
  8
MP Barricade Building Wrap Perimeter Isometric (00134183)
100
AcDbLine
 10
959.7014736207691
 20
-386.6955484768832
 30
0.0
 11
954.4764608936604
 21
-469.6092844059585
 31
0.0
1001
AcDbBlockRepETag
1070
     1
1071
      198
1005
B0EE
  0
LWPOLYLINE
  5
B0EF
330
A672
100
AcDbEntity
  8
Timber Perimeter (00134144)
100
AcDbPolyline
 90
        7
 70
     0
 43
0.0
 10
887.0888659302707
 20
-1879.891872893197
 10
926.0331419772867
 20
-1821.461391314378
 10
926.0388149040828
 20
-1620.411390794781
 10
887.0676717337827
 20
-1597.911390794779
 10
848.0965285634828
 20
-1656.358521621114
 10
848.0967300744977
 20
-1857.379752760588
 10
887.0888659302707
 20
-1879.891872893197
1001
AcDbBlockRepETag
1070
     1
1071
      199
1005
B0EF
  0
LWPOLYLINE
  5
B0F0
102
{ACAD_REACTORS
330
B11A
102
}
330
A672
100
AcDbEntity
  8
Timber Perimeter (00134144)
100
AcDbPolyline
 90
        6
 70
     0
 43
0.0
 10
926.0388149040828
 20
-1620.411390794781
 10
887.0676717337827
 20
-1597.911390794781
 10
848.0965285634828
 20
-1656.358521621114
 10
848.0967300744977
 20
-1857.379752760588
 10
887.0888659302707
 20
-1879.891872893197
 10
926.0331419772867
 20
-1821.461391314378
1001
AcDbBlockRepETag
1070
     1
1071
      200
1005
B0F0
  0
LWPOLYLINE
  5
B0F1
102
{ACAD_REACTORS
330
B11A
102
}
330
A672
100
AcDbEntity
  8
Timber Perimeter (00134144)
100
AcDbPolyline
 90
        6
 70
     1
 43
0.0
 10
926.0388149040828
 20
-1620.411390794781
 10
926.0331419772867
 20
-1821.461391314378
 10
887.0888659302707
 20
-1879.891872893197
 10
848.0967300744977
 20
-1857.379752760588
 10
848.0966325719473
 20
-1656.358461571798
 10
887.0676717337827
 20
-1597.911390794781
1001
AcDbBlockRepETag
1070
     1
1071
      201
1005
B0F1
  0
LWPOLYLINE
  5
B0F2
102
{ACAD_REACTORS
330
B11A
102
}
330
A672
100
AcDbEntity
  8
Timber Perimeter (00134144)
100
AcDbPolyline
 90
        4
 70
     1
 43
0.0
 10
848.0965285634828
 20
-1656.358521621114
 10
887.0676717337827
 20
-1597.911390794781
 10
926.0388149040828
 20
-1620.411390794781
 10
887.0676717337827
 20
-1678.858521621114
1001
AcDbBlockRepETag
1070
     1
1071
      202
1005
B0F2
  0
LINE
  5
B0F3
330
A672
100
AcDbEntity
  8
Timber Perimeter (00134144)
100
AcDbLine
 10
887.0888659302707
 20
-1879.891872893197
 30
0.0
 11
887.0676717337827
 21
-1678.858521621112
 31
0.0
1001
AcDbBlockRepETag
1070
     1
1071
      203
1005
B0F3
  0
LWPOLYLINE
  5
B0F4
330
A672
100
AcDbEntity
  8
Timber Perimeter (00134144)
100
AcDbPolyline
 90
        7
 70
     0
 43
0.0
 10
885.7420088373764
 20
-1317.26000817331
 10
924.6862848843919
 20
-1258.829526594491
 10
924.6919578111899
 20
-1057.779526074894
 10
885.7208146408902
 20
-1035.279526074892
 10
846.7496714705902
 20
-1093.726656901227
 10
846.7498729816034
 20
-1294.7478880407
 10
885.7420088373764
 20
-1317.26000817331
1001
AcDbBlockRepETag
1070
     1
1071
      204
1005
B0F4
  0
LWPOLYLINE
  5
B0F5
102
{ACAD_REACTORS
330
B11A
102
}
330
A672
100
AcDbEntity
  8
Timber Perimeter (00134144)
100
AcDbPolyline
 90
        6
 70
     0
 43
0.0
 10
924.6919578111899
 20
-1057.779526074893
 10
885.7208146408902
 20
-1035.279526074894
 10
846.7496714705902
 20
-1093.726656901227
 10
846.7498729816034
 20
-1294.7478880407
 10
885.7420088373764
 20
-1317.26000817331
 10
924.6862848843919
 20
-1258.829526594491
1001
AcDbBlockRepETag
1070
     1
1071
      205
1005
B0F5
  0
LWPOLYLINE
  5
B0F6
102
{ACAD_REACTORS
330
B11A
102
}
330
A672
100
AcDbEntity
  8
Timber Perimeter (00134144)
100
AcDbPolyline
 90
        6
 70
     1
 43
0.0
 10
924.6919578111899
 20
-1057.779526074894
 10
924.6862848843919
 20
-1258.829526594491
 10
885.7420088373764
 20
-1317.26000817331
 10
846.7498729816034
 20
-1294.7478880407
 10
846.7497754790548
 20
-1093.726596851911
 10
885.7208146408902
 20
-1035.279526074894
1001
AcDbBlockRepETag
1070
     1
1071
      206
1005
B0F6
  0
LWPOLYLINE
  5
B0F7
330
A672
100
AcDbEntity
  8
Timber Inner (00134145)
100
AcDbPolyline
 90
        9
 70
     0
 43
0.0
 10
875.6318596838882
 20
-1050.410477396904
 10
874.1871920524626
 20
-1073.777671652874
 10
873.4540119920403
 20
-1087.425490946687
 10
872.1113253662187
 20
-1096.931167927105
 10
872.0842324480583
 20
-1097.829999551419
 10
872.4723700582709
 20
-1102.298389296792
 10
872.9683545706446
 20
-1104.545573800209
 10
874.2623096951666
 20
-1108.182319977955
 10
875.3193443599538
 20
-1110.221365234562
1001
AcDbBlockRepETag
1070
     1
1071
      207
1005
B0F7
  0
LWPOLYLINE
  5
B0F8
330
A672
100
AcDbEntity
  8
Timber Inner (00134145)
100
AcDbPolyline
 90
        7
 70
     0
 43
0.0
 10
860.8852603341947
 20
-1072.526811022106
 10
860.7639062775415
 20
-1087.910736896644
 10
860.1394746585718
 20
-1089.879442951227
 10
859.4659567999768
 20
-1093.647103803037
 10
859.3756523343309
 20
-1095.681249511974
 10
859.6681973321338
 20
-1099.328732694202
 10
860.1357996496826
 20
-1101.455141608833
1001
AcDbBlockRepETag
1070
     1
1071
      208
1005
B0F8
  0
LWPOLYLINE
  5
B0F9
330
A672
100
AcDbEntity
  8
Timber Inner (00134145)
100
AcDbPolyline
 90
       12
 70
     0
 43
0.0
 10
897.4077982526067
 20
-1042.027009209132
 10
893.052862364957
 20
-1047.193205515572
 10
891.4432925807904
 20
-1074.366502270279
 10
891.3780785720247
 20
-1074.495972221048
 10
890.5150203631581
 20
-1088.117660489833
 10
889.6324947472583
 20
-1092.346831237219
 10
888.6855668179178
 20
-1097.59573691889
 10
888.6423217821921
 20
-1099.867941608926
 10
889.2407364139144
 20
-1103.394276120964
 10
890.3662062257735
 20
-1106.667767012293
 10
890.5960474332477
 20
-1107.159345002711
 10
891.1492633714169
 20
-1108.085318789825
1001
AcDbBlockRepETag
1070
     1
1071
      209
1005
B0F9
  0
LWPOLYLINE
  5
B0FA
330
A672
100
AcDbEntity
  8
Timber Inner (00134145)
100
AcDbPolyline
 90
        9
 70
     0
 43
0.0
 10
910.4147158050889
 20
-1049.536556559385
 10
906.5703006092901
 20
-1054.239182828335
 10
905.7097120057422
 20
-1055.621757871129
 10
905.6440169522446
 20
-1055.753852350599
 10
904.9325896565479
 20
-1057.664145940928
 10
904.4293696660043
 20
-1060.198708789112
 10
904.4146629221778
 20
-1060.341864051295
 10
904.4146629221778
 20
-1064.307245918689
 10
906.0852247210187
 20
-1085.685049872837
1001
AcDbBlockRepETag
1070
     1
1071
      210
1005
B0FA
  0
LWPOLYLINE
  5
B0FB
102
{ACAD_REACTORS
330
B11A
102
}
330
A672
100
AcDbEntity
  8
Timber Perimeter (00134144)
100
AcDbPolyline
 90
        4
 70
     1
 43
0.0
 10
846.7496714705902
 20
-1093.726656901227
 10
885.7208146408902
 20
-1035.279526074894
 10
924.6919578111899
 20
-1057.779526074894
 10
885.7208146408902
 20
-1116.226656901227
1001
AcDbBlockRepETag
1070
     1
1071
      211
1005
B0FB
  0
LINE
  5
B0FC
330
A672
100
AcDbEntity
  8
Timber Perimeter (00134144)
100
AcDbLine
 10
885.7420088373764
 20
-1317.26000817331
 30
0.0
 11
885.7208146408902
 21
-1116.226656901224
 31
0.0
1001
AcDbBlockRepETag
1070
     1
1071
      212
1005
B0FC
  0
LWPOLYLINE
  5
B0FD
330
A672
100
AcDbEntity
  8
Timber Perimeter (00134144)
100
AcDbPolyline
 90
        7
 70
     0
 43
0.0
 10
885.7208146408902
 20
-877.025067657345
 10
924.6650906879056
 20
-818.5945860785269
 10
924.670763614702
 20
-617.5445855589296
 10
885.6996204444021
 20
-595.0445855589268
 10
846.7284772741024
 20
-653.4917163852624
 10
846.7286787851172
 20
-854.5129475247357
 10
885.7208146408902
 20
-877.025067657345
1001
AcDbBlockRepETag
1070
     1
1071
      213
1005
B0FD
  0
LWPOLYLINE
  5
B0FE
102
{ACAD_REACTORS
330
B11A
102
}
330
A672
100
AcDbEntity
  8
Timber Perimeter (00134144)
100
AcDbPolyline
 90
        6
 70
     0
 43
0.0
 10
924.670763614702
 20
-617.5445855589287
 10
885.6996204444021
 20
-595.0445855589296
 10
846.7284772741024
 20
-653.4917163852624
 10
846.7286787851172
 20
-854.5129475247357
 10
885.7208146408902
 20
-877.025067657345
 10
924.6650906879056
 20
-818.5945860785269
1001
AcDbBlockRepETag
1070
     1
1071
      214
1005
B0FE
  0
LWPOLYLINE
  5
B0FF
102
{ACAD_REACTORS
330
B11A
102
}
330
A672
100
AcDbEntity
  8
Timber Perimeter (00134144)
100
AcDbPolyline
 90
        6
 70
     1
 43
0.0
 10
924.670763614702
 20
-617.5445855589296
 10
924.6650906879056
 20
-818.5945860785269
 10
885.7208146408902
 20
-877.025067657345
 10
846.7286787851172
 20
-854.5129475247357
 10
846.7285812825666
 20
-653.4916563359464
 10
885.6996204444021
 20
-595.0445855589296
1001
AcDbBlockRepETag
1070
     1
1071
      215
1005
B0FF
  0
LWPOLYLINE
  5
B100
102
{ACAD_REACTORS
330
B11A
102
}
330
A672
100
AcDbEntity
  8
Timber Perimeter (00134144)
100
AcDbPolyline
 90
        4
 70
     1
 43
0.0
 10
846.7284772741024
 20
-653.4917163852624
 10
885.6996204444021
 20
-595.0445855589296
 10
924.670763614702
 20
-617.5445855589296
 10
885.6996204444021
 20
-675.9917163852624
1001
AcDbBlockRepETag
1070
     1
1071
      216
1005
B100
  0
LINE
  5
B101
330
A672
100
AcDbEntity
  8
Timber Perimeter (00134144)
100
AcDbLine
 10
885.7208146408902
 20
-877.025067657345
 30
0.0
 11
885.6996204444021
 21
-675.9917163852596
 31
0.0
1001
AcDbBlockRepETag
1070
     1
1071
      217
1005
B101
  0
LWPOLYLINE
  5
B102
330
A672
100
AcDbEntity
  8
Timber Perimeter (00134144)
100
AcDbPolyline
 90
        5
 70
     0
 43
0.0
 10
885.676887601212
 20
-2433.810774016234
 10
924.6211636482277
 20
-2375.380292437414
 10
924.6268365750257
 20
-2174.330291917817
 10
885.6556934047258
 20
-2151.830291917815
 10
862.7726847468291
 20
-2186.149177429685
1001
AcDbBlockRepETag
1070
     1
1071
      218
1005
B102
  0
LWPOLYLINE
  5
B103
330
A672
100
AcDbEntity
  8
Timber Perimeter (00134144)
100
AcDbPolyline
 90
        3
 70
     0
 43
0.0
 10
924.6268365750257
 20
-2174.330291917817
 10
885.6556934047258
 20
-2151.830291917817
 10
862.7726847468291
 20
-2186.149177429687
1001
AcDbBlockRepETag
1070
     1
1071
      219
1005
B103
  0
LWPOLYLINE
  5
B104
102
{ACAD_REACTORS
330
B11A
102
}
330
A672
100
AcDbEntity
  8
Timber Perimeter (00134144)
100
AcDbPolyline
 90
        6
 70
     0
 43
0.0
 10
862.7726908524619
 20
-2186.149224605467
 10
885.6556934047258
 20
-2151.830291917817
 10
924.6268365750257
 20
-2174.330291917817
 10
924.6211636482277
 20
-2375.380292437414
 10
885.676887601212
 20
-2433.810774016234
 10
885.676887601212
 20
-2433.810774016234
1001
AcDbBlockRepETag
1070
     1
1071
      220
1005
B104
  0
LWPOLYLINE
  5
B105
102
{ACAD_REACTORS
330
B11A
102
}
330
A672
100
AcDbEntity
  8
Timber Perimeter (00134144)
100
AcDbPolyline
 90
        5
 70
     0
 43
0.0
 10
862.7726847468291
 20
-2186.149177429687
 10
885.6556934047258
 20
-2151.830291917817
 10
924.6268365750257
 20
-2174.330291917817
 10
885.6556934047258
 20
-2232.777422744149
 10
867.2251873869551
 20
-2222.136565133489
1001
AcDbBlockRepETag
1070
     1
1071
      221
1005
B105
  0
LINE
  5
B106
330
A672
100
AcDbEntity
  8
Timber Perimeter (00134144)
100
AcDbLine
 10
885.676887601212
 20
-2433.810774016234
 30
0.0
 11
885.6556934047258
 21
-2232.777422744148
 31
0.0
1001
AcDbBlockRepETag
1070
     1
1071
      222
1005
B106
  0
LWPOLYLINE
  5
B107
330
A672
100
AcDbEntity
  8
Timber Perimeter (00134144)
100
AcDbPolyline
 90
        4
 70
     0
 43
0.0
 10
898.5156126329519
 20
-2814.802588196266
 10
924.6098693889598
 20
-2775.651777256705
 10
924.615542315756
 20
-2574.601776737108
 10
890.9517554077087
 20
-2555.165980303802
1001
AcDbBlockRepETag
1070
     1
1071
      223
1005
B107
  0
LWPOLYLINE
  5
B108
330
A672
100
AcDbEntity
  8
Timber Perimeter (00134144)
100
AcDbPolyline
 90
        2
 70
     0
 43
0.0
 10
924.615542315756
 20
-2574.601776737107
 10
890.9517554077087
 20
-2555.165980303804
1001
AcDbBlockRepETag
1070
     1
1071
      224
1005
B108
  0
LWPOLYLINE
  5
B109
102
{ACAD_REACTORS
330
B11A
102
}
330
A672
100
AcDbEntity
  8
Timber Perimeter (00134144)
100
AcDbPolyline
 90
        4
 70
     0
 43
0.0
 10
890.9517554077087
 20
-2555.165980303804
 10
924.615542315756
 20
-2574.601776737108
 10
924.6098693889598
 20
-2775.651777256705
 10
898.5156126329526
 20
-2814.802588196267
1001
AcDbBlockRepETag
1070
     1
1071
      225
1005
B109
  0
LWPOLYLINE
  5
B10A
102
{ACAD_REACTORS
330
B11A
102
}
330
A672
100
AcDbEntity
  8
Timber Perimeter (00134144)
100
AcDbPolyline
 90
        2
 70
     0
 43
0.0
 10
890.9517554077087
 20
-2555.165980303804
 10
924.615542315756
 20
-2574.601776737108
1001
AcDbBlockRepETag
1070
     1
1071
      226
1005
B10A
  0
LWPOLYLINE
  5
B10B
330
A672
100
AcDbEntity
  8
Timber Inner (00134145)
100
AcDbPolyline
 90
        9
 70
     0
 43
0.0
 10
875.6106654874001
 20
-610.1755368809363
 10
874.1659978559747
 20
-633.5427311369066
 10
873.4328177955539
 20
-647.1905504307195
 10
872.0901311697325
 20
-656.6962274111374
 10
872.063038251572
 20
-657.5950590354513
 10
872.4511758617861
 20
-662.0634487808247
 10
872.9471603741583
 20
-664.3106332842417
 10
874.2411154986822
 20
-667.947379461988
 10
875.2981501634693
 20
-669.9864247185943
1001
AcDbBlockRepETag
1070
     1
1071
      227
1005
B10B
  0
LWPOLYLINE
  5
B10C
330
A672
100
AcDbEntity
  8
Timber Inner (00134145)
100
AcDbPolyline
 90
        7
 70
     0
 43
0.0
 10
860.8640661377084
 20
-632.2918705061383
 10
860.7427120810553
 20
-647.6757963806767
 10
860.1182804620858
 20
-649.6445024352595
 10
859.4447626034908
 20
-653.4121632870692
 10
859.3544581378427
 20
-655.4463089960072
 10
859.6470031356494
 20
-659.0937921782342
 10
860.1146054531946
 20
-661.2202010928657
1001
AcDbBlockRepETag
1070
     1
1071
      228
1005
B10C
  0
LWPOLYLINE
  5
B10D
330
A672
100
AcDbEntity
  8
Timber Inner (00134145)
100
AcDbPolyline
 90
       12
 70
     0
 43
0.0
 10
897.3866040561206
 20
-601.7920686931647
 10
893.031668168469
 20
-606.9582649996045
 10
891.4220983843025
 20
-634.1315617543114
 10
891.3568843755381
 20
-634.2610317050803
 10
890.4938261666721
 20
-647.8827199738653
 10
889.6113005507723
 20
-652.1118907212521
 10
888.6643726214296
 20
-657.3607964029223
 10
888.6211275857077
 20
-659.6330010929587
 10
889.2195422174282
 20
-663.1593356049961
 10
890.3450120292873
 20
-666.432826496326
 10
890.5748532367613
 20
-666.9244044867435
 10
891.1280691749325
 20
-667.850378273858
1001
AcDbBlockRepETag
1070
     1
1071
      229
1005
B10D
  0
LWPOLYLINE
  5
B10E
330
A672
100
AcDbEntity
  8
Timber Inner (00134145)
100
AcDbPolyline
 90
        9
 70
     0
 43
0.0
 10
910.3935216086027
 20
-609.3016160434173
 10
906.5491064128037
 20
-614.0042423123677
 10
905.688517809258
 20
-615.3868173551617
 10
905.6228227557566
 20
-615.5189118346314
 10
904.9113954600597
 20
-617.4292054249607
 10
904.4081754695181
 20
-619.9637682731445
 10
904.3934687256914
 20
-620.1069235353279
 10
904.3934687256914
 20
-624.072305402722
 10
906.0640305245323
 20
-645.4501093568697
1001
AcDbBlockRepETag
1070
     1
1071
      230
1005
B10E
  0
LWPOLYLINE
  5
B10F
330
A672
100
AcDbEntity
  8
Timber Inner (00134145)
100
AcDbPolyline
 90
        9
 70
     0
 43
0.0
 10
876.9787167767809
 20
-1613.042342116791
 10
875.5340491453551
 20
-1636.409536372761
 10
874.8008690849328
 20
-1650.057355666574
 10
873.4581824591131
 20
-1659.563032646992
 10
873.4310895409526
 20
-1660.461864271305
 10
873.8192271511653
 20
-1664.930254016679
 10
874.3152116635373
 20
-1667.177438520096
 10
875.6091667880609
 20
-1670.814184697842
 10
876.6662014528481
 20
-1672.853229954449
1001
AcDbBlockRepETag
1070
     1
1071
      231
1005
B10F
  0
LWPOLYLINE
  5
B110
330
A672
100
AcDbEntity
  8
Timber Inner (00134145)
100
AcDbPolyline
 90
        7
 70
     0
 43
0.0
 10
862.2321174270892
 20
-1635.158675741992
 10
862.110763370436
 20
-1650.542601616531
 10
861.4863317514664
 20
-1652.511307671114
 10
860.8128138928714
 20
-1656.278968522923
 10
860.7225094272235
 20
-1658.313114231862
 10
861.0150544250283
 20
-1661.960597414088
 10
861.4826567425753
 20
-1664.08700632872
1001
AcDbBlockRepETag
1070
     1
1071
      232
1005
B110
  0
LWPOLYLINE
  5
B111
330
A672
100
AcDbEntity
  8
Timber Inner (00134145)
100
AcDbPolyline
 90
       12
 70
     0
 43
0.0
 10
898.7546553455013
 20
-1604.658873929019
 10
894.3997194578495
 20
-1609.825070235459
 10
892.7901496736831
 20
-1636.998366990165
 10
892.7249356649173
 20
-1637.127836940934
 10
891.861877456051
 20
-1650.749525209719
 10
890.9793518401512
 20
-1654.978695957106
 10
890.0324239108103
 20
-1660.227601638777
 10
889.9891788750865
 20
-1662.499806328813
 10
890.5875935068086
 20
-1666.02614084085
 10
891.7130633186662
 20
-1669.29963173218
 10
891.9429045261404
 20
-1669.791209722598
 10
892.4961204643114
 20
-1670.717183509712
1001
AcDbBlockRepETag
1070
     1
1071
      233
1005
B111
  0
LWPOLYLINE
  5
B112
330
A672
100
AcDbEntity
  8
Timber Inner (00134145)
100
AcDbPolyline
 90
        9
 70
     0
 43
0.0
 10
911.7615728979815
 20
-1612.168421279271
 10
907.9171577021822
 20
-1616.871047548222
 10
907.0565690986368
 20
-1618.253622591016
 10
906.9908740451372
 20
-1618.385717070486
 10
906.2794467494404
 20
-1620.296010660815
 10
905.7762267588968
 20
-1622.830573508999
 10
905.7615200150703
 20
-1622.973728771182
 10
905.7615200150703
 20
-1626.939110638576
 10
907.4320818139112
 20
-1648.316914592724
1001
AcDbBlockRepETag
1070
     1
1071
      234
1005
B112
  0
LWPOLYLINE
  5
B113
330
A672
100
AcDbEntity
  8
Timber Inner (00134145)
100
AcDbPolyline
 90
        9
 70
     0
 43
0.0
 10
875.5667384477236
 20
-2166.961243239827
 10
874.1220708162982
 20
-2190.328437495796
 10
873.3888907558776
 20
-2203.97625678961
 10
872.0462041300542
 20
-2213.481933770028
 10
872.0191112118937
 20
-2214.380765394341
 10
872.407248822108
 20
-2218.849155139714
 10
872.9032333344822
 20
-2221.096339643132
 10
874.1971884590039
 20
-2224.733085820878
 10
875.2542231237912
 20
-2226.772131077484
1001
AcDbBlockRepETag
1070
     1
1071
      235
1005
B113
  0
LWPOLYLINE
  5
B114
330
A672
100
AcDbEntity
  8
Timber Inner (00134145)
100
AcDbPolyline
 90
       12
 70
     0
 43
0.0
 10
897.3426770164424
 20
-2158.577775052055
 10
892.9877411287925
 20
-2163.743971358495
 10
891.378171344626
 20
-2190.917268113201
 10
891.3129573358618
 20
-2191.04673806397
 10
890.4498991269957
 20
-2204.668426332755
 10
889.5673735110959
 20
-2208.897597080142
 10
888.6204455817532
 20
-2214.146502761813
 10
888.5772005460292
 20
-2216.418707451849
 10
889.1756151777499
 20
-2219.945041963886
 10
890.3010849896109
 20
-2223.218532855216
 10
890.5309261970851
 20
-2223.710110845634
 10
891.0841421352541
 20
-2224.636084632748
1001
AcDbBlockRepETag
1070
     1
1071
      236
1005
B114
  0
LWPOLYLINE
  5
B115
330
A672
100
AcDbEntity
  8
Timber Inner (00134145)
100
AcDbPolyline
 90
        9
 70
     0
 43
0.0
 10
910.3495945689264
 20
-2166.087322402307
 10
906.5051793731273
 20
-2170.789948671258
 10
905.6445907695795
 20
-2172.172523714052
 10
905.5788957160803
 20
-2172.304618193521
 10
904.8674684203833
 20
-2174.214911783851
 10
904.3642484298416
 20
-2176.749474632035
 10
904.3495416860153
 20
-2176.892629894219
 10
904.3495416860153
 20
-2180.858011761612
 10
906.020103484856
 20
-2202.23581571576
1001
AcDbBlockRepETag
1070
     1
1071
      237
1005
B115
  0
LWPOLYLINE
  5
B116
330
A672
100
AcDbEntity
  8
Timber Inner (00134145)
100
AcDbPolyline
 90
        3
 70
     0
 43
0.0
 10
897.3313827571747
 20
-2558.849259871345
 10
892.976446869523
 20
-2564.015456177785
 10
892.4348806853359
 20
-2573.158358076161
1001
AcDbBlockRepETag
1070
     1
1071
      238
1005
B116
  0
LWPOLYLINE
  5
B117
330
A672
100
AcDbEntity
  8
Timber Inner (00134145)
100
AcDbPolyline
 90
        9
 70
     0
 43
0.0
 10
910.3383003096553
 20
-2566.358807221597
 10
906.4938851138558
 20
-2571.061433490549
 10
905.6332965103102
 20
-2572.444008533342
 10
905.5676014568106
 20
-2572.576103012812
 10
904.8561741611136
 20
-2574.486396603141
 10
904.3529541705702
 20
-2577.020959451325
 10
904.3382474267435
 20
-2577.164114713508
 10
904.3382474267435
 20
-2581.129496580902
 10
906.0088092255844
 20
-2602.50730053505
1001
AcDbBlockRepETag
1070
     1
1071
      239
1005
B117
  0
LINE
  5
B118
330
A672
100
AcDbEntity
  8
MP Panel Perimeter (00134148)
100
AcDbLine
 10
893.7769186048496
 20
-2620.718513902306
 30
0.0
 11
893.2654560834444
 21
-2847.186833543198
 31
0.0
1001
AcDbBlockRepETag
1070
     1
1071
      240
1005
B118
  0
LINE
  5
B119
102
{ACAD_REACTORS
330
B11A
102
}
330
A672
100
AcDbEntity
  8
Timber Perimeter (00134144)
100
AcDbLine
 10
341.0007817358492
 20
-280.563701798726
 30
0.0
 11
341.0007817358492
 21
-325.563701798726
 31
0.0
1001
AcDbBlockRepETag
1070
     1
1071
      241
1005
B119
  0
HATCH
  5
B11A
330
A672
100
AcDbEntity
  8
MASONS Barricade Building Wrap Hatch (00134140)
100
AcDbHatch
 10
0.0
 20
0.0
 30
0.0
210
0.0
220
0.0
230
1.0
  2
ANSI31
 70
     0
 71
     1
 91
        4
 92
        7
 72
     0
 73
     1
 93
       31
 10
1141.18044860865
 20
-1751.729999647246
 10
978.7037116438167
 20
-1064.604185010416
 10
968.9949649300579
 20
-982.8389604197584
 10
951.2820803662997
 20
-713.0079370489182
 10
954.4764608936604
 20
-469.6092844059602
 10
959.7014736207697
 20
-386.6955484768833
 10
0.0
 20
167.3883556596465
 10
0.0
 20
0.0
 10
245.0502096872078
 20
-141.4798045278849
 10
245.0502104846582
 20
-231.479804935823
 10
341.0007817358492
 20
-280.563701798726
 10
341.0007817358492
 20
-325.563701798726
 10
552.6784155654004
 20
-447.7758406716421
 10
557.9125224677318
 20
-639.7578637679482
 10
578.2846847650271
 20
-863.2919478953514
 10
595.5882499747582
 20
-982.9268171389557
 10
656.7516142894836
 20
-1273.486967677986
 10
769.7168943902466
 20
-1676.13347221197
 10
862.7726827824558
 20
-2186.149180375764
 10
885.6556934047258
 20
-2151.830291917817
 10
924.6268365750257
 20
-2174.330291917817
 10
924.6211636482277
 20
-2375.380292437414
 10
885.7189084057242
 20
-2433.747727630649
 10
890.9517554077087
 20
-2555.165980303804
 10
924.6155423157558
 20
-2574.601776737108
 10
924.6098693889598
 20
-2775.651777256705
 10
898.5156126329528
 20
-2814.802588196267
 10
1288.200753171282
 20
-3040.087126910385
 10
1281.870430372705
 20
-2640.591228318382
 10
1254.894461328658
 20
-2340.829404468247
 10
1202.964673864074
 20
-2018.976156086965
 97
       28
330
B0D6
330
B0D5
330
B0D4
330
B0D3
330
B0EE
330
B0ED
330
B0EC
330
B0EB
330
B0EA
330
B0E8
330
B119
330
B0D1
330
B0E7
330
B0E6
330
B0E5
330
B0E4
330
B0E3
330
B0E2
330
B105
330
B104
330
B0DE
330
B10A
330
B109
330
B0DB
330
B0DA
330
B0D9
330
B0D8
330
B0D7
 92
       22
 72
     0
 73
     1
 93
        6
 10
887.088865930271
 20
-1879.891872893197
 10
848.0967300744975
 20
-1857.379752760588
 10
848.0965285634832
 20
-1656.358521621114
 10
887.0676717337827
 20
-1597.911390794781
 10
926.0388149040828
 20
-1620.411390794781
 10
926.0331419772864
 20
-1821.461391314379
 97
        3
330
B0F1
330
B0F0
330
B0F2
 92
       22
 72
     0
 73
     1
 93
        6
 10
885.7420088373764
 20
-1317.26000817331
 10
846.7498729816034
 20
-1294.7478880407
 10
846.7496714705902
 20
-1093.726656901227
 10
885.72081464089
 20
-1035.279526074894
 10
924.6919578111903
 20
-1057.779526074894
 10
924.6862848843919
 20
-1258.82952659449
 97
        3
330
B0F6
330
B0F5
330
B0FB
 92
       22
 72
     0
 73
     1
 93
        6
 10
885.7208146408904
 20
-877.025067657345
 10
846.7286787851172
 20
-854.5129475247357
 10
846.7284772741024
 20
-653.4917163852624
 10
885.6996204444021
 20
-595.0445855589296
 10
924.670763614702
 20
-617.5445855589295
 10
924.6650906879056
 20
-818.5945860785263
 97
        3
330
B0FF
330
B0FE
330
B100
 75
     0
 76
     1
 52
0.0
 41
400.0
 77
     0
 78
     1
 53
45.0
 43
0.0
 44
-3040.087126910385
 45
-35.35533905932737
 46
35.35533905932739
 79
     0
 47
3.970802239222146
 98
        9
 10
1050.517742767028
 20
-1970.996600109022
 10
1050.517742767028
 20
-1970.996600109022
 10
1050.517742767028
 20
-1970.996600109022
 10
1050.517742767028
 20
-1970.996600109022
 10
1050.517742767028
 20
-1970.996600109022
 10
1050.517742767028
 20
-1970.996600109022
 10
1050.517742767028
 20
-1970.996600109022
 10
1050.517742767028
 20
-1970.996600109022
 10
1050.517742767028
 20
-1970.996600109022
1001
ACAD
1010
0.0
1020
0.0
1030
0.0
1001
AcDbBlockRepETag
1070
     1
1071
      242
1005
B11A
  0
ENDBLK
  5
A6C2
330
A672
100
AcDbEntity
  8
0
100
AcDbBlockEnd
  0
BLOCK
  5
ACBA
330
ACB9
100
AcDbEntity
  8
0
100
AcDbBlockBegin
  2
mp000096
 70
     0
 10
0.0
 20
0.0
 30
0.0
  3
mp000096
  1
V:\mpcaddb\mp000000\mp000096.dwg
  0
MTEXT
  5
B37A
102
{ACAD_XDICTIONARY
360
B3D4
102
}
330
ACB9
100
AcDbEntity
  8
defpoints
 62
   253
370
     0
100
AcDbMText
 10
0.0
 20
-15.07001755932378
 30
0.0
 40
20.0
 41
1024.436706887209
 46
0.0
 71
     5
 72
     5
  3
The information provided is for guide only and must be used along side professional architectural/structural design. Professional architectural/structural design takes preference with any conflicting areas of the building design.\PAll documents or da
  3
ta downloaded from www.mpb.co.nz or emailed from MASONS Plastabrick Limited is the intellectual property of MASONS Plastabrick Limited. MASONS Plastabrick Limited takes no responsibility for any of the documents or data being used for any other purpo
  1
se than for professional architectural/structural design.
  7
mp000096$0$2mm
 73
     1
 44
1.0
1001
ACAD_MLEADERVER
1070
     2
  0
LWPOLYLINE
  5
B37C
330
ACB9
100
AcDbEntity
  8
defpoints
 62
   253
100
AcDbPolyline
 90
        5
 70
     0
 43
0.0
 10
531.1521450536488
 20
-172.9993298591075
 10
531.1521450536488
 20
205.6618318460798
 10
-530.9433261265999
 20
205.6618318460798
 10
-530.9433261265999
 20
-172.9993298591075
 10
531.1521450536488
 20
-172.9993298591075
  0
MTEXT
  5
B37D
330
ACB9
100
AcDbEntity
  8
defpoints
 62
   253
370
     0
100
AcDbMText
 10
0.0
 20
159.8871316540671
 30
0.0
 40
30.0
 41
1026.407338423251
 46
0.0
 71
     5
 72
     5
  1
DISCLOSURE NOTE:
  7
mp000096$0$2mm
 73
     1
 44
1.0
1001
ACAD_MLEADERVER
1070
     2
  0
LWPOLYLINE
  5
B37E
330
ACB9
100
AcDbEntity
  8
defpoints
 62
   253
100
AcDbPolyline
 90
        4
 70
     1
 43
0.0
 10
536.1521450536488
 20
-177.9993298591076
 10
536.1521450536488
 20
210.6618318460799
 10
-535.9433261265999
 20
210.6618318460798
 10
-535.9433261265999
 20
-177.9993298591077
  0
ENDBLK
  5
ACBB
330
ACB9
100
AcDbEntity
  8
0
100
AcDbBlockEnd
  0
BLOCK
  5
B386
330
B385
100
AcDbEntity
  8
0
100
AcDbBlockBegin
  2
mp000096$0$_OBLIQUE
 70
     0
 10
0.0
 20
0.0
 30
0.0
  3
mp000096$0$_OBLIQUE
  1

  0
LINE
  5
B387
330
B385
100
AcDbEntity
  8
0
  6
ByBlock
 62
     0
100
AcDbLine
 10
-0.5
 20
-0.5
 30
0.0
 11
0.5
 21
0.5
 31
0.0
  0
ENDBLK
  5
B388
330
B385
100
AcDbEntity
  8
0
100
AcDbBlockEnd
  0
BLOCK
  5
B38A
330
B389
100
AcDbEntity
  8
0
100
AcDbBlockBegin
  2
mp000096$0$_DetailCallout
 70
     2
 10
0.0
 20
0.0
 30
0.0
  3
mp000096$0$_DetailCallout
  1

  0
CIRCLE
  5
B38B
330
B389
100
AcDbEntity
  8
0
  6
ByBlock
 62
     0
370
    -2
100
AcDbCircle
 10
0.0
 20
0.0
 30
0.0
 40
8.0
  0
LINE
  5
B38C
330
B389
100
AcDbEntity
  8
0
  6
ByBlock
 62
     0
370
    -2
100
AcDbLine
 10
8.0
 20
0.0
 30
0.0
 11
-8.0
 21
0.0
 31
0.0
  0
ATTDEF
  5
B38D
330
B389
100
AcDbEntity
  8
0
 62
     0
100
AcDbText
 10
-14.43622100954979
 20
1.0
 30
0.0
 40
3.0
  1
VIEWNUMBER
  7
mp000096$0$x01
 72
     1
 11
0.0
 21
1.0
 31
0.0
100
AcDbAttributeDefinition
  3
Enter view number
  2
VIEWNUMBER
 70
     0
280
     0
  0
ATTDEF
  5
B38F
330
B389
100
AcDbEntity
  8
0
 62
     0
100
AcDbText
 10
-16.06718963165075
 20
-6.0
 30
0.0
 40
3.0
  1
SHEETNUMBER
  7
mp000096$0$x01
 72
     1
 11
0.0
 21
-6.0
 31
0.0
100
AcDbAttributeDefinition
  3
Enter sheet number
  2
SHEETNUMBER
 70
     0
280
     0
  0
ENDBLK
  5
B390
330
B389
100
AcDbEntity
  8
0
100
AcDbBlockEnd
  0
ENDSEC
  0
SECTION
  2
ENTITIES
  0
LINE
  5
7E26
330
1F
100
AcDbEntity
  8
MP Panel Perimeter (00134148)
100
AcDbLine
 10
3388.449267261564
 20
1759.339357747174
 30
0.0
 11
4718.291889129665
 21
991.5543620317876
 31
0.0
  0
LWPOLYLINE
  5
7E27
330
1F
100
AcDbEntity
  8
MP Concrete Perimeter Isometric (00134230)
100
AcDbPolyline
 90
        3
 70
     0
 43
0.0
 10
5764.371527045392
 20
387.600001487358
 10
5764.371527045392
 20
87.60000148735798
 10
3525.340232650155
 20
1380.305322030445
  0
LINE
  5
7E29
330
1F
100
AcDbEntity
  8
MP Concrete Perimeter Isometric (00134230)
100
AcDbLine
 10
6318.654643641291
 20
707.6155080612661
 30
0.0
 11
7461.432101376594
 21
1367.39838090858
 31
0.0
  0
LINE
  5
7E2F
330
1F
100
AcDbEntity
  8
MP Panel Perimeter (00134148)
100
AcDbLine
 10
4378.635968234044
 20
3391.502937068003
 30
0.0
 11
4421.937238423265
 21
3416.502937068003
 31
0.0
  0
LWPOLYLINE
  5
7E82
330
1F
100
AcDbEntity
  8
Timber Perimeter (00134144)
100
AcDbPolyline
 90
        3
 70
     0
 43
0.0
 10
6807.593508817716
 20
2329.763901692389
 10
7203.939384098733
 20
2558.594299478083
 10
7203.93938409873
 20
3738.664228852942
  0
LINE
  5
7E85
330
1F
100
AcDbEntity
  8
MP Concrete Perimeter Isometric (00134230)
100
AcDbLine
 10
7323.283522580346
 20
1447.638261752401
 30
0.0
 11
6404.803084206624
 21
917.3533334119277
 31
0.0
  0
LWPOLYLINE
  5
7E86
330
1F
100
AcDbEntity
  8
Timber Perimeter (00134144)
100
AcDbPolyline
 90
        4
 70
     1
 43
0.0
 10
5764.305104632942
 20
3037.975020913924
 10
5686.004830735794
 20
2992.768336701787
 10
3869.258822857867
 20
4041.667133399285
 10
3947.559096754952
 20
4086.873817611389
  0
LWPOLYLINE
  5
7E87
330
1F
100
AcDbEntity
  8
Timber Perimeter (00134144)
100
AcDbPolyline
 90
        3
 70
     0
 43
0.0
 10
6767.593508817717
 20
2215.051171502848
 10
6254.371059085851
 20
1918.742051995996
 10
6254.371059085854
 20
3190.501363213711
  0
LINE
  5
7E88
330
1F
100
AcDbEntity
  8
Timber Perimeter (00134144)
100
AcDbLine
 10
5151.129253230571
 20
1218.663281730995
 30
0.0
 11
5151.129253230571
 21
3258.737693714877
 31
0.0
  0
LINE
  5
7E89
330
1F
100
AcDbEntity
  8
Timber Perimeter (00134144)
100
AcDbLine
 10
5686.071253148242
 20
633.3207581662263
 30
0.0
 11
5686.071253148243
 21
2992.768337620957
 31
0.0
  0
LINE
  5
7E8A
330
1F
100
AcDbEntity
  8
Timber Perimeter (00134144)
100
AcDbLine
 10
5274.326402275825
 20
1919.973725968093
 30
0.0
 11
5274.326402275825
 21
3190.430780604551
 31
0.0
  0
LWPOLYLINE
  5
7E8B
330
1F
100
AcDbEntity
  8
Timber Perimeter (00134144)
100
AcDbPolyline
 90
        4
 70
     0
 43
0.0
 10
6175.946583510845
 20
915.7557032513976
 10
6254.371059085851
 20
870.4773111671165
 10
6254.371059085851
 20
1879.231940950363
 10
6254.371059085851
 20
1879.231940950363
  0
LWPOLYLINE
  5
7E8D
330
1F
100
AcDbEntity
  8
Timber Perimeter (00134144)
100
AcDbPolyline
 90
        3
 70
     0
 43
0.0
 10
5196.005298695332
 20
1832.322357431858
 10
5274.773246609904
 20
1786.845661499867
 10
5274.773246609904
 20
961.7371648222777
  0
LWPOLYLINE
  5
7E8E
330
1F
100
AcDbEntity
  8
Timber Perimeter (00134144)
100
AcDbPolyline
 90
        5
 70
     0
 43
0.0
 10
5196.005298695332
 20
3235.645646381541
 10
5196.005298695332
 20
916.2604688902847
 10
5274.773246609904
 20
961.7371648222777
 10
5464.707510707603
 20
852.0785663171407
 10
5646.005298695325
 20
747.4062396189438
  0
LWPOLYLINE
  5
7E8F
330
1F
100
AcDbEntity
  8
Timber Perimeter (00134144)
100
AcDbPolyline
 90
        3
 70
     0
 43
0.0
 10
5646.005298695332
 20
2975.860113881527
 10
5646.005298695332
 20
1926.275445717076
 10
5646.005298695332
 20
655.8620772928061
  0
LINE
  5
7E90
330
1F
100
AcDbEntity
  8
Timber Perimeter (00134144)
100
AcDbLine
 10
7283.283522580346
 20
2473.274828721433
 30
0.0
 11
6767.593508817717
 21
2175.541060457177
 31
0.0
  0
LWPOLYLINE
  5
7E92
330
1F
100
AcDbEntity
  8
Timber Perimeter (00134144)
100
AcDbPolyline
 90
        3
 70
     0
 43
0.0
 10
6767.593508817717
 20
1168.665297540971
 10
6689.920255428927
 20
1213.509971293823
 10
6689.920255428927
 20
2130.946679445102
  0
LWPOLYLINE
  5
7E93
330
1F
100
AcDbEntity
  8
Timber Perimeter (00134144)
100
AcDbPolyline
 90
        3
 70
     0
 43
0.0
 10
5764.371527045392
 20
2907.600001487361
 10
7323.283522580346
 20
3807.638261752403
 10
7323.283522580346
 20
3847.561741222282
  0
LINE
  5
7E94
330
1F
100
AcDbEntity
  8
Timber Perimeter (00134144)
100
AcDbLine
 10
6807.593508817716
 20
2238.145182270435
 30
0.0
 11
6807.593508817716
 21
3509.976127979651
 31
0.0
  0
LWPOLYLINE
  5
7E95
330
1F
100
AcDbEntity
  8
Timber Perimeter (00134144)
100
AcDbPolyline
 90
        3
 70
     0
 43
0.0
 10
7203.939384098736
 20
1510.279053599923
 10
7283.283522580346
 20
1464.469693888944
 10
7283.283522580346
 20
3784.469693888945
  0
LINE
  5
7E96
330
1F
100
AcDbEntity
  8
Timber Perimeter (00134144)
100
AcDbLine
 10
5151.129253230571
 20
1991.101633132766
 30
0.0
 11
5022.438837767126
 21
2065.401079142708
 31
0.0
  0
LINE
  5
7E97
330
1F
100
AcDbEntity
  8
Timber Perimeter (00134144)
100
AcDbLine
 10
5918.233292472097
 20
1685.413003651851
 30
0.0
 11
5918.233292472097
 21
676.4321331744578
 31
0.0
  0
LWPOLYLINE
  5
7E98
330
1F
100
AcDbEntity
  8
Timber Perimeter (00134144)
100
AcDbPolyline
 90
        4
 70
     0
 43
0.0
 10
4114.309032545074
 20
3722.798973211757
 10
3690.551818647273
 20
3967.4553147267
 10
3690.551818647273
 20
3967.4553147267
 10
3690.551818647273
 20
3967.4553147267
  0
LINE
  5
7E99
330
1F
100
AcDbEntity
  8
Timber Perimeter (00134144)
100
AcDbLine
 10
6689.920255428927
 20
1213.509971293823
 30
0.0
 11
6294.196534122129
 21
985.0387742726233
 31
0.0
  0
LINE
  5
7E9A
330
1F
100
AcDbEntity
  8
Timber Perimeter (00134144)
100
AcDbLine
 10
6767.593508817717
 20
1166.761238710576
 30
0.0
 11
6767.593508817717
 21
2175.790199137982
 31
0.0
  0
LWPOLYLINE
  5
7E9B
330
1F
100
AcDbEntity
  8
Timber Perimeter (00134144)
100
AcDbPolyline
 90
        3
 70
     0
 43
0.0
 10
6254.371059085851
 20
1918.742051995996
 10
6176.049955505359
 20
1965.142061182527
 10
6176.049955505359
 20
3145.262445390124
  0
LWPOLYLINE
  5
8250
330
1F
100
AcDbEntity
  8
Timber Perimeter (00134144)
100
AcDbPolyline
 90
        3
 70
     0
 43
0.0
 10
7323.283522580346
 20
3807.561741222281
 10
7323.283522580346
 20
1447.56174122228
 10
7323.283522580346
 20
1447.56174122228
  0
LINE
  5
8251
330
1F
100
AcDbEntity
  8
Timber Perimeter (00134144)
100
AcDbLine
 10
7203.939384098733
 20
2558.594299478083
 30
0.0
 11
7283.283522580346
 21
2512.784939767105
 31
0.0
  0
LWPOLYLINE
  5
8252
330
1F
100
AcDbEntity
  8
Timber Perimeter (00134144)
100
AcDbPolyline
 90
        3
 70
     0
 43
0.0
 10
6254.371059085854
 20
1918.742051995996
 10
5878.167338019187
 20
1701.540732368019
 10
5878.167338019187
 20
2973.300043585732
  0
LINE
  5
8253
330
1F
100
AcDbEntity
  8
Timber Perimeter (00134144)
100
AcDbLine
 10
5646.005298695332
 20
1572.514736296527
 30
0.0
 11
5274.773246609904
 21
1786.845661499867
 31
0.0
  0
LWPOLYLINE
  5
8254
330
1F
100
AcDbEntity
  8
Timber Perimeter (00134144)
100
AcDbPolyline
 90
        3
 70
     0
 43
0.0
 10
5804.371059085852
 20
1744.147033875373
 10
5878.167338019187
 20
1701.540732368019
 10
5804.371059085852
 20
1658.934430860665
  0
LINE
  5
8255
330
1F
100
AcDbEntity
  8
Timber Perimeter (00134144)
100
AcDbLine
 10
5151.129253230571
 20
1899.482913710812
 30
0.0
 11
5047.780837080988
 21
1959.151149595095
 31
0.0
  0
LWPOLYLINE
  5
8256
330
1F
100
AcDbEntity
  8
Timber Perimeter (00134144)
100
AcDbPolyline
 90
        3
 70
     0
 43
0.0
 10
3824.488139255573
 20
3760.12714396923
 10
3655.910802495895
 20
3857.4553147267
 10
3655.910802495892
 20
3947.455314726698
  0
LWPOLYLINE
  5
8258
330
1F
100
AcDbEntity
  8
Timber Perimeter (00134144)
100
AcDbPolyline
 90
        2
 70
     0
 43
0.0
 10
6807.593508817716
 20
2198.635071224762
 10
6807.593508817716
 20
1189.904493488145
  0
LWPOLYLINE
  5
825E
330
1F
100
AcDbEntity
  8
MP Concrete Perimeter Isometric (00134230)
100
AcDbPolyline
 90
        3
 70
     0
 43
0.0
 10
6345.598563980452
 20
808.171587722105
 10
6345.598563980452
 20
808.171587722105
 10
7354.933740318935
 20
1390.911523483686
  0
LINE
  5
825F
330
1F
100
AcDbEntity
  8
MP Panel Perimeter (00134148)
100
AcDbLine
 10
3597.629953443022
 20
2189.416969946314
 30
0.0
 11
3597.629953443022
 21
2740.416969946315
 31
0.0
  0
LWPOLYLINE
  5
8260
330
1F
100
AcDbEntity
  8
Timber Perimeter (00134144)
100
AcDbPolyline
 90
        4
 70
     0
 43
0.0
 10
5646.005298695332
 20
1705.384815068188
 10
5274.326402275825
 20
1919.973725968093
 10
5194.982263794216
 20
1874.164366257117
 10
5646.005298695332
 20
1613.766095646235
  0
LWPOLYLINE
  5
8261
330
1F
100
AcDbEntity
  8
Timber Perimeter (00134144)
100
AcDbPolyline
 90
        5
 70
     0
 43
0.0
 10
3937.071441747547
 20
3695.127143969229
 10
3937.071441747547
 20
3785.127143969229
 10
3461.028701314428
 20
3510.283739634399
 10
3426.387685163049
 20
3530.283739634398
 10
3902.430425596169
 20
3805.12714396923
  0
LWPOLYLINE
  5
8262
330
1F
100
AcDbEntity
  8
Timber Perimeter (00134144)
100
AcDbPolyline
 90
        4
 70
     0
 43
0.0
 10
5764.305104632942
 20
587.5616524896512
 10
5686.071253148242
 20
633.3207581662263
 10
5686.071253148243
 20
2952.72998770408
 10
4826.962556181651
 20
3448.736625160891
  0
LWPOLYLINE
  5
8263
330
1F
100
AcDbEntity
  8
MP Panel Perimeter (00134148)
100
AcDbPolyline
 90
        4
 70
     0
 43
0.0
 10
3597.629953443022
 20
2239.568832271039
 10
3431.750537450785
 20
2335.339357747174
 10
3388.449267261564
 20
2310.339357747174
 10
3388.449267261564
 20
1759.339357747174
  0
LINE
  5
8264
330
1F
100
AcDbEntity
  8
Timber Perimeter (00134144)
100
AcDbLine
 10
5918.233292472097
 20
2996.353471767752
 30
0.0
 11
5918.233292472097
 21
1724.672821956745
 31
0.0
  0
LWPOLYLINE
  5
8265
330
1F
100
AcDbEntity
  8
Timber Perimeter (00134144)
100
AcDbPolyline
 90
        3
 70
     0
 43
0.0
 10
6767.593508817717
 20
2215.051171502848
 10
6689.920255428927
 20
2259.895845255702
 10
6689.920255428927
 20
3437.778881090586
  0
LWPOLYLINE
  5
8266
330
1F
100
AcDbEntity
  8
MP Panel Perimeter (00134148)
100
AcDbPolyline
 90
        3
 70
     0
 43
0.0
 10
4296.687249544167
 20
3488.816051863347
 10
4253.385979354945
 20
3463.816051863347
 10
4253.385979354945
 20
2912.816051863347
  0
LINE
  5
8267
330
1F
100
AcDbEntity
  8
Timber Perimeter (00134144)
100
AcDbLine
 10
5151.129253230571
 20
1857.913643234566
 30
0.0
 11
5060.546061551923
 21
1910.211873334287
 31
0.0
  0
LWPOLYLINE
  5
8268
330
1F
100
AcDbEntity
  8
Timber Perimeter (00134144)
100
AcDbPolyline
 90
        2
 70
     0
 43
0.0
 10
5918.233292472097
 20
1816.291541378701
 10
6176.049955505359
 20
1965.142061182527
  0
LINE
  5
8269
330
1F
100
AcDbEntity
  8
Timber Perimeter (00134144)
100
AcDbLine
 10
6294.371059085852
 20
1941.836062763583
 30
0.0
 11
6294.371059085854
 21
3213.56935850045
 31
0.0
  0
LINE
  5
826A
330
1F
100
AcDbEntity
  8
Timber Perimeter (00134144)
100
AcDbLine
 10
6767.593508817717
 20
2175.791353197954
 30
0.0
 11
5804.371059085852
 21
1619.674612555769
 31
0.0
  0
LWPOLYLINE
  5
826B
330
1F
100
AcDbEntity
  8
MP Panel Perimeter (00134148)
100
AcDbPolyline
 90
        5
 70
     0
 43
0.0
 10
3733.308217814115
 20
3263.083087488484
 10
3165.297416943191
 20
3591.024276273925
 10
3121.99614675397
 20
3566.024276273925
 10
4430.141421013463
 20
2810.766250041066
 10
4473.442691202687
 20
2835.766250041066
  0
LWPOLYLINE
  5
826C
330
1F
100
AcDbEntity
  8
Timber Perimeter (00134144)
100
AcDbPolyline
 90
        3
 70
     0
 43
0.0
 10
7283.283522580346
 20
2512.784939767105
 10
6767.593508817717
 20
2215.05117150285
 10
6767.593508817717
 20
3486.884080646314
  0
LWPOLYLINE
  5
826D
330
1F
100
AcDbEntity
  8
Timber Perimeter (00134144)
100
AcDbPolyline
 90
        3
 70
     0
 43
0.0
 10
5878.167338019187
 20
1662.280914063123
 10
5878.167338019187
 20
653.2981755687615
 10
5804.371059085852
 20
695.9044770761155
  0
LINE
  5
826E
330
1F
100
AcDbEntity
  8
Timber Perimeter (00134144)
100
AcDbLine
 10
6176.049955505359
 20
916.8268153044154
 30
0.0
 11
6176.049955505359
 21
1834.013230714942
 31
0.0
  0
LINE
  5
826F
330
1F
100
AcDbEntity
  8
MASONS Hidden (00134167)
 48
10.0
100
AcDbLine
 10
5764.305104632943
 20
639.1825128112014
 30
0.0
 11
7240.989627652581
 21
1488.888085510567
 31
0.0
  0
LINE
  5
8270
330
1F
100
AcDbEntity
  8
Timber Perimeter (00134144)
100
AcDbLine
 10
5764.305104632942
 20
2947.600002406527
 30
0.0
 11
5764.305104632942
 21
547.6383504850672
 31
0.0
  0
LINE
  5
8276
330
1F
100
AcDbEntity
  8
Timber Perimeter (00134144)
100
AcDbLine
 10
5686.327064262254
 20
633.1730655506908
 30
0.0
 11
5195.74948758132
 21
916.408161505822
 31
0.0
  0
LINE
  5
8277
330
1F
100
AcDbEntity
  8
MP Concrete Perimeter Isometric (00134230)
100
AcDbLine
 10
5764.371527045392
 20
87.60000148735798
 30
0.0
 11
7502.074033588481
 21
1090.863011411498
 31
0.0
  0
LWPOLYLINE
  5
8278
330
1F
100
AcDbEntity
  8
MP Panel Perimeter (00134148)
100
AcDbPolyline
 90
        5
 70
     0
 43
0.0
 10
3894.90742861043
 20
3670.7837396344
 10
4378.635968234044
 20
3391.502937068
 42
0.0815157563320402
 10
4549.977254851085
 20
2343.654163445664
 42
-0.0753855082496768
 10
4718.291889129665
 20
991.5543620317876
 10
4762.52427894131
 20
1017.091944196443
  0
LINE
  5
8279
330
1F
100
AcDbEntity
  8
Timber Perimeter (00134144)
100
AcDbLine
 10
5804.371059085852
 20
1619.674612555769
 30
0.0
 11
5804.371059085852
 21
2930.693742078376
 31
0.0
  0
LINE
  5
827A
330
1F
100
AcDbEntity
  8
MP Panel Perimeter (00134148)
100
AcDbLine
 10
3733.308217814116
 20
3707.484391780316
 30
0.0
 11
3733.308217814116
 21
3764.083087488483
 31
0.0
  0
LINE
  5
827B
330
1F
100
AcDbEntity
  8
Timber Perimeter (00134144)
100
AcDbLine
 10
5804.371059085852
 20
610.6917786670964
 30
0.0
 11
5804.371059085852
 21
1619.674612555769
 31
0.0
  0
LINE
  5
827C
330
1F
100
AcDbEntity
  8
MP Panel Perimeter (00134148)
100
AcDbLine
 10
3121.99614675397
 20
3015.024276273925
 30
0.0
 11
3121.99614675397
 21
3566.024276273925
 31
0.0
  0
LWPOLYLINE
  5
827D
330
1F
100
AcDbEntity
  8
Timber Perimeter (00134144)
100
AcDbPolyline
 90
        4
 70
     0
 43
0.0
 10
7203.93938409873
 20
2427.465469010453
 10
7203.93938409873
 20
1510.279053599923
 10
7053.457782499727
 20
1423.398460408656
 10
6807.551047464818
 20
1281.424140740712
  0
LINE
  5
827E
330
1F
100
AcDbEntity
  8
Timber Perimeter (00134144)
100
AcDbLine
 10
6689.920255428927
 20
2259.895845255702
 30
0.0
 11
6294.371059085852
 21
2031.525410269285
 31
0.0
  0
LINE
  5
827F
330
1F
100
AcDbEntity
  8
Timber Perimeter (00134144)
100
AcDbLine
 10
6294.371059085852
 20
893.569358500452
 30
0.0
 11
6294.371059085854
 21
1902.576244458687
 31
0.0
  0
LWPOLYLINE
  5
85FA
330
1F
100
AcDbEntity
  8
MP Panel Perimeter (00134148)
100
AcDbPolyline
 90
        3
 70
     0
 43
0.0
 10
3775.472230951232
 20
3788.426491823313
 10
3733.308217814116
 20
3764.083087488483
 10
3782.324126118451
 20
3735.783739634403
  0
LWPOLYLINE
  5
8600
330
1F
100
AcDbEntity
  8
MP Panel Perimeter (00134148)
100
AcDbPolyline
 90
        3
 70
     0
 43
0.0
 10
4639.885396711648
 20
2188.670509210819
 10
4596.584126522425
 20
2163.670509210819
 10
3121.99614675397
 20
3015.024276273925
  0
LWPOLYLINE
  5
8601
330
1F
100
AcDbEntity
  8
MP Panel Perimeter (00134148)
100
AcDbPolyline
 90
        3
 70
     0
 43
0.0
 10
4741.815798104293
 20
1578.972826852896
 10
4698.514527915071
 20
1553.972826852894
 10
3388.449267261564
 20
2310.339357747174
  0
LWPOLYLINE
  5
8603
330
1F
100
AcDbEntity
  8
Timber Perimeter (00134144)
100
AcDbPolyline
 90
        3
 70
     0
 43
0.0
 10
3426.387685163049
 20
3530.283739634398
 10
3426.387685163049
 20
3440.283739634399
 10
3461.028701314428
 20
3420.283739634399
  0
LWPOLYLINE
  5
8605
330
1F
100
AcDbEntity
  8
Timber Perimeter (00134144)
100
AcDbPolyline
 90
        4
 70
     1
 43
0.0
 10
7244.916979960263
 20
3892.806685699446
 10
7323.250389275266
 20
3847.619132229797
 10
5764.371527045391
 20
2947.600001487357
 10
5686.071253148273
 20
2992.806685699445
  0
LINE
  5
860A
330
1F
100
AcDbEntity
  8
MP Panel Perimeter (00134148)
100
AcDbLine
 10
3733.308217814116
 20
3213.083087488484
 30
0.0
 11
3733.308217814116
 21
3577.484391780315
 31
0.0
  0
LINE
  5
860F
330
1F
100
AcDbEntity
  8
Timber Perimeter (00134144)
100
AcDbLine
 10
7323.250389275266
 20
1487.619132229794
 30
0.0
 11
5764.30423202355
 21
587.5611486883845
 31
0.0
  0
HATCH
  5
8852
330
1F
100
AcDbEntity
  8
MP Dryfix DPC Hatch (00134182)
100
AcDbHatch
 10
0.0
 20
0.0
 30
0.0
210
0.0
220
0.0
230
1.0
  2
ANSI31
 70
     0
 71
     0
 91
        1
 92
        7
 72
     0
 73
     1
 93
        9
 10
5293.528281672602
 20
745.35141745725
 10
4763.347418706057
 20
1052.035533820288
 10
4762.504566053461
 20
1016.255100816128
 10
4747.60137053069
 20
1008.476199008479
 10
4718.291889129665
 20
991.5543620317876
 10
4800.120144778799
 20
944.310796605443
 10
5764.371527045391
 20
387.600001487358
 10
5764.371527045391
 20
472.6000014873588
 10
5293.528281672602
 20
745.35141745725
 97
        0
 75
     0
 76
     1
 52
165.0
 41
200.0
 77
     0
 78
     1
 53
210.0
 43
0.0
 44
0.0
 45
12.49999999999999
 46
-21.65063509461097
 79
     0
 47
2.572903760748224
 98
        1
 10
5514.169059110561
 20
571.120230657375
1001
ACAD
1010
0.0
1020
0.0
1030
0.0
  0
LINE
  5
8870
330
1F
100
AcDbEntity
  8
Timber Perimeter (00134144)
100
AcDbLine
 10
5686.071253148243
 20
2952.72998770408
 30
0.0
 11
5764.371527045392
 21
2907.600001487361
 31
0.0
  0
LINE
  5
8CF8
330
1F
100
AcDbEntity
  8
MASONS Hidden (00134167)
 48
10.0
100
AcDbLine
 10
5154.815232758053
 20
991.0716544065126
 30
0.0
 11
5764.305104632943
 21
639.1825128112014
 31
0.0
  0
LINE
  5
8CF9
330
1F
100
AcDbEntity
  8
Timber Perimeter (00134144)
100
AcDbLine
 10
5918.233292472097
 20
766.9648652964332
 30
0.0
 11
6175.946583510845
 21
915.7557032513976
 31
0.0
  0
LINE
  5
8F97
330
1F
100
AcDbEntity
  8
Timber Perimeter (00134144)
100
AcDbLine
 10
3690.551818647273
 20
3967.4553147267
 30
0.0
 11
3655.910802495892
 21
3947.455314726698
 31
0.0
  0
LINE
  5
8F99
330
1F
100
AcDbEntity
  8
Timber Perimeter (00134144)
100
AcDbLine
 10
3655.910802495892
 20
3947.455314726698
 30
0.0
 11
4079.668016393695
 21
3702.798973211755
 31
0.0
  0
LINE
  5
8FA0
330
1F
100
AcDbEntity
  8
Timber Perimeter (00134144)
100
AcDbLine
 10
3937.071441747548
 20
3695.127143969229
 30
0.0
 11
3461.028701314428
 21
3420.283739634399
 31
0.0
  0
LINE
  5
8FA1
330
1F
100
AcDbEntity
  8
Timber Perimeter (00134144)
100
AcDbLine
 10
3461.028701314428
 20
3420.283739634399
 30
0.0
 11
3461.028701314428
 21
3510.283739634399
 31
0.0
  0
INSERT
  5
902B
330
1F
100
AcDbEntity
  8
MP Cladding Grilles (00134176)
100
AcDbBlockReference
  2
A$C4D527D5B
 10
4442.004641387168
 20
1175.988849465968
 30
-0.0000000000000018
  0
LINE
  5
A6F4
330
1F
100
AcDbEntity
  8
MP Panel Perimeter (00134148)
100
AcDbLine
 10
3937.071441747548
 20
3695.127143969229
 30
0.0
 11
4210.259604593717
 21
3538.715075940916
 31
0.0
  0
LINE
  5
A6F7
330
1F
100
AcDbEntity
  8
Timber Inner (00134145)
100
AcDbLine
 10
4079.668016393695
 20
3702.798973211755
 30
0.0
 11
4114.309032545074
 21
3632.798973211755
 31
0.0
  0
LINE
  5
A6F8
330
1F
100
AcDbEntity
  8
Timber Perimeter (00134144)
100
AcDbLine
 10
4114.309032545074
 20
3632.798973211755
 30
0.0
 11
4079.668016393696
 21
3612.798973211755
 31
0.0
  0
LINE
  5
A6F9
330
1F
100
AcDbEntity
  8
Timber Inner (00134145)
100
AcDbLine
 10
4079.668016393696
 20
3612.798973211755
 30
0.0
 11
4114.309032545074
 21
3722.798973211759
 31
0.0
  0
LINE
  5
A6FA
330
1F
100
AcDbEntity
  8
Timber Perimeter (00134144)
100
AcDbLine
 10
4114.309032545074
 20
3722.798973211759
 30
0.0
 11
4079.668016393695
 21
3702.798973211755
 31
0.0
  0
LINE
  5
A6FB
330
1F
100
AcDbEntity
  8
Timber Perimeter (00134144)
100
AcDbLine
 10
4079.668016393695
 20
3702.798973211755
 30
0.0
 11
4079.668016393696
 21
3612.798973211755
 31
0.0
  0
LWPOLYLINE
  5
A702
330
1F
100
AcDbEntity
  8
Timber Perimeter (00134144)
100
AcDbPolyline
 90
        4
 70
     0
 43
0.0
 10
4149.623685602965
 20
3573.723240092784
 10
4170.013591325511
 20
3604.303084314813
 10
4210.259604593747
 20
3583.7150759409
 10
4188.594828773267
 20
3551.223240092785
  0
LWPOLYLINE
  5
A703
330
1F
100
AcDbEntity
  8
Timber Inner (00134145)
100
AcDbPolyline
 90
        2
 70
     0
 43
0.0
 10
4161.199506466444
 20
3591.084124618892
 10
4159.764215887149
 20
3567.868602203486
  0
LWPOLYLINE
  5
A704
330
1F
100
AcDbEntity
  8
Timber Inner (00134145)
100
AcDbPolyline
 90
        5
 70
     0
 43
0.0
 10
4181.918103255443
 20
3598.213283825324
 10
4178.620509147513
 20
3594.301396500224
 10
4177.010939363348
 20
3567.128099745519
 10
4176.945725354584
 20
3566.998629794749
 10
4176.392573951107
 20
3558.268215199078
  0
LWPOLYLINE
  5
A705
330
1F
100
AcDbEntity
  8
Timber Inner (00134145)
100
AcDbPolyline
 90
        9
 70
     0
 43
0.0
 10
4195.440862102009
 20
3591.295662680693
 10
4192.137947391848
 20
3587.255419187461
 10
4191.277358788303
 20
3585.872844144667
 10
4191.211663734803
 20
3585.740749665198
 10
4190.500236439105
 20
3583.830456074867
 10
4189.997016448563
 20
3581.295893226684
 10
4189.982309704737
 20
3581.152737964501
 10
4189.982309704737
 20
3577.187356097108
 10
4191.652871503577
 20
3555.809552142959
  0
LINE
  5
A707
330
1F
100
AcDbEntity
  8
Timber Perimeter (00134144)
100
AcDbLine
 10
4170.013591325511
 20
3604.303084314813
 30
0.0
 11
4132.317369156486
 21
3583.715046551843
 31
0.0
  0
LINE
  5
ABDB
330
1F
100
AcDbEntity
  8
MP Dryfix DPC Perimeter Isometric (00134196)
100
AcDbLine
 10
5764.371527014246
 20
472.6000015054014
 30
0.0
 11
5764.371527045392
 21
387.6000014873588
 31
0.0
  0
INSERT
  5
ACCC
330
1F
100
AcDbEntity
  8
0
100
AcDbBlockReference
  2
mp000096
 10
5694.935527715261
 20
-1668.087567015862
 30
0.0
 41
1.25
 42
1.25
 43
1.25
1001
AEC_XDATA_BOUND_SPACE
1070
   100
1070
     1
  0
LINE
  5
ACF3
330
1F
100
AcDbEntity
  8
MP Dryfix DPC Perimeter Isometric (00134196)
100
AcDbLine
 10
6345.598563980452
 20
808.171587722105
 30
0.0
 11
5764.371527045391
 21
472.6000014873588
 31
0.0
  0
LINE
  5
ACF5
330
1F
100
AcDbEntity
  8
MP Dryfix DPC Perimeter Isometric (00134196)
100
AcDbLine
 10
5764.371527045391
 20
472.6000014873588
 30
0.0
 11
5157.459576029149
 21
824.1916508292561
 31
0.0
  0
LINE
  5
ACF9
330
1F
100
AcDbEntity
  8
MP Dryfix DPC Perimeter Isometric (00134196)
100
AcDbLine
 10
5156.35491568749
 20
893.9048850309402
 30
0.0
 11
5764.305104632942
 21
547.6383504850672
 31
0.0
  0
LINE
  5
ACFA
330
1F
100
AcDbEntity
  8
MP Dryfix DPC Perimeter Isometric (00134196)
100
AcDbLine
 10
5764.305104632942
 20
547.6383504850672
 30
0.0
 11
6404.803084206624
 21
917.3533334119277
 31
0.0
  0
LINE
  5
AE64
330
1F
100
AcDbEntity
  8
MP Dryfix DPC Perimeter Isometric (00134196)
100
AcDbLine
 10
5764.371527045391
 20
472.6000014873588
 30
0.0
 11
6345.598563980452
 21
808.171587722105
 31
0.0
  0
LINE
  5
AE66
330
1F
100
AcDbEntity
  8
MP Dryfix DPC Perimeter Isometric (00134196)
100
AcDbLine
 10
6318.654643641291
 20
707.6155080612661
 30
0.0
 11
5764.371527045391
 21
387.600001487358
 31
0.0
  0
LINE
  5
AE67
330
1F
100
AcDbEntity
  8
MP Dryfix DPC Perimeter Isometric (00134196)
100
AcDbLine
 10
5764.371527045391
 20
387.600001487358
 30
0.0
 11
4800.120144778799
 21
944.310796605443
 31
0.0
  0
LINE
  5
AE68
330
1F
100
AcDbEntity
  8
MP Dryfix DPC Perimeter Isometric (00134196)
100
AcDbLine
 10
4800.120144778799
 20
944.310796605443
 30
0.0
 11
4718.291889129665
 21
991.5543620317876
 31
0.0
  0
LINE
  5
AE69
330
1F
100
AcDbEntity
  8
MP Dryfix DPC Perimeter Isometric (00134196)
100
AcDbLine
 10
4718.291889129665
 20
991.5543620317876
 30
0.0
 11
4762.52427894131
 21
1017.091944196443
 31
0.0
  0
LINE
  5
AE6A
330
1F
100
AcDbEntity
  8
MP Dryfix DPC Perimeter Isometric (00134196)
100
AcDbLine
 10
4762.52427894131
 20
1017.091944196443
 30
0.0
 11
4763.347418706057
 21
1052.035533820286
 31
0.0
  0
LINE
  5
AE6B
330
1F
100
AcDbEntity
  8
MP Dryfix DPC Perimeter Isometric (00134196)
100
AcDbLine
 10
4763.347418706057
 20
1052.035533820286
 30
0.0
 11
5293.528281672602
 21
745.35141745725
 31
0.0
  0
LINE
  5
AE6C
330
1F
100
AcDbEntity
  8
MP Dryfix DPC Perimeter Isometric (00134196)
100
AcDbLine
 10
5293.528281672602
 20
745.35141745725
 30
0.0
 11
5764.371527045391
 21
472.6000014873588
 31
0.0
  0
LINE
  5
AE73
330
1F
100
AcDbEntity
  8
MP Dryfix DPC Perimeter Isometric (00134196)
100
AcDbLine
 10
5764.305104632942
 20
547.6383504850672
 30
0.0
 11
6404.803084206624
 21
917.3533334119277
 31
0.0
  0
LINE
  5
AE75
330
1F
100
AcDbEntity
  8
MP Dryfix DPC Perimeter Isometric (00134196)
100
AcDbLine
 10
6345.598563980452
 20
808.171587722105
 30
0.0
 11
5764.371527045391
 21
472.6000014873588
 31
0.0
  0
LINE
  5
AE76
330
1F
100
AcDbEntity
  8
MP Dryfix DPC Perimeter Isometric (00134196)
100
AcDbLine
 10
5764.371527045391
 20
472.6000014873588
 30
0.0
 11
5764.305104632942
 21
547.6383504850672
 31
0.0
  0
LINE
  5
AFCF
330
1F
100
AcDbEntity
  8
MASONS Dryfix DPC (00134138)
100
AcDbLine
 10
6345.598563990318
 20
808.1715877278012
 30
0.0
 11
6318.654643651157
 21
707.6155080669621
 31
0.0
  0
LINE
  5
AFD1
330
1F
100
AcDbEntity
  8
MP Dryfix DPC Perimeter Isometric (00134196)
100
AcDbLine
 10
6318.654643651157
 20
707.6155080669621
 30
0.0
 11
6345.598563990318
 21
808.1715877277995
 31
0.0
  0
LINE
  5
AFD2
330
1F
100
AcDbEntity
  8
MP Dryfix DPC Perimeter Isometric (00134196)
100
AcDbLine
 10
6345.598563990318
 20
808.1715877277995
 30
0.0
 11
6404.803084216488
 21
917.3533334176235
 31
0.0
  0
HATCH
  5
B031
330
1F
100
AcDbEntity
  8
MP Dryfix DPC Hatch (00134182)
100
AcDbHatch
 10
0.0
 20
0.0
 30
0.0
210
0.0
220
0.0
230
1.0
  2
ANSI31
 70
     0
 71
     0
 91
        3
 92
        7
 72
     0
 73
     1
 93
        4
 10
5156.35491568749
 20
893.9048850309402
 10
5157.459576029148
 20
824.1916508292556
 10
5764.371527045392
 20
472.6000014873581
 10
5764.305104632942
 20
547.6383504850672
 97
        0
 92
        7
 72
     0
 73
     1
 93
        4
 10
6345.598563990318
 20
808.1715877278007
 10
6404.803084216488
 20
917.3533334176227
 10
5764.305172489763
 20
547.5616916668033
 10
5764.371527045391
 20
472.6000014873588
 97
        0
 92
        7
 72
     0
 73
     1
 93
        4
 10
6318.654643651157
 20
707.6155080669624
 10
6345.598563990318
 20
808.1715877278007
 10
5764.371527014246
 20
472.6000014693771
 10
5764.371527045391
 20
387.6000014873581
 97
        0
 75
     0
 76
     1
 52
165.0
 41
200.0
 77
     0
 78
     1
 53
210.0
 43
5156.35491568749
 44
387.6000014873581
 45
12.49999999999999
 46
-21.65063509461097
 79
     0
 47
2.016559387801838
 98
        3
 10
5716.601936273859
 20
560.3603621947139
 10
5839.5681594479
 20
554.3107005027514
 10
5867.789922210315
 20
475.6648714614011
1001
ACAD
1010
0.0
1020
0.0
1030
0.0
  0
LWPOLYLINE
  5
B2E1
102
{ACAD_REACTORS
330
B329
102
}
330
1F
100
AcDbEntity
  8
MP Panel Perimeter (00134148)
100
AcDbPolyline
 90
        3
 70
     0
 43
0.0
 10
4421.937238423264
 20
3416.502937068
 10
4210.259604593715
 20
3538.715075940916
 10
4210.259604593715
 20
3538.715075940916
1001
AcDbBlockRepETag
1070
     1
1071
      168
1005
B2E1
  0
ARC
  5
B2E2
330
1F
100
AcDbEntity
  8
MP Panel Perimeter (00134148)
100
AcDbCircle
 10
1196.20874088512
 20
1225.43417740773
 30
0.0
 40
3564.674102084402
100
AcDbArc
 50
3.298388023019358
 51
7.299103600245809
1001
AcDbBlockRepETag
1070
     1
1071
      170
1005
B2E2
  0
LINE
  5
B2E3
102
{ACAD_REACTORS
330
B329
102
}
330
1F
100
AcDbEntity
  8
MP Barricade Building Wrap Perimeter Isometric (00134183)
100
AcDbLine
 10
4823.735283751528
 20
3394.669493333682
 30
0.0
 11
4820.540903224166
 21
3151.270840690723
 31
0.0
1001
AcDbBlockRepETag
1070
     1
1071
      171
1005
B2E3
  0
LINE
  5
B2E4
102
{ACAD_REACTORS
330
B329
102
}
330
1F
100
AcDbEntity
  8
MP Barricade Building Wrap Perimeter Isometric (00134183)
100
AcDbLine
 10
4820.540903224166
 20
3151.270840690723
 30
0.0
 11
4838.253787787924
 21
2881.439817319883
 31
0.0
1001
AcDbBlockRepETag
1070
     1
1071
      172
1005
B2E4
  0
LINE
  5
B2E5
102
{ACAD_REACTORS
330
B329
102
}
330
1F
100
AcDbEntity
  8
MP Barricade Building Wrap Perimeter Isometric (00134183)
100
AcDbLine
 10
4838.253787787924
 20
2881.439817319883
 30
0.0
 11
4847.962534501682
 21
2799.674592729224
 31
0.0
1001
AcDbBlockRepETag
1070
     1
1071
      173
1005
B2E5
  0
LINE
  5
B2E6
102
{ACAD_REACTORS
330
B329
102
}
330
1F
100
AcDbEntity
  8
MP Barricade Building Wrap Perimeter Isometric (00134183)
100
AcDbLine
 10
4847.962534501682
 20
2799.674592729224
 30
0.0
 11
5010.439271466521
 21
2112.548778092385
 31
0.0
1001
AcDbBlockRepETag
1070
     1
1071
      174
1005
B2E6
  0
LINE
  5
B2E7
102
{ACAD_REACTORS
330
B329
102
}
330
1F
100
AcDbEntity
  8
MP Barricade Building Wrap Perimeter Isometric (00134183)
100
AcDbLine
 10
5010.439271466521
 20
2112.548778092385
 30
0.0
 11
5072.223496721939
 21
1845.302621652681
 31
0.0
1001
AcDbBlockRepETag
1070
     1
1071
      175
1005
B2E7
  0
LINE
  5
B2E8
102
{ACAD_REACTORS
330
B329
102
}
330
1F
100
AcDbEntity
  8
MP Barricade Building Wrap Perimeter Isometric (00134183)
100
AcDbLine
 10
5072.223496721939
 20
1845.302621652681
 30
0.0
 11
5124.153284186526
 21
1523.449373271393
 31
0.0
1001
AcDbBlockRepETag
1070
     1
1071
      176
1005
B2E8
  0
LINE
  5
B2E9
102
{ACAD_REACTORS
330
B329
102
}
330
1F
100
AcDbEntity
  8
MP Barricade Building Wrap Perimeter Isometric (00134183)
100
AcDbLine
 10
5124.153284186526
 20
1523.449373271393
 30
0.0
 11
5151.129253230571
 21
1223.687549421257
 31
0.0
1001
AcDbBlockRepETag
1070
     1
1071
      177
1005
B2E9
  0
LINE
  5
B2EA
102
{ACAD_REACTORS
330
B329
102
}
330
1F
100
AcDbEntity
  8
MP Barricade Building Wrap Perimeter Isometric (00134183)
100
AcDbLine
 10
5151.129253230571
 20
1223.687549421257
 30
0.0
 11
5157.459576029149
 21
824.1916508292556
 31
0.0
1001
AcDbBlockRepETag
1070
     1
1071
      178
1005
B2EA
  0
LINE
  5
B2EB
102
{ACAD_REACTORS
330
B329
102
}
330
1F
100
AcDbEntity
  8
MP Barricade Building Wrap Perimeter Isometric (00134183)
100
AcDbLine
 10
5157.459576029149
 20
824.1916508292556
 30
0.0
 11
4763.347418706057
 21
1052.035533820286
 31
0.0
1001
AcDbBlockRepETag
1070
     1
1071
      179
1005
B2EB
  0
LINE
  5
B2EC
330
1F
100
AcDbEntity
  8
Timber Perimeter (00134144)
100
AcDbLine
 10
4793.866722123792
 20
1088.627000538527
 30
0.0
 11
4793.874365173622
 21
1289.677001002533
 31
0.0
1001
AcDbBlockRepETag
1070
     1
1071
      180
1005
B2EC
  0
LINE
  5
B2ED
330
1F
100
AcDbEntity
  8
Timber Perimeter (00134144)
100
AcDbLine
 10
4793.874365173622
 20
1289.677001002533
 30
0.0
 11
4763.035741462716
 21
1243.560263837335
 31
0.0
1001
AcDbBlockRepETag
1070
     1
1071
      181
1005
B2ED
  0
LINE
  5
B2EE
102
{ACAD_REACTORS
330
B329
102
}
330
1F
100
AcDbEntity
  8
MP Panel Perimeter (00134148)
100
AcDbLine
 10
4763.035741462716
 20
1243.560263837335
 30
0.0
 11
4754.977731263589
 21
1430.531050108992
 31
0.0
1001
AcDbBlockRepETag
1070
     1
1071
      182
1005
B2EE
  0
LINE
  5
B2EF
330
1F
100
AcDbEntity
  8
Timber Perimeter (00134144)
100
AcDbLine
 10
4793.878016383064
 20
1488.898485357817
 30
0.0
 11
4793.88565943289
 21
1689.948485821824
 31
0.0
1001
AcDbBlockRepETag
1070
     1
1071
      183
1005
B2EF
  0
LINE
  5
B2F0
330
1F
100
AcDbEntity
  8
Timber Perimeter (00134144)
100
AcDbLine
 10
4793.88565943289
 20
1689.948485821824
 30
0.0
 11
4754.914516262592
 21
1712.448485821824
 31
0.0
1001
AcDbBlockRepETag
1070
     1
1071
      184
1005
B2F0
  0
LINE
  5
B2F1
102
{ACAD_REACTORS
330
B329
102
}
330
1F
100
AcDbEntity
  8
MP Panel Perimeter (00134148)
100
AcDbLine
 10
4732.031513710327
 20
1678.129553134174
 30
0.0
 11
4638.975717248113
 21
2188.14530552767
 31
0.0
1001
AcDbBlockRepETag
1070
     1
1071
      186
1005
B2F1
  0
LINE
  5
B2F2
102
{ACAD_REACTORS
330
B329
102
}
330
1F
100
AcDbEntity
  8
MP Panel Perimeter (00134148)
100
AcDbLine
 10
4638.975717248113
 20
2188.14530552767
 30
0.0
 11
4526.01043714735
 21
2590.791810061654
 31
0.0
1001
AcDbBlockRepETag
1070
     1
1071
      187
1005
B2F2
  0
LINE
  5
B2F3
102
{ACAD_REACTORS
330
B329
102
}
330
1F
100
AcDbEntity
  8
MP Panel Perimeter (00134148)
100
AcDbLine
 10
4526.01043714735
 20
2590.791810061654
 30
0.0
 11
4464.847072832625
 21
2881.351960600685
 31
0.0
1001
AcDbBlockRepETag
1070
     1
1071
      188
1005
B2F3
  0
LINE
  5
B2F4
102
{ACAD_REACTORS
330
B329
102
}
330
1F
100
AcDbEntity
  8
MP Panel Perimeter (00134148)
100
AcDbLine
 10
4464.847072832625
 20
2881.351960600685
 30
0.0
 11
4447.543507622893
 21
3000.986829844289
 31
0.0
1001
AcDbBlockRepETag
1070
     1
1071
      189
1005
B2F4
  0
LINE
  5
B2F5
102
{ACAD_REACTORS
330
B329
102
}
330
1F
100
AcDbEntity
  8
MP Panel Perimeter (00134148)
100
AcDbLine
 10
4447.543507622893
 20
3000.986829844289
 30
0.0
 11
4427.171345325596
 21
3224.520913971692
 31
0.0
1001
AcDbBlockRepETag
1070
     1
1071
      190
1005
B2F5
  0
LINE
  5
B2F6
102
{ACAD_REACTORS
330
B329
102
}
330
1F
100
AcDbEntity
  8
MP Panel Perimeter (00134148)
100
AcDbLine
 10
4427.171345325596
 20
3224.520913971692
 30
0.0
 11
4421.937238423265
 21
3416.502937068
 31
0.0
1001
AcDbBlockRepETag
1070
     1
1071
      191
1005
B2F6
  0
LINE
  5
B2F7
102
{ACAD_REACTORS
330
B329
102
}
330
1F
100
AcDbEntity
  8
Timber Perimeter (00134144)
100
AcDbLine
 10
4210.259604593715
 20
3583.715075940915
 30
0.0
 11
4114.309032545074
 21
3632.798973211758
 31
0.0
1001
AcDbBlockRepETag
1070
     1
1071
      192
1005
B2F7
  0
LINE
  5
B2F8
330
1F
100
AcDbEntity
  8
Timber Perimeter (00134144)
100
AcDbLine
 10
4114.309032545074
 20
3632.798973211758
 30
0.0
 11
4114.309033342523
 21
3632.798972751349
 31
0.0
1001
AcDbBlockRepETag
1070
     1
1071
      193
1005
B2F8
  0
LINE
  5
B2F9
102
{ACAD_REACTORS
330
B329
102
}
330
1F
100
AcDbEntity
  8
Timber Perimeter (00134144)
100
AcDbLine
 10
4114.309033342523
 20
3632.798972751349
 30
0.0
 11
4114.309032545074
 21
3722.798973211756
 31
0.0
1001
AcDbBlockRepETag
1070
     1
1071
      194
1005
B2F9
  0
LINE
  5
B2FA
102
{ACAD_REACTORS
330
B329
102
}
330
1F
100
AcDbEntity
  8
Timber Perimeter (00134144)
100
AcDbLine
 10
4114.309032545074
 20
3722.798973211756
 30
0.0
 11
3869.258822857867
 21
3864.278777739642
 31
0.0
1001
AcDbBlockRepETag
1070
     1
1071
      195
1005
B2FA
  0
LINE
  5
B2FB
102
{ACAD_REACTORS
330
B329
102
}
330
1F
100
AcDbEntity
  8
MP Barricade Building Wrap Perimeter Isometric (00134183)
100
AcDbLine
 10
3869.258822857867
 20
3864.278777739642
 30
0.0
 11
3869.258822857867
 21
4031.667133399287
 31
0.0
1001
AcDbBlockRepETag
1070
     1
1071
      196
1005
B2FB
  0
LINE
  5
B2FC
102
{ACAD_REACTORS
330
B329
102
}
330
1F
100
AcDbEntity
  8
MP Barricade Building Wrap Perimeter Isometric (00134183)
100
AcDbLine
 10
3869.258822857867
 20
4031.667133399287
 30
0.0
 11
4828.960296478635
 21
3477.583229262759
 31
0.0
1001
AcDbBlockRepETag
1070
     1
1071
      197
1005
B2FC
  0
LINE
  5
B2FD
102
{ACAD_REACTORS
330
B329
102
}
330
1F
100
AcDbEntity
  8
MP Barricade Building Wrap Perimeter Isometric (00134183)
100
AcDbLine
 10
4828.960296478635
 20
3477.583229262759
 30
0.0
 11
4823.735283751528
 21
3394.669493333682
 31
0.0
1001
AcDbBlockRepETag
1070
     1
1071
      198
1005
B2FD
  0
LWPOLYLINE
  5
B2FE
330
1F
100
AcDbEntity
  8
Timber Perimeter (00134144)
100
AcDbPolyline
 90
        7
 70
     0
 43
0.0
 10
4756.347688788137
 20
1984.386904846443
 10
4795.291964835151
 20
2042.817386425262
 10
4795.297637761949
 20
2243.867386944859
 10
4756.326494591649
 20
2266.367386944862
 10
4717.355351421349
 20
2207.920256118526
 10
4717.355552932364
 20
2006.899024979053
 10
4756.347688788137
 20
1984.386904846443
1001
AcDbBlockRepETag
1070
     1
1071
      199
1005
B2FE
  0
LWPOLYLINE
  5
B2FF
102
{ACAD_REACTORS
330
B329
102
}
330
1F
100
AcDbEntity
  8
Timber Perimeter (00134144)
100
AcDbPolyline
 90
        6
 70
     0
 43
0.0
 10
4795.297637761949
 20
2243.86738694486
 10
4756.326494591649
 20
2266.367386944859
 10
4717.355351421349
 20
2207.920256118526
 10
4717.355552932364
 20
2006.899024979053
 10
4756.347688788137
 20
1984.386904846443
 10
4795.291964835151
 20
2042.817386425262
1001
AcDbBlockRepETag
1070
     1
1071
      200
1005
B2FF
  0
LWPOLYLINE
  5
B300
102
{ACAD_REACTORS
330
B329
102
}
330
1F
100
AcDbEntity
  8
Timber Perimeter (00134144)
100
AcDbPolyline
 90
        6
 70
     1
 43
0.0
 10
4795.297637761949
 20
2243.867386944859
 10
4795.291964835151
 20
2042.817386425262
 10
4756.347688788137
 20
1984.386904846443
 10
4717.355552932364
 20
2006.899024979053
 10
4717.355455429813
 20
2207.920316167842
 10
4756.326494591649
 20
2266.367386944859
1001
AcDbBlockRepETag
1070
     1
1071
      201
1005
B300
  0
LWPOLYLINE
  5
B301
102
{ACAD_REACTORS
330
B329
102
}
330
1F
100
AcDbEntity
  8
Timber Perimeter (00134144)
100
AcDbPolyline
 90
        4
 70
     1
 43
0.0
 10
4717.355351421349
 20
2207.920256118526
 10
4756.326494591649
 20
2266.367386944859
 10
4795.297637761949
 20
2243.867386944859
 10
4756.326494591649
 20
2185.420256118527
1001
AcDbBlockRepETag
1070
     1
1071
      202
1005
B301
  0
LINE
  5
B302
330
1F
100
AcDbEntity
  8
Timber Perimeter (00134144)
100
AcDbLine
 10
4756.347688788137
 20
1984.386904846443
 30
0.0
 11
4756.326494591649
 21
2185.420256118529
 31
0.0
1001
AcDbBlockRepETag
1070
     1
1071
      203
1005
B302
  0
LWPOLYLINE
  5
B303
330
1F
100
AcDbEntity
  8
Timber Perimeter (00134144)
100
AcDbPolyline
 90
        7
 70
     0
 43
0.0
 10
4755.000831695243
 20
2547.018769566331
 10
4793.945107742258
 20
2605.449251145151
 10
4793.950780669056
 20
2806.499251664746
 10
4754.979637498756
 20
2828.999251664749
 10
4716.008494328455
 20
2770.552120838413
 10
4716.008695839469
 20
2569.53088969894
 10
4755.000831695243
 20
2547.018769566331
1001
AcDbBlockRepETag
1070
     1
1071
      204
1005
B303
  0
LWPOLYLINE
  5
B304
102
{ACAD_REACTORS
330
B329
102
}
330
1F
100
AcDbEntity
  8
Timber Perimeter (00134144)
100
AcDbPolyline
 90
        6
 70
     0
 43
0.0
 10
4793.950780669056
 20
2806.499251664747
 10
4754.979637498756
 20
2828.999251664746
 10
4716.008494328455
 20
2770.552120838413
 10
4716.008695839469
 20
2569.53088969894
 10
4755.000831695243
 20
2547.018769566331
 10
4793.945107742258
 20
2605.449251145151
1001
AcDbBlockRepETag
1070
     1
1071
      205
1005
B304
  0
LWPOLYLINE
  5
B305
102
{ACAD_REACTORS
330
B329
102
}
330
1F
100
AcDbEntity
  8
Timber Perimeter (00134144)
100
AcDbPolyline
 90
        6
 70
     1
 43
0.0
 10
4793.950780669056
 20
2806.499251664746
 10
4793.945107742258
 20
2605.449251145151
 10
4755.000831695243
 20
2547.018769566331
 10
4716.008695839469
 20
2569.53088969894
 10
4716.008598336919
 20
2770.55218088773
 10
4754.979637498756
 20
2828.999251664746
1001
AcDbBlockRepETag
1070
     1
1071
      206
1005
B305
  0
LWPOLYLINE
  5
B306
330
1F
100
AcDbEntity
  8
Timber Inner (00134145)
100
AcDbPolyline
 90
        9
 70
     0
 43
0.0
 10
4744.890682541754
 20
2813.868300342737
 10
4743.446014910328
 20
2790.501106086767
 10
4742.712834849906
 20
2776.853286792954
 10
4741.370148224085
 20
2767.347609812536
 10
4741.343055305924
 20
2766.448778188222
 10
4741.731192916136
 20
2761.980388442849
 10
4742.227177428509
 20
2759.733203939431
 10
4743.521132553032
 20
2756.096457761685
 10
4744.578167217819
 20
2754.057412505079
1001
AcDbBlockRepETag
1070
     1
1071
      207
1005
B306
  0
LWPOLYLINE
  5
B307
330
1F
100
AcDbEntity
  8
Timber Inner (00134145)
100
AcDbPolyline
 90
        7
 70
     0
 43
0.0
 10
4730.144083192061
 20
2791.751966717535
 10
4730.022729135407
 20
2776.368040842996
 10
4729.398297516438
 20
2774.399334788414
 10
4728.724779657843
 20
2770.631673936604
 10
4728.634475192197
 20
2768.597528227666
 10
4728.92702019
 20
2764.950045045439
 10
4729.394622507547
 20
2762.823636130808
1001
AcDbBlockRepETag
1070
     1
1071
      208
1005
B307
  0
LWPOLYLINE
  5
B308
330
1F
100
AcDbEntity
  8
Timber Inner (00134145)
100
AcDbPolyline
 90
       12
 70
     0
 43
0.0
 10
4766.666621110473
 20
2822.251768530509
 10
4762.311685222821
 20
2817.085572224069
 10
4760.702115438657
 20
2789.912275469362
 10
4760.636901429889
 20
2789.782805518593
 10
4759.773843221024
 20
2776.161117249808
 10
4758.891317605125
 20
2771.931946502422
 10
4757.944389675784
 20
2766.683040820751
 10
4757.901144640058
 20
2764.410836130715
 10
4758.499559271779
 20
2760.884501618677
 10
4759.625029083639
 20
2757.611010727347
 10
4759.854870291113
 20
2757.11943273693
 10
4760.408086229283
 20
2756.193458949815
1001
AcDbBlockRepETag
1070
     1
1071
      209
1005
B308
  0
LWPOLYLINE
  5
B309
330
1F
100
AcDbEntity
  8
Timber Inner (00134145)
100
AcDbPolyline
 90
        9
 70
     0
 43
0.0
 10
4779.673538662954
 20
2814.742221180256
 10
4775.829123467156
 20
2810.039594911307
 10
4774.968534863607
 20
2808.657019868511
 10
4774.902839810111
 20
2808.524925389042
 10
4774.191412514414
 20
2806.614631798712
 10
4773.68819252387
 20
2804.080068950529
 10
4773.673485780044
 20
2803.936913688345
 10
4773.673485780044
 20
2799.971531820951
 10
4775.344047578885
 20
2778.593727866804
1001
AcDbBlockRepETag
1070
     1
1071
      210
1005
B309
  0
LWPOLYLINE
  5
B30A
102
{ACAD_REACTORS
330
B329
102
}
330
1F
100
AcDbEntity
  8
Timber Perimeter (00134144)
100
AcDbPolyline
 90
        4
 70
     1
 43
0.0
 10
4716.008494328455
 20
2770.552120838413
 10
4754.979637498756
 20
2828.999251664746
 10
4793.950780669056
 20
2806.499251664746
 10
4754.979637498756
 20
2748.052120838414
1001
AcDbBlockRepETag
1070
     1
1071
      211
1005
B30A
  0
LINE
  5
B30B
330
1F
100
AcDbEntity
  8
Timber Perimeter (00134144)
100
AcDbLine
 10
4755.000831695243
 20
2547.018769566331
 30
0.0
 11
4754.979637498756
 21
2748.052120838416
 31
0.0
1001
AcDbBlockRepETag
1070
     1
1071
      212
1005
B30B
  0
LWPOLYLINE
  5
B30C
330
1F
100
AcDbEntity
  8
Timber Perimeter (00134144)
100
AcDbPolyline
 90
        7
 70
     0
 43
0.0
 10
4754.979637498756
 20
2987.253710082296
 10
4793.92391354577
 20
3045.684191661114
 10
4793.929586472568
 20
3246.734192180711
 10
4754.958443302268
 20
3269.234192180714
 10
4715.987300131967
 20
3210.787061354378
 10
4715.987501642984
 20
3009.765830214905
 10
4754.979637498756
 20
2987.253710082296
1001
AcDbBlockRepETag
1070
     1
1071
      213
1005
B30C
  0
LWPOLYLINE
  5
B30D
102
{ACAD_REACTORS
330
B329
102
}
330
1F
100
AcDbEntity
  8
Timber Perimeter (00134144)
100
AcDbPolyline
 90
        6
 70
     0
 43
0.0
 10
4793.929586472568
 20
3246.734192180713
 10
4754.958443302268
 20
3269.234192180711
 10
4715.987300131967
 20
3210.787061354378
 10
4715.987501642984
 20
3009.765830214905
 10
4754.979637498756
 20
2987.253710082296
 10
4793.92391354577
 20
3045.684191661114
1001
AcDbBlockRepETag
1070
     1
1071
      214
1005
B30D
  0
LWPOLYLINE
  5
B30E
102
{ACAD_REACTORS
330
B329
102
}
330
1F
100
AcDbEntity
  8
Timber Perimeter (00134144)
100
AcDbPolyline
 90
        6
 70
     1
 43
0.0
 10
4793.929586472568
 20
3246.734192180711
 10
4793.92391354577
 20
3045.684191661114
 10
4754.979637498756
 20
2987.253710082296
 10
4715.987501642984
 20
3009.765830214905
 10
4715.987404140433
 20
3210.787121403694
 10
4754.958443302268
 20
3269.234192180711
1001
AcDbBlockRepETag
1070
     1
1071
      215
1005
B30E
  0
LWPOLYLINE
  5
B30F
102
{ACAD_REACTORS
330
B329
102
}
330
1F
100
AcDbEntity
  8
Timber Perimeter (00134144)
100
AcDbPolyline
 90
        4
 70
     1
 43
0.0
 10
4715.987300131967
 20
3210.787061354378
 10
4754.958443302268
 20
3269.234192180711
 10
4793.929586472568
 20
3246.734192180711
 10
4754.958443302268
 20
3188.287061354378
1001
AcDbBlockRepETag
1070
     1
1071
      216
1005
B30F
  0
LINE
  5
B310
330
1F
100
AcDbEntity
  8
Timber Perimeter (00134144)
100
AcDbLine
 10
4754.979637498756
 20
2987.253710082296
 30
0.0
 11
4754.958443302268
 21
3188.287061354381
 31
0.0
1001
AcDbBlockRepETag
1070
     1
1071
      217
1005
B310
  0
LWPOLYLINE
  5
B311
330
1F
100
AcDbEntity
  8
Timber Perimeter (00134144)
100
AcDbPolyline
 90
        5
 70
     0
 43
0.0
 10
4754.935710459078
 20
1430.468003723407
 10
4793.879986506094
 20
1488.898485302226
 10
4793.88565943289
 20
1689.948485821824
 10
4754.914516262592
 20
1712.448485821825
 10
4732.031507604694
 20
1678.129600309955
1001
AcDbBlockRepETag
1070
     1
1071
      218
1005
B311
  0
LWPOLYLINE
  5
B312
330
1F
100
AcDbEntity
  8
Timber Perimeter (00134144)
100
AcDbPolyline
 90
        3
 70
     0
 43
0.0
 10
4793.88565943289
 20
1689.948485821824
 10
4754.914516262592
 20
1712.448485821824
 10
4732.031507604694
 20
1678.129600309954
1001
AcDbBlockRepETag
1070
     1
1071
      219
1005
B312
  0
LWPOLYLINE
  5
B313
102
{ACAD_REACTORS
330
B329
102
}
330
1F
100
AcDbEntity
  8
Timber Perimeter (00134144)
100
AcDbPolyline
 90
        6
 70
     0
 43
0.0
 10
4732.031513710327
 20
1678.129553134174
 10
4754.914516262592
 20
1712.448485821824
 10
4793.88565943289
 20
1689.948485821824
 10
4793.879986506094
 20
1488.898485302226
 10
4754.935710459078
 20
1430.468003723407
 10
4754.935710459078
 20
1430.468003723407
1001
AcDbBlockRepETag
1070
     1
1071
      220
1005
B313
  0
LWPOLYLINE
  5
B314
102
{ACAD_REACTORS
330
B329
102
}
330
1F
100
AcDbEntity
  8
Timber Perimeter (00134144)
100
AcDbPolyline
 90
        5
 70
     0
 43
0.0
 10
4732.031507604694
 20
1678.129600309954
 10
4754.914516262592
 20
1712.448485821824
 10
4793.88565943289
 20
1689.948485821824
 10
4754.914516262592
 20
1631.501354995491
 10
4736.484010244821
 20
1642.142212606151
1001
AcDbBlockRepETag
1070
     1
1071
      221
1005
B314
  0
LINE
  5
B315
330
1F
100
AcDbEntity
  8
Timber Perimeter (00134144)
100
AcDbLine
 10
4754.935710459078
 20
1430.468003723407
 30
0.0
 11
4754.914516262592
 21
1631.501354995493
 31
0.0
1001
AcDbBlockRepETag
1070
     1
1071
      222
1005
B315
  0
LWPOLYLINE
  5
B316
330
1F
100
AcDbEntity
  8
Timber Perimeter (00134144)
100
AcDbPolyline
 90
        4
 70
     0
 43
0.0
 10
4767.774435490818
 20
1049.476189543375
 10
4793.868692246826
 20
1088.627000482936
 10
4793.874365173622
 20
1289.677001002533
 10
4760.210578265573
 20
1309.112797435839
1001
AcDbBlockRepETag
1070
     1
1071
      223
1005
B316
  0
LWPOLYLINE
  5
B317
330
1F
100
AcDbEntity
  8
Timber Perimeter (00134144)
100
AcDbPolyline
 90
        2
 70
     0
 43
0.0
 10
4793.874365173622
 20
1289.677001002534
 10
4760.210578265573
 20
1309.112797435836
1001
AcDbBlockRepETag
1070
     1
1071
      224
1005
B317
  0
LWPOLYLINE
  5
B318
102
{ACAD_REACTORS
330
B329
102
}
330
1F
100
AcDbEntity
  8
Timber Perimeter (00134144)
100
AcDbPolyline
 90
        4
 70
     0
 43
0.0
 10
4760.210578265573
 20
1309.112797435836
 10
4793.874365173622
 20
1289.677001002533
 10
4793.868692246826
 20
1088.627000482936
 10
4767.774435490819
 20
1049.476189543374
1001
AcDbBlockRepETag
1070
     1
1071
      225
1005
B318
  0
LWPOLYLINE
  5
B319
102
{ACAD_REACTORS
330
B329
102
}
330
1F
100
AcDbEntity
  8
Timber Perimeter (00134144)
100
AcDbPolyline
 90
        2
 70
     0
 43
0.0
 10
4760.210578265573
 20
1309.112797435836
 10
4793.874365173622
 20
1289.677001002533
1001
AcDbBlockRepETag
1070
     1
1071
      226
1005
B319
  0
LWPOLYLINE
  5
B31A
330
1F
100
AcDbEntity
  8
Timber Inner (00134145)
100
AcDbPolyline
 90
        9
 70
     0
 43
0.0
 10
4744.869488345266
 20
3254.103240858704
 10
4743.42482071384
 20
3230.736046602734
 10
4742.69164065342
 20
3217.088227308921
 10
4741.348954027599
 20
3207.582550328503
 10
4741.321861109438
 20
3206.683718704189
 10
4741.709998719652
 20
3202.215328958816
 10
4742.205983232024
 20
3199.9681444554
 10
4743.499938356548
 20
3196.331398277653
 10
4744.556973021334
 20
3194.292353021046
1001
AcDbBlockRepETag
1070
     1
1071
      227
1005
B31A
  0
LWPOLYLINE
  5
B31B
330
1F
100
AcDbEntity
  8
Timber Inner (00134145)
100
AcDbPolyline
 90
        7
 70
     0
 43
0.0
 10
4730.122888995573
 20
3231.986907233503
 10
4730.00153493892
 20
3216.602981358965
 10
4729.377103319952
 20
3214.634275304381
 10
4728.703585461357
 20
3210.866614452572
 10
4728.613280995708
 20
3208.832468743633
 10
4728.905825993515
 20
3205.184985561407
 10
4729.373428311061
 20
3203.058576646775
1001
AcDbBlockRepETag
1070
     1
1071
      228
1005
B31B
  0
LWPOLYLINE
  5
B31C
330
1F
100
AcDbEntity
  8
Timber Inner (00134145)
100
AcDbPolyline
 90
       12
 70
     0
 43
0.0
 10
4766.645426913987
 20
3262.486709046476
 10
4762.290491026335
 20
3257.320512740038
 10
4760.680921242168
 20
3230.147215985329
 10
4760.615707233403
 20
3230.01774603456
 10
4759.752649024538
 20
3216.396057765776
 10
4758.870123408637
 20
3212.166887018388
 10
4757.923195479295
 20
3206.917981336719
 10
4757.879950443572
 20
3204.645776646682
 10
4758.478365075294
 20
3201.119442134646
 10
4759.603834887154
 20
3197.845951243315
 10
4759.833676094626
 20
3197.354373252897
 10
4760.386892032799
 20
3196.428399465783
1001
AcDbBlockRepETag
1070
     1
1071
      229
1005
B31C
  0
LWPOLYLINE
  5
B31D
330
1F
100
AcDbEntity
  8
Timber Inner (00134145)
100
AcDbPolyline
 90
        9
 70
     0
 43
0.0
 10
4779.652344466469
 20
3254.977161696223
 10
4775.807929270668
 20
3250.274535427273
 10
4774.947340667124
 20
3248.891960384479
 10
4774.881645613623
 20
3248.759865905011
 10
4774.170218317926
 20
3246.84957231468
 10
4773.666998327384
 20
3244.315009466497
 10
4773.652291583558
 20
3244.171854204313
 10
4773.652291583558
 20
3240.206472336919
 10
4775.322853382397
 20
3218.828668382773
1001
AcDbBlockRepETag
1070
     1
1071
      230
1005
B31D
  0
LWPOLYLINE
  5
B31E
330
1F
100
AcDbEntity
  8
Timber Inner (00134145)
100
AcDbPolyline
 90
        9
 70
     0
 43
0.0
 10
4746.237539634647
 20
2251.23643562285
 10
4744.792872003221
 20
2227.86924136688
 10
4744.059691942799
 20
2214.221422073066
 10
4742.717005316978
 20
2204.715745092649
 10
4742.689912398819
 20
2203.816913468335
 10
4743.078050009031
 20
2199.348523722962
 10
4743.574034521404
 20
2197.101339219544
 10
4744.867989645928
 20
2193.464593041798
 10
4745.925024310714
 20
2191.425547785192
1001
AcDbBlockRepETag
1070
     1
1071
      231
1005
B31E
  0
LWPOLYLINE
  5
B31F
330
1F
100
AcDbEntity
  8
Timber Inner (00134145)
100
AcDbPolyline
 90
        7
 70
     0
 43
0.0
 10
4731.490940284955
 20
2229.120101997648
 10
4731.369586228302
 20
2213.736176123109
 10
4730.745154609333
 20
2211.767470068527
 10
4730.071636750738
 20
2207.999809216717
 10
4729.981332285088
 20
2205.965663507779
 10
4730.273877282894
 20
2202.318180325552
 10
4730.741479600442
 20
2200.191771410921
1001
AcDbBlockRepETag
1070
     1
1071
      232
1005
B31F
  0
LWPOLYLINE
  5
B320
330
1F
100
AcDbEntity
  8
Timber Inner (00134145)
100
AcDbPolyline
 90
       12
 70
     0
 43
0.0
 10
4768.013478203367
 20
2259.619903810622
 10
4763.658542315716
 20
2254.453707504183
 10
4762.048972531549
 20
2227.280410749475
 10
4761.983758522783
 20
2227.150940798706
 10
4761.120700313917
 20
2213.529252529921
 10
4760.238174698017
 20
2209.300081782534
 10
4759.291246768676
 20
2204.051176100864
 10
4759.248001732952
 20
2201.778971410828
 10
4759.846416364675
 20
2198.25263689879
 10
4760.971886176532
 20
2194.97914600746
 10
4761.201727384007
 20
2194.487568017043
 10
4761.754943322177
 20
2193.561594229928
1001
AcDbBlockRepETag
1070
     1
1071
      233
1005
B320
  0
LWPOLYLINE
  5
B321
330
1F
100
AcDbEntity
  8
Timber Inner (00134145)
100
AcDbPolyline
 90
        9
 70
     0
 43
0.0
 10
4781.020395755848
 20
2252.110356460369
 10
4777.175980560048
 20
2247.407730191419
 10
4776.315391956503
 20
2246.025155148624
 10
4776.249696903002
 20
2245.893060669155
 10
4775.538269607305
 20
2243.982767078826
 10
4775.035049616763
 20
2241.448204230642
 10
4775.020342872935
 20
2241.305048968458
 10
4775.020342872935
 20
2237.339667101064
 10
4776.690904671776
 20
2215.961863146917
1001
AcDbBlockRepETag
1070
     1
1071
      234
1005
B321
  0
LWPOLYLINE
  5
B322
330
1F
100
AcDbEntity
  8
Timber Inner (00134145)
100
AcDbPolyline
 90
        9
 70
     0
 43
0.0
 10
4744.82556130559
 20
1697.317534499814
 10
4743.380893674163
 20
1673.950340243844
 10
4742.647713613743
 20
1660.302520950031
 10
4741.30502698792
 20
1650.796843969613
 10
4741.277934069759
 20
1649.898012345299
 10
4741.666071679975
 20
1645.429622599926
 10
4742.162056192348
 20
1643.182438096509
 10
4743.45601131687
 20
1639.545691918763
 10
4744.513045981658
 20
1637.506646662156
1001
AcDbBlockRepETag
1070
     1
1071
      235
1005
B322
  0
LWPOLYLINE
  5
B323
330
1F
100
AcDbEntity
  8
Timber Inner (00134145)
100
AcDbPolyline
 90
       12
 70
     0
 43
0.0
 10
4766.601499874307
 20
1705.701002687586
 10
4762.246563986659
 20
1700.534806381146
 10
4760.636994202491
 20
1673.361509626439
 10
4760.571780193727
 20
1673.23203967567
 10
4759.708721984861
 20
1659.610351406885
 10
4758.826196368961
 20
1655.381180659498
 10
4757.879268439619
 20
1650.132274977828
 10
4757.836023403895
 20
1647.860070287792
 10
4758.434438035616
 20
1644.333735775754
 10
4759.559907847477
 20
1641.060244884425
 10
4759.789749054951
 20
1640.568666894007
 10
4760.34296499312
 20
1639.642693106893
1001
AcDbBlockRepETag
1070
     1
1071
      236
1005
B323
  0
LWPOLYLINE
  5
B324
330
1F
100
AcDbEntity
  8
Timber Inner (00134145)
100
AcDbPolyline
 90
        9
 70
     0
 43
0.0
 10
4779.608417426792
 20
1698.191455337333
 10
4775.764002230993
 20
1693.488829068383
 10
4774.903413627446
 20
1692.106254025589
 10
4774.837718573945
 20
1691.974159546119
 10
4774.126291278249
 20
1690.06386595579
 10
4773.623071287707
 20
1687.529303107606
 10
4773.608364543881
 20
1687.386147845423
 10
4773.608364543881
 20
1683.420765978028
 10
4775.278926342722
 20
1662.042962023881
1001
AcDbBlockRepETag
1070
     1
1071
      237
1005
B324
  0
LWPOLYLINE
  5
B325
330
1F
100
AcDbEntity
  8
Timber Inner (00134145)
100
AcDbPolyline
 90
        3
 70
     0
 43
0.0
 10
4766.590205615041
 20
1305.429517868296
 10
4762.235269727389
 20
1300.263321561856
 10
4761.693703543202
 20
1291.120419663481
1001
AcDbBlockRepETag
1070
     1
1071
      238
1005
B325
  0
LWPOLYLINE
  5
B326
330
1F
100
AcDbEntity
  8
Timber Inner (00134145)
100
AcDbPolyline
 90
        9
 70
     0
 43
0.0
 10
4779.597123167521
 20
1297.919970518043
 10
4775.752707971721
 20
1293.217344249093
 10
4774.892119368177
 20
1291.834769206299
 10
4774.826424314677
 20
1291.702674726829
 10
4774.11499701898
 20
1289.7923811365
 10
4773.611777028436
 20
1287.257818288316
 10
4773.597070284608
 20
1287.114663026133
 10
4773.597070284608
 20
1283.149281158739
 10
4775.267632083449
 20
1261.771477204591
1001
AcDbBlockRepETag
1070
     1
1071
      239
1005
B326
  0
LINE
  5
B327
330
1F
100
AcDbEntity
  8
MP Panel Perimeter (00134148)
100
AcDbLine
 10
4763.035741462716
 20
1243.560263837335
 30
0.0
 11
4762.52427894131
 21
1017.091944196443
 31
0.0
1001
AcDbBlockRepETag
1070
     1
1071
      240
1005
B327
  0
LINE
  5
B328
102
{ACAD_REACTORS
330
B329
102
}
330
1F
100
AcDbEntity
  8
Timber Perimeter (00134144)
100
AcDbLine
 10
4210.259604593715
 20
3583.715075940915
 30
0.0
 11
4210.259604593715
 21
3538.715075940916
 31
0.0
1001
AcDbBlockRepETag
1070
     1
1071
      241
1005
B328
  0
HATCH
  5
B329
330
1F
100
AcDbEntity
  8
MASONS Barricade Building Wrap Hatch (00134140)
100
AcDbHatch
 10
0.0
 20
0.0
 30
0.0
210
0.0
220
0.0
230
1.0
  2
ANSI31
 70
     0
 71
     1
 91
        4
 92
        7
 72
     0
 73
     1
 93
       31
 10
5010.439271466516
 20
2112.548778092395
 10
4847.962534501682
 20
2799.674592729225
 10
4838.253787787924
 20
2881.439817319883
 10
4820.540903224166
 20
3151.270840690723
 10
4823.735283751528
 20
3394.66949333368
 10
4828.960296478635
 20
3477.583229262759
 10
3869.258822857867
 20
4031.667133399287
 10
3869.258822857867
 20
3864.278777739642
 10
4114.309032545074
 20
3722.798973211756
 10
4114.309033342523
 20
3632.798972803818
 10
4210.259604593715
 20
3583.715075940915
 10
4210.259604593715
 20
3538.715075940916
 10
4421.937238423265
 20
3416.502937068
 10
4427.171345325596
 20
3224.520913971693
 10
4447.543507622893
 20
3000.986829844289
 10
4464.847072832625
 20
2881.351960600687
 10
4526.01043714735
 20
2590.791810061654
 10
4638.975717248113
 20
2188.145305527671
 10
4732.031505640321
 20
1678.129597363876
 10
4754.914516262592
 20
1712.448485821824
 10
4793.88565943289
 20
1689.948485821824
 10
4793.879986506094
 20
1488.898485302226
 10
4754.977731263589
 20
1430.531050108991
 10
4760.210578265573
 20
1309.112797435836
 10
4793.874365173622
 20
1289.677001002533
 10
4793.868692246826
 20
1088.627000482936
 10
4767.774435490819
 20
1049.476189543374
 10
5157.459576029149
 20
824.1916508292556
 10
5151.129253230571
 20
1223.687549421258
 10
5124.153284186526
 20
1523.449373271393
 10
5072.22349672194
 20
1845.302621652676
 97
       28
330
B2E6
330
B2E5
330
B2E4
330
B2E3
330
B2FD
330
B2FC
330
B2FB
330
B2FA
330
B2F9
330
B2F7
330
B328
330
B2E1
330
B2F6
330
B2F5
330
B2F4
330
B2F3
330
B2F2
330
B2F1
330
B314
330
B313
330
B2EE
330
B319
330
B318
330
B2EB
330
B2EA
330
B2E9
330
B2E8
330
B2E7
 92
       22
 72
     0
 73
     1
 93
        6
 10
4756.347688788137
 20
1984.386904846443
 10
4717.355552932364
 20
2006.899024979052
 10
4717.355351421349
 20
2207.920256118527
 10
4756.326494591649
 20
2266.367386944859
 10
4795.297637761949
 20
2243.867386944859
 10
4795.291964835151
 20
2042.817386425262
 97
        3
330
B300
330
B2FF
330
B301
 92
       22
 72
     0
 73
     1
 93
        6
 10
4755.000831695243
 20
2547.018769566331
 10
4716.008695839469
 20
2569.53088969894
 10
4716.008494328455
 20
2770.552120838413
 10
4754.979637498756
 20
2828.999251664746
 10
4793.950780669056
 20
2806.499251664746
 10
4793.945107742258
 20
2605.449251145151
 97
        3
330
B305
330
B304
330
B30A
 92
       22
 72
     0
 73
     1
 93
        6
 10
4754.979637498756
 20
2987.253710082296
 10
4715.987501642984
 20
3009.765830214905
 10
4715.987300131967
 20
3210.787061354378
 10
4754.958443302268
 20
3269.234192180711
 10
4793.929586472568
 20
3246.734192180711
 10
4793.92391354577
 20
3045.684191661115
 97
        3
330
B30E
330
B30D
330
B30F
 75
     0
 76
     1
 52
0.0
 41
400.0
 77
     0
 78
     1
 53
45.0
 43
3869.258822857867
 44
824.1916508292561
 45
-35.35533905932737
 46
35.35533905932739
 79
     0
 47
3.970802239222146
 98
        9
 10
4919.776565624894
 20
1893.282177630618
 10
4919.776565624894
 20
1893.282177630618
 10
4919.776565624894
 20
1893.282177630618
 10
4919.776565624894
 20
1893.282177630618
 10
4919.776565624894
 20
1893.282177630618
 10
4919.776565624894
 20
1893.282177630618
 10
4919.776565624894
 20
1893.282177630618
 10
4919.776565624894
 20
1893.282177630618
 10
4919.776565624894
 20
1893.282177630618
1001
ACAD
1010
0.0
1020
0.0
1030
0.0
1001
AcDbBlockRepETag
1070
     1
1071
      242
1005
B329
  0
LINE
  5
B32C
330
1F
100
AcDbEntity
  8
MP Annotation (00134142)
100
AcDbLine
 10
5611.694135711928
 20
4109.097522709627
 30
0.0
 11
7482.614208545853
 21
4109.097522709627
 31
0.0
1001
ACAD_MLEADERVER
1070
     2
  0
SOLID
  5
B32E
330
1F
100
AcDbEntity
  8
MP Annotation (00134142)
100
AcDbTrace
 10
4892.488185029271
 20
3349.29611400741
 30
0.0
 11
4760.678951119137
 21
3254.758095373978
 31
0.0
 12
4854.702382558421
 22
3386.934891565646
 32
0.0
 13
4854.702382558421
 23
3386.934891565646
 33
0.0
1001
ACAD_MLEADERVER
1070
     2
  0
LINE
  5
B330
330
1F
100
AcDbEntity
  8
MP Annotation (00134142)
100
AcDbLine
 10
7012.189297881294
 20
2926.560456819909
 30
0.0
 11
7482.614208545853
 21
2926.560456819909
 31
0.0
1001
ACAD_MLEADERVER
1070
     2
  0
SOLID
  5
B332
330
1F
100
AcDbEntity
  8
MP Annotation (00134142)
100
AcDbTrace
 10
6862.021045634127
 20
3038.724780297472
 30
0.0
 11
6767.593508817717
 21
3170.613185405338
 31
0.0
 12
6899.691472327683
 22
3076.479030351868
 32
0.0
 13
6899.691472327683
 23
3076.479030351868
 33
0.0
1001
ACAD_MLEADERVER
1070
     2
  0
LINE
  5
B334
330
1F
100
AcDbEntity
  8
MP Annotation (00134142)
100
AcDbLine
 10
6553.656044308493
 20
393.8407557141153
 30
0.0
 11
7482.614208545853
 21
393.8407557141153
 31
0.0
1001
ACAD_MLEADERVER
1070
     2
  0
SOLID
  5
B336
330
1F
100
AcDbEntity
  8
MP Annotation (00134142)
100
AcDbTrace
 10
6322.869240218333
 20
585.1856424448839
 30
0.0
 11
6228.048428484125
 21
716.7915874974422
 31
0.0
 12
6360.426800141638
 22
623.0521730101705
 32
0.0
 13
6360.426800141638
 23
623.0521730101705
 33
0.0
1001
ACAD_MLEADERVER
1070
     2
  0
LINE
  5
B338
330
1F
100
AcDbEntity
  8
MP Annotation (00134142)
100
AcDbLine
 10
4527.095664798824
 20
393.8407557141153
 30
0.0
 11
2936.294436775934
 21
393.8407557141153
 31
0.0
1001
ACAD_MLEADERVER
1070
     2
  0
SOLID
  5
B33A
330
1F
100
AcDbEntity
  8
MP Annotation (00134142)
100
AcDbTrace
 10
4736.515031900679
 20
646.5244528023837
 30
0.0
 11
4867.366673616223
 21
742.3835106501318
 31
0.0
 12
4774.67751778187
 22
609.2676532107341
 32
0.0
 13
4774.67751778187
 23
609.2676532107341
 33
0.0
1001
ACAD_MLEADERVER
1070
     2
  0
LINE
  5
B33C
330
1F
100
AcDbEntity
  8
MP Annotation (00134142)
100
AcDbLine
 10
4002.546424834014
 20
1658.950669211433
 30
0.0
 11
2936.294436775934
 21
1658.950669211433
 31
0.0
1001
ACAD_MLEADERVER
1070
     2
  0
SOLID
  5
B33E
330
1F
100
AcDbEntity
  8
MP Annotation (00134142)
100
AcDbTrace
 10
4307.216113925922
 20
1388.673840777201
 30
0.0
 11
4400.733240514517
 21
1256.138343095546
 31
0.0
 12
4269.286608006932
 22
1351.179880927837
 32
0.0
 13
4269.286608006932
 23
1351.179880927837
 33
0.0
1001
ACAD_MLEADERVER
1070
     2
  0
LINE
  5
B340
330
1F
100
AcDbEntity
  8
MP Annotation (00134142)
100
AcDbLine
 10
3232.556806194182
 20
2222.880701333808
 30
0.0
 11
2936.294436775934
 21
2222.880701333808
 31
0.0
1001
ACAD_MLEADERVER
1070
     2
  0
SOLID
  5
B342
330
1F
100
AcDbEntity
  8
MP Annotation (00134142)
100
AcDbTrace
 10
3439.034848713589
 20
2054.968182172131
 30
0.0
 11
3533.616259261311
 21
1923.190081222412
 31
0.0
 12
3401.408513840583
 22
2017.169989510723
 32
0.0
 13
3401.408513840583
 23
2017.169989510723
 33
0.0
1001
ACAD_MLEADERVER
1070
     2
  0
LINE
  5
B344
330
1F
100
AcDbEntity
  8
MP Annotation (00134142)
100
AcDbLine
 10
4269.202310169101
 20
2845.505825106815
 30
0.0
 11
2936.294436775934
 21
2845.505825106815
 31
0.0
1001
ACAD_MLEADERVER
1070
     2
  0
SOLID
  5
B346
330
1F
100
AcDbEntity
  8
MP Annotation (00134142)
100
AcDbTrace
 10
4553.580741919328
 20
2601.005239998257
 30
0.0
 11
4648.401216512024
 21
2469.399052039153
 31
0.0
 12
4516.023084991657
 22
2563.138805646079
 32
0.0
 13
4516.023084991657
 23
2563.138805646079
 33
0.0
1001
ACAD_MLEADERVER
1070
     2
  0
LINE
  5
B348
330
1F
100
AcDbEntity
  8
MP Annotation (00134142)
100
AcDbLine
 10
3468.503986749344
 20
3875.247506078132
 30
0.0
 11
2936.294436775934
 21
3875.247506078132
 31
0.0
1001
ACAD_MLEADERVER
1070
     2
  0
SOLID
  5
B34A
330
1F
100
AcDbEntity
  8
MP Annotation (00134142)
100
AcDbTrace
 10
3604.455985798006
 20
3779.327885241612
 30
0.0
 11
3700.051712758928
 21
3648.283739634401
 31
0.0
 12
3567.122518409771
 22
3741.240398356598
 32
0.0
 13
3567.122518409771
 23
3741.240398356598
 33
0.0
1001
ACAD_MLEADERVER
1070
     2
  0
TEXT
  5
B34B
330
1F
100
AcDbEntity
  8
MP Annotation (00134142)
  6
HIDDEN
100
AcDbText
 10
2388.866661117098
 20
-649.0570873064855
 30
0.0
 40
176.0
  1
GENERAL LAYOUT
100
AcDbText
1001
ACAD_MLEADERVER
1070
     2
1001
AcadAnnotative
1000
AnnotativeData
1002
{
1070
     1
1070
     0
1002
}
  0
TEXT
  5
B34C
330
1F
100
AcDbEntity
  8
MP Annotation (00134142)
  6
HIDDEN
100
AcDbText
 10
2388.986715687358
 20
-945.3917848962992
 30
0.0
 40
176.0
  1
Concrete Floor With
100
AcDbText
1001
ACAD_MLEADERVER
1070
     2
1001
AcadAnnotative
1000
AnnotativeData
1002
{
1070
     1
1070
     0
1002
}
  0
TEXT
  5
B34D
330
1F
100
AcDbEntity
  8
MP Annotation (00134142)
  6
HIDDEN
100
AcDbText
 10
2382.62382346362
 20
-1238.725118229632
 30
0.0
 40
176.0
  1
Rebate
100
AcDbText
1001
ACAD_MLEADERVER
1070
     2
1001
AcadAnnotative
1000
AnnotativeData
1002
{
1070
     1
1070
     0
1002
}
  0
TEXT
  5
B34E
330
1F
100
AcDbEntity
  8
MP Annotation (00134142)
  6
HIDDEN
100
AcDbText
 10
6283.623557073835
 20
-649.0570873064855
 30
0.0
 40
176.0
  1
Detail 02   NTS
100
AcDbText
1001
ACAD_MLEADERVER
1070
     2
1001
AcadAnnotative
1000
AnnotativeData
1002
{
1070
     1
1070
     0
1002
}
  0
LINE
  5
B34F
330
1F
100
AcDbEntity
  8
MP Annotation (00134142)
100
AcDbLine
 10
3585.789252103888
 20
3760.284141799105
 30
0.0
 11
3468.503986749344
 21
3875.247506078132
 31
0.0
1001
ACAD_MLEADERVER
1070
     2
  0
TEXT
  5
B350
330
1F
100
AcDbEntity
  8
MP Annotation (00134142)
  6
HIDDEN
100
AcDbText
 10
2205.380384934187
 20
3845.643140457394
 30
0.0
 40
80.0
  1
Soffit framing
  7
2mm
100
AcDbText
1001
ACAD_MLEADERVER
1070
     2
  0
LINE
  5
B351
330
1F
100
AcDbEntity
  8
MP Annotation (00134142)
100
AcDbLine
 10
4534.801913455493
 20
2582.072022822168
 30
0.0
 11
4269.202310169101
 21
2845.505825106815
 31
0.0
1001
ACAD_MLEADERVER
1070
     2
  0
TEXT
  5
B352
330
1F
100
AcDbEntity
  8
MP Annotation (00134142)
  6
HIDDEN
100
AcDbText
 10
1867.20848861768
 20
2815.846889226871
 30
0.0
 40
80.0
  1
MASONS Barricade
  7
2mm
100
AcDbText
1001
ACAD_MLEADERVER
1070
     2
  0
TEXT
  5
B353
330
1F
100
AcDbEntity
  8
MP Annotation (00134142)
  6
HIDDEN
100
AcDbText
 10
2165.052963378935
 20
2682.513555893538
 30
0.0
 40
80.0
  1
Building Wrap
  7
2mm
100
AcDbText
1001
ACAD_MLEADERVER
1070
     2
  0
LINE
  5
B354
330
1F
100
AcDbEntity
  8
MP Annotation (00134142)
100
AcDbLine
 10
3420.221681277086
 20
2036.069085841427
 30
0.0
 11
3232.556806194182
 21
2222.880701333808
 31
0.0
1001
ACAD_MLEADERVER
1070
     2
  0
TEXT
  5
B355
330
1F
100
AcDbEntity
  8
MP Annotation (00134142)
  6
HIDDEN
100
AcDbText
 10
2289.364013856425
 20
2182.198573093701
 30
0.0
 40
80.0
  1
50mm AAC
  7
2mm
100
AcDbText
1001
ACAD_MLEADERVER
1070
     2
  0
TEXT
  5
B356
330
1F
100
AcDbEntity
  8
MP Annotation (00134142)
  6
HIDDEN
100
AcDbText
 10
2118.777383569931
 20
2047.44641302094
 30
0.0
 40
80.0
  1
ENVIRO Panel
  7
2mm
100
AcDbText
1001
ACAD_MLEADERVER
1070
     2
  0
LINE
  5
B357
330
1F
100
AcDbEntity
  8
MP Annotation (00134142)
100
AcDbLine
 10
4288.251360966426
 20
1369.926860852519
 30
0.0
 11
4002.546424834014
 21
1658.950669211433
 31
0.0
1001
ACAD_MLEADERVER
1070
     2
  0
TEXT
  5
B358
330
1F
100
AcDbEntity
  8
MP Annotation (00134142)
  6
HIDDEN
100
AcDbText
 10
1793.866060241145
 20
1618.186685582512
 30
0.0
 40
80.0
  1
50x100mm MASONS
  7
2mm
100
AcDbText
1001
ACAD_MLEADERVER
1070
     2
  0
TEXT
  5
B359
330
1F
100
AcDbEntity
  8
MP Annotation (00134142)
  6
HIDDEN
100
AcDbText
 10
1718.777383569931
 20
1483.379955250543
 30
0.0
 40
80.0
  1
Vents @ 1200mm max
  7
2mm
100
AcDbText
1001
ACAD_MLEADERVER
1070
     2
  0
TEXT
  5
B35A
330
1F
100
AcDbEntity
  8
MP Annotation (00134142)
  6
HIDDEN
100
AcDbText
 10
1726.962922451241
 20
1350.04662191721
 30
0.0
 40
80.0
  1
cts, glued to panel with
  7
2mm
100
AcDbText
1001
ACAD_MLEADERVER
1070
     2
  0
TEXT
  5
B35B
330
1F
100
AcDbEntity
  8
MP Annotation (00134142)
  6
HIDDEN
100
AcDbText
 10
1847.945187116998
 20
1215.29446184445
 30
0.0
 40
80.0
  1
BOSTIK safe seal to
  7
2mm
100
AcDbText
1001
ACAD_MLEADERVER
1070
     2
  0
TEXT
  5
B35C
330
1F
100
AcDbEntity
  8
MP Annotation (00134142)
  6
HIDDEN
100
AcDbText
 10
2289.091162560382
 20
1081.961128511117
 30
0.0
 40
80.0
  1
cover holes
  7
2mm
100
AcDbText
1001
ACAD_MLEADERVER
1070
     2
  0
LINE
  5
B35D
330
1F
100
AcDbEntity
  8
MP Annotation (00134142)
100
AcDbLine
 10
4755.596274841273
 20
627.896053006559
 30
0.0
 11
4527.095664798824
 21
393.8407557141153
 31
0.0
1001
ACAD_MLEADERVER
1070
     2
  0
TEXT
  5
B35E
330
1F
100
AcDbEntity
  8
MP Annotation (00134142)
  6
HIDDEN
100
AcDbText
 10
1820.223495438962
 20
353.1586274740059
 30
0.0
 40
80.0
  1
Concrete Foundation
  7
2mm
100
AcDbText
1001
ACAD_MLEADERVER
1070
     2
  0
LINE
  5
B35F
330
1F
100
AcDbEntity
  8
MP Annotation (00134142)
100
AcDbLine
 10
6341.648020179987
 20
604.1189077275272
 30
0.0
 11
6553.656044308493
 21
393.8407557141153
 31
0.0
1001
ACAD_MLEADERVER
1070
     2
  0
TEXT
  5
B360
330
1F
100
AcDbEntity
  8
MP Annotation (00134142)
  6
HIDDEN
100
AcDbText
 10
7554.319529146126
 20
353.1040572147972
 30
0.0
 40
80.0
  1
MASONS Dryfix
  7
2mm
100
AcDbText
1001
ACAD_MLEADERVER
1070
     2
  0
TEXT
  5
B361
330
1F
100
AcDbEntity
  8
MP Annotation (00134142)
  6
HIDDEN
100
AcDbText
 10
7553.992107590872
 20
218.4064674012455
 30
0.0
 40
80.0
  1
DPC
  7
2mm
100
AcDbText
1001
ACAD_MLEADERVER
1070
     2
  0
LINE
  5
B362
330
1F
100
AcDbEntity
  8
MP Annotation (00134142)
100
AcDbLine
 10
6880.856258980904
 20
3057.601905324671
 30
0.0
 11
7012.189297881294
 21
2926.560456819909
 31
0.0
1001
ACAD_MLEADERVER
1070
     2
  0
TEXT
  5
B363
330
1F
100
AcDbEntity
  8
MP Annotation (00134142)
  6
HIDDEN
100
AcDbText
 10
7559.994836103832
 20
2898.32034767939
 30
0.0
 40
80.0
  1
Timber
  7
2mm
100
AcDbText
1001
ACAD_MLEADERVER
1070
     2
  0
TEXT
  5
B364
330
1F
100
AcDbEntity
  8
MP Annotation (00134142)
  6
HIDDEN
100
AcDbText
 10
7553.446404998786
 20
2764.987014346056
 30
0.0
 40
80.0
  1
Framing
  7
2mm
100
AcDbText
1001
ACAD_MLEADERVER
1070
     2
  0
LINE
  5
B365
330
1F
100
AcDbEntity
  8
MP Annotation (00134142)
100
AcDbLine
 10
4873.595283793845
 20
3368.115502786527
 30
0.0
 11
5611.694135711928
 21
4109.097522709627
 31
0.0
1001
ACAD_MLEADERVER
1070
     2
  0
TEXT
  5
B366
330
1F
100
AcDbEntity
  8
MP Annotation (00134142)
  6
HIDDEN
100
AcDbText
 10
7561.195381806425
 20
4068.415394469517
 30
0.0
 40
80.0
  1
45x45 H3.2 AAC
  7
2mm
100
AcDbText
1001
ACAD_MLEADERVER
1070
     2
  0
TEXT
  5
B367
330
1F
100
AcDbEntity
  8
MP Annotation (00134142)
  6
HIDDEN
100
AcDbText
 10
7553.773826554037
 20
3933.663234396758
 30
0.0
 40
80.0
  1
ENVIRO Tie
  7
2mm
100
AcDbText
1001
ACAD_MLEADERVER
1070
     2
  0
VIEWPORT
  5
16C0
102
{ACAD_XDICTIONARY
360
16C1
102
}
330
16B9
100
AcDbEntity
 67
     1
  8
0
100
AcDbViewport
 10
104.2062500119209
 20
147.7062500119209
 30
0.0
 40
658.3619146608315
 41
314.226
 68
     1
 69
     1
 12
104.2062500119209
 22
147.7062500119209
 13
0.0
 23
0.0
 14
10.0
 24
10.0
 15
10.0
 25
10.0
 16
0.0
 26
0.0
 36
1.0
 17
0.0
 27
0.0
 37
0.0
 42
50.0
 43
0.0
 44
0.0
 45
314.226
 50
0.0
 51
0.0
 72
  1000
 90
   819200
  1

281
     0
 71
     0
 74
     0
110
0.0
120
0.0
130
0.0
111
1.0
121
0.0
131
0.0
112
0.0
122
1.0
132
0.0
 79
     0
146
0.0
170
     0
 61
     5
348
220
292
     1
282
     1
141
0.0
142
0.0
 63
   250
421
  3355443
  0
ENDSEC
  0
SECTION
  2
OBJECTS
  0
DICTIONARY
  5
C
330
0
100
AcDbDictionary
281
     1
  3
ACAD_BACKGROUND
350
83C
  3
ACAD_COLOR
350
EB
  3
ACAD_DWFDEFINITIONS
350
40F3
  3
ACAD_FIELDLIST
350
E70
  3
ACAD_FLATSHOT
350
89C
  3
ACAD_GROUP
350
D
  3
ACAD_IMAGE_DICT
350
E6E
  3
ACAD_IMAGE_VARS
350
E74
  3
ACAD_LAYOUT
350
1A
  3
ACAD_MATERIAL
350
EA
  3
ACAD_MLEADERSTYLE
350
2C3
  3
ACAD_MLINESTYLE
350
17
  3
ACAD_PLOTSETTINGS
350
19
  3
ACAD_PLOTSTYLENAME
350
E
  3
ACAD_SCALELIST
350
2A1
  3
ACAD_TABLESTYLE
350
22B
  3
ACAD_VISUALSTYLE
350
21A
  3
AcAec
350
A21
  3
ACDB_RECOMPOSE_DATA
350
310
  3
AcDbVariableDictionary
350
25B
  3
AEC_DISP_REP_CONFIGURATIONS
350
A0A
  3
AEC_DISP_REP_SETS
350
A01
  3
AEC_DISP_REPS
350
8DB
  3
AEC_DISPLAY_PROPS_DEFAULTS
350
8DF
  3
AEC_LAYERKEY_STYLES
350
A0C
  3
AEC_PROPERTY_SET_DEFS
350
3C2
  3
AEC_VARS
350
8DD
  3
ASE_INDEX_DICTIONARY
350
3E43
  0
DICTIONARY
  5
28F
330
2
100
AcDbDictionary
280
     1
281
     1
  3
ACAD_LAYERFILTERS
360
1BB9
  3
ACAD_LAYERSTATES
360
290
  3
ACLYDICTIONARY
360
1BB8
  0
DICTIONARY
  5
308
330
10
100
AcDbDictionary
280
     1
281
     1
  3
ADSK_XREC_LAYER_RECONCILED
360
4297
  0
DICTIONARY
  5
37E
330
37D
100
AcDbDictionary
280
     1
281
     1
  0
DICTIONARY
  5
102E
330
1F
100
AcDbDictionary
280
     1
281
     1
  3
ACAD_SORTENTS
360
ADA7
  0
DICTIONARY
  5
B11B
330
A672
100
AcDbDictionary
280
     1
281
     1
  3
ACAD_SORTENTS
360
B11D
  0
DICTIONARY
  5
B37F
330
ACB9
100
AcDbDictionary
280
     1
281
     1
  3
ACAD_SORTENTS
360
B380
  0
DICTIONARY
  5
B3D4
330
B37A
100
AcDbDictionary
280
     1
281
     1
  3
ACAD_MTEXT_2008_RT
360
B3D5
  0
DICTIONARY
  5
16C1
330
16C0
100
AcDbDictionary
280
     1
281
     1
  3
ASDK_XREC_ANNOTATION_SCALE_INFO
360
16C2
  0
DICTIONARY
  5
83C
102
{ACAD_REACTORS
330
C
102
}
330
C
100
AcDbDictionary
281
     1
  0
DICTIONARY
  5
EB
102
{ACAD_REACTORS
330
C
102
}
330
C
100
AcDbDictionary
281
     1
  0
DICTIONARY
  5
40F3
102
{ACAD_REACTORS
330
C
102
}
330
C
100
AcDbDictionary
281
     1
  0
FIELDLIST
  5
E70
102
{ACAD_REACTORS
330
C
102
}
330
C
100
AcDbIdSet
 90
        0
100
AcDbFieldList
  0
XRECORD
  5
89C
102
{ACAD_REACTORS
330
C
102
}
330
C
100
AcDbXrecord
280
     1
 71
     0
  0
DICTIONARY
  5
D
102
{ACAD_REACTORS
330
C
102
}
330
C
100
AcDbDictionary
281
     1
  0
DICTIONARY
  5
E6E
102
{ACAD_REACTORS
330
C
102
}
330
C
100
AcDbDictionary
281
     1
  0
RASTERVARIABLES
  5
E74
102
{ACAD_REACTORS
330
C
102
}
330
C
100
AcDbRasterVariables
 90
        0
 70
     1
 71
     1
 72
     1
  0
DICTIONARY
  5
1A
102
{ACAD_REACTORS
330
C
102
}
330
C
100
AcDbDictionary
281
     1
  3
1
350
16BA
  3
Model
350
22
  0
DICTIONARY
  5
EA
102
{ACAD_REACTORS
330
C
102
}
330
C
100
AcDbDictionary
281
     1
  3
ByBlock
350
218
  3
ByLayer
350
217
  3
Global
350
219
  0
DICTIONARY
  5
2C3
102
{ACAD_REACTORS
330
C
102
}
330
C
100
AcDbDictionary
281
     1
  3
2mm
350
389
  3
Standard
350
2C4
  0
DICTIONARY
  5
17
102
{ACAD_REACTORS
330
C
102
}
330
C
100
AcDbDictionary
281
     1
  3
mp000096$0$STANDARD
350
B381
  3
Standard
350
18
  0
DICTIONARY
  5
19
102
{ACAD_REACTORS
330
C
102
}
330
C
100
AcDbDictionary
281
     1
  0
ACDBDICTIONARYWDFLT
  5
E
102
{ACAD_REACTORS
330
C
102
}
330
C
100
AcDbDictionary
281
     1
  3
Normal
350
F
100
AcDbDictionaryWithDefault
340
F
  0
DICTIONARY
  5
2A1
102
{ACAD_REACTORS
330
C
102
}
330
C
100
AcDbDictionary
281
     1
  3
*A1
350
13E3
  3
*A10
350
6492
  3
*A11
350
13EA
  3
*A12
350
13ED
  3
*A13
350
13F1
  3
*A14
350
13EB
  3
*A15
350
13F4
  3
*A16
350
13E4
  3
*A17
350
13EF
  3
*A18
350
13F0
  3
*A19
350
13F2
  3
*A2
350
13F5
  3
*A20
350
13E6
  3
*A21
350
13F3
  3
*A3
350
13E9
  3
*A4
350
13EC
  3
*A5
350
13F6
  3
*A6
350
13E5
  3
*A7
350
13E7
  3
*A8
350
13EE
  3
*A9
350
13E8
  3
A0
350
A6E
  3
A1
350
A77
  3
A2
350
A78
  3
A3
350
A79
  3
A4
350
A7A
  3
A5
350
A7B
  3
A6
350
A7C
  3
A7
350
A7D
  3
A8
350
A7E
  3
A9
350
A7F
  3
B0
350
A80
  3
B1
350
A6F
  3
B2
350
A81
  3
B3
350
A82
  3
B4
350
A70
  3
B5
350
A71
  3
B6
350
A72
  3
B7
350
A73
  3
B8
350
A74
  3
B9
350
A75
  3
C0
350
A76
  3
C1
350
2A2
  0
DICTIONARY
  5
22B
102
{ACAD_REACTORS
330
C
102
}
330
C
100
AcDbDictionary
281
     1
  3
mp000096$0$Standard
350
B382
  3
Standard
350
22C
  0
DICTIONARY
  5
21A
102
{ACAD_REACTORS
330
C
102
}
330
C
100
AcDbDictionary
281
     1
  3
2dWireframe
350
220
  3
3D Hidden
350
222
  3
3dWireframe
350
221
  3
Basic
350
21F
  3
Brighten
350
226
  3
ColorChange
350
22A
  3
Conceptual
350
223
  3
Dim
350
225
  3
Facepattern
350
229
  3
Flat
350
21B
  3
FlatWithEdges
350
21C
  3
Gouraud
350
21D
  3
GouraudWithEdges
350
21E
  3
Linepattern
350
228
  3
Realistic
350
224
  3
Thicken
350
227
  0
DICTIONARY
  5
A21
102
{ACAD_REACTORS
330
C
102
}
330
C
100
AcDbDictionary
281
     1
  3
AcAecLayerManager
350
A22
  0
XRECORD
  5
310
102
{ACAD_REACTORS
330
C
102
}
330
C
100
AcDbXrecord
280
     1
 90
        1
330
22C
330
B37A
330
B382
  0
DICTIONARY
  5
25B
102
{ACAD_REACTORS
330
C
102
}
330
C
100
AcDbDictionary
281
     1
  3
ANNOALLVISIBLE
350
6424
  3
CANNOSCALE
350
313
  3
CMLEADERSTYLE
350
311
  3
CTABLESTYLE
350
25C
  3
LAYEREVAL
350
315
  3
LAYERNOTIFY
350
316
  3
LIGHTINGUNITS
350
314
  3
MLEADERSCALE
350
A3E
  3
MSLTSCALE
350
312
  0
DICTIONARY
  5
A0A
102
{ACAD_REACTORS
330
C
102
}
330
C
100
AcDbDictionary
281
     1
  0
DICTIONARY
  5
A01
102
{ACAD_REACTORS
330
C
102
}
330
C
100
AcDbDictionary
281
     1
  0
DICTIONARY
  5
8DB
102
{ACAD_REACTORS
330
C
102
}
330
C
100
AcDbDictionary
281
     1
  0
DICTIONARY
  5
8DF
102
{ACAD_REACTORS
330
C
102
}
330
C
100
AcDbDictionary
281
     1
  0
DICTIONARY
  5
A0C
102
{ACAD_REACTORS
330
C
102
}
330
C
100
AcDbDictionary
281
     1
  0
DICTIONARY
  5
3C2
102
{ACAD_REACTORS
330
C
102
}
330
C
100
AcDbDictionary
281
     1
  0
DICTIONARY
  5
8DD
102
{ACAD_REACTORS
330
C
102
}
330
C
100
AcDbDictionary
281
     1
  0
DICTIONARY
  5
3E43
102
{ACAD_REACTORS
330
C
102
}
330
C
100
AcDbDictionary
281
     1
  3
ASEBlockHierarchyIndexRecord
350
3E44
1001
DCO15
1040
1692121483.687
  0
DICTIONARY
  5
1BB9
102
{ACAD_REACTORS
330
28F
102
}
330
28F
100
AcDbDictionary
281
     1
  0
DICTIONARY
  5
290
102
{ACAD_REACTORS
330
28F
102
}
330
28F
100
AcDbDictionary
281
     1
  3
00000050
350
3D97
  3
00000561
350
3D8B
  3
mp000096$0$00000050
350
B371
  3
mp000096$0$00000561
350
B375
  0
DICTIONARY
  5
1BB8
102
{ACAD_REACTORS
330
28F
102
}
330
28F
100
AcDbDictionary
281
     1
1001
ACAD
1000
<All
  0
XRECORD
  5
4297
102
{ACAD_REACTORS
330
308
102
}
330
308
100
AcDbXrecord
280
     1
290
     1
  0
SORTENTSTABLE
  5
ADA7
102
{ACAD_REACTORS
330
102E
102
}
330
102E
100
AcDbSortentsTable
330
1F
331
8262
  5
8276
331
826A
  5
827E
331
B2FA
  5
AFD3
331
827A
  5
86F1
331
7E8B
  5
7E8D
331
B302
  5
B2E8
331
B30A
  5
B2F0
331
8CF9
  5
A705
331
B312
  5
B2F8
331
85FA
  5
8CF9
331
7E93
  5
7E98
331
7E9B
  5
8253
331
A6F7
  5
B311
331
AE75
  5
902B
331
B31A
  5
B300
331
B351
  5
B33A
331
8253
  5
8268
331
860A
  5
A6FB
331
8F99
  5
7E94
331
B2E3
  5
ACF3
331
B322
  5
B308
331
B359
  5
B346
331
8FA1
  5
7E96
331
A707
  5
B31A
331
B2EB
  5
AE5D
331
B361
  5
B356
331
B2F3
  5
AE6B
331
8263
  5
8277
331
826B
  5
827F
331
8852
  5
8254
331
B2FB
  5
B2E1
331
B332
  5
B360
331
827B
  5
86F6
331
B303
  5
B2E9
331
B33A
  5
B352
331
AE66
  5
825E
331
B30B
  5
B2F1
331
B342
  5
B342
331
B313
  5
B2F9
331
B34A
  5
B334
331
7E94
  5
7E99
331
8603
  5
A6F9
331
AE76
  5
A6F4
331
B31B
  5
B301
331
B352
  5
B336
331
8254
  5
8269
331
A6F8
  5
B312
331
B323
  5
B309
331
B2E4
  5
ACF5
331
B35A
  5
B347
331
B2EC
  5
AE64
331
B362
  5
B35F
331
B2F4
  5
AE6C
331
8264
  5
8278
331
826C
  5
85FA
331
B2FC
  5
B2E2
331
7E85
  5
7E27
331
B304
  5
B2EA
331
827C
  5
86FB
331
7E8D
  5
7E8E
331
AE67
  5
825F
331
B30C
  5
B2F2
331
B314
  5
B2FA
331
B34B
  5
B32C
331
7E95
  5
7E9A
331
B31C
  5
B302
331
B353
  5
B338
331
8255
  5
826A
331
A6F9
  5
B313
331
B2E5
  5
ACF9
331
B324
  5
B30A
331
B35B
  5
B348
331
AFCF
  5
B31D
331
B363
  5
B35B
331
B2ED
  5
AE65
331
B32C
  5
B365
331
B2F5
  5
AE73
331
8265
  5
8279
331
7E26
  5
7E29
331
826D
  5
85FF
331
B2FD
  5
B2E3
331
B334
  5
B357
331
7E86
  5
7E87
331
B305
  5
B2EB
331
B33C
  5
B34A
331
7E8E
  5
7E8F
331
827D
  5
8700
331
B30D
  5
B2F3
331
B344
  5
B339
331
AE68
  5
8260
331
B315
  5
B2FB
331
B34C
  5
B32D
331
7E96
  5
7E9B
331
8605
  5
A6FA
331
B31D
  5
B303
331
B354
  5
B341
331
8256
  5
826B
331
A6FA
  5
B314
331
B325
  5
B30B
331
B2E6
  5
ACFA
331
B35C
  5
B349
331
A702
  5
B316
331
825E
  5
826D
331
902B
  5
A707
331
B2EE
  5
AE66
331
B364
  5
B35D
331
B2F6
  5
AE7B
331
8266
  5
827A
331
7E27
  5
7E2F
331
826E
  5
8600
331
7E2F
  5
7E85
331
ACF9
  5
8852
331
8276
  5
8605
331
7E87
  5
7E88
331
B2FE
  5
B2E4
331
827E
  5
8705
331
7E8F
  5
7E90
331
B306
  5
B2EC
331
AE69
  5
8261
331
B30E
  5
B2F4
331
B316
  5
B2FC
331
B34D
  5
B32E
331
7E97
  5
824F
331
A6FB
  5
B315
331
B31E
  5
B304
331
B355
  5
B33D
331
825F
  5
826E
331
A703
  5
B317
331
AFD1
  5
B31E
331
B2E7
  5
ACFB
331
B326
  5
B30C
331
B35D
  5
B351
331
B32E
  5
B367
331
B031
  5
7313
331
B2EF
  5
AE67
331
B365
  5
B366
331
B2F7
  5
AFCF
331
8267
  5
827B
331
826F
  5
8601
331
ACFA
  5
8870
331
7E88
  5
7E89
331
8277
  5
860A
331
B2FF
  5
B2E5
331
B336
  5
B359
331
827F
  5
870A
331
B307
  5
B2ED
331
B33E
  5
B34C
331
ABDB
  5
B31B
331
AE6A
  5
8262
331
B30F
  5
B2F5
331
B346
  5
B33B
331
B317
  5
B2FD
331
B34E
  5
B32B
331
7E90
  5
7E92
331
7E98
  5
8250
331
8250
  5
8265
331
A6F4
  5
B310
331
860F
  5
A702
331
8258
  5
826C
331
B31F
  5
B305
331
B356
  5
B33F
331
B327
  5
B30D
331
A704
  5
B318
331
ACF3
  5
870F
331
AFD2
  5
B31F
331
B2E8
  5
ACFC
331
B35E
  5
B34E
331
B2F0
  5
AE68
331
B366
  5
B362
331
8260
  5
826F
331
8268
  5
827C
331
7E29
  5
7E82
331
8270
  5
8603
331
B2F8
  5
AFD1
331
8278
  5
860F
331
7E89
  5
7E8A
331
B300
  5
B2E6
331
B308
  5
B2EE
331
AE6B
  5
8263
331
B310
  5
B2F6
331
B34F
  5
B333
331
8600
  5
A6F7
331
7E99
  5
8251
331
8F97
  5
7E93
331
8251
  5
8266
331
AE73
  5
8F97
331
B318
  5
B2FE
331
B2E1
  5
ABDB
331
B320
  5
B306
331
B357
  5
B34B
331
ACCC
  5
B31C
331
B35F
  5
B358
331
A705
  5
B319
331
B2E9
  5
AE5A
331
B328
  5
B30E
331
B2F1
  5
AE69
331
B367
  5
B364
331
8261
  5
8270
331
8269
  5
827D
331
8870
  5
A703
331
7E82
  5
7E86
331
B2F9
  5
AFD2
331
B330
  5
B35E
331
7E8A
  5
7E8B
331
8279
  5
86E7
331
B301
  5
B2E7
331
B338
  5
B350
331
8CF8
  5
A704
331
AE64
  5
8256
331
B309
  5
B2EF
331
B340
  5
B340
331
AE6C
  5
8264
331
B311
  5
B2F7
331
B348
  5
B332
331
7E92
  5
7E97
331
7E9A
  5
8252
331
8601
  5
A6F8
331
8252
  5
8267
331
B319
  5
B2FF
331
B350
  5
B330
331
B321
  5
B307
331
8FA0
  5
7E95
331
B2E2
  5
ACCC
331
B358
  5
B344
331
B360
  5
B354
331
ACF5
  5
87C3
331
B2EA
  5
AE5C
331
B329
  5
B30F
331
B2F2
  5
AE6A
  0
SORTENTSTABLE
  5
B11D
102
{ACAD_REACTORS
330
B11B
102
}
330
B11B
100
AcDbSortentsTable
330
A672
  0
SORTENTSTABLE
  5
B380
102
{ACAD_REACTORS
330
B37F
102
}
330
B37F
100
AcDbSortentsTable
330
ACB9
331
B37D
  5
B37E
331
B37E
  5
B37D
  0
XRECORD
  5
B3D5
102
{ACAD_REACTORS
330
B3D4
102
}
330
B3D4
100
AcDbXrecord
280
     1
 40
14753640.0
  1
\pxqc;The information provided is for guide only and must be used along side professional architectural/structural design. Professional architectural/structural design takes preference with any conflicting areas of the building design.\PAll documents
  1
 or data downloaded from www.mpb.co.nz or emailed from MASONS Plastabrick Limited is the intellectual property of MASONS Plastabrick Limited. MASONS Plastabrick Limited takes no responsibility for any of the documents or data being used for any other
  1
 purpose than for professional architectural/structural design.
  0
XRECORD
  5
16C2
102
{ACAD_REACTORS
330
16C1
102
}
330
16C1
100
AcDbXrecord
280
     1
 90
        1
340
2A2
  0
LAYOUT
  5
16BA
102
{ACAD_XDICTIONARY
360
170C
102
}
102
{ACAD_REACTORS
330
1A
102
}
330
1A
100
AcDbPlotSettings
  1

  2
DWF6 ePlot.pc3
  4
ISO_full_bleed_A4_(210.00_x_297.00_MM)
  6

 40
0.7937499880790711
 41
0.7937499880790711
 42
0.7937469482421875
 43
0.79376220703125
 44
210.0
 45
297.0
 46
0.0
 47
0.0
 48
0.0
 49
0.0
140
0.0
141
0.0
142
1.0
143
1.0
 70
   672
 72
     1
 73
     0
 74
     5
  7

 75
    16
147
25.4
 76
     0
 77
     2
 78
   300
148
0.0
149
0.0
100
AcDbLayout
  1
1
 70
     1
 71
     1
 10
-0.7937499880790711
 20
-0.7937499880790711
 11
209.2062500119209
 21
296.2062500119209
 12
0.0
 22
0.0
 32
0.0
 14
1.000000000000000E+20
 24
1.000000000000000E+20
 34
1.000000000000000E+20
 15
-1.000000000000000E+20
 25
-1.000000000000000E+20
 35
-1.000000000000000E+20
146
0.0
 13
0.0
 23
0.0
 33
0.0
 16
1.0
 26
0.0
 36
0.0
 17
0.0
 27
1.0
 37
0.0
 76
     0
330
16B9
331
16C0
1001
ACAD_PSEXT
1000
DWF6 ePlot.pc3
1000
DWF6 ePlot
1000
File
1000

1070
     0
  0
LAYOUT
  5
22
102
{ACAD_XDICTIONARY
360
4377
102
}
102
{ACAD_REACTORS
330
1A
102
}
330
1A
100
AcDbPlotSettings
  1

  2
none_device
  4
Letter_(8.50_x_11.00_Inches)
  6

 40
6.4
 41
6.4
 42
6.4
 43
6.4
 44
215.8999938964844
 45
279.3999938964844
 46
21.082
 47
0.0
 48
0.0
 49
0.0
140
0.0
141
0.0
142
1.0
143
1.55897424456234
 70
 11924
 72
     0
 73
     1
 74
     0
  7

 75
     0
147
0.6414474154964215
 76
     0
 77
     2
 78
   300
148
42.66874504805538
149
1.074921630094032
100
AcDbLayout
  1
Model
 70
     1
 71
     0
 10
0.0
 20
0.0
 11
12.0
 21
9.0
 12
0.0
 22
0.0
 32
0.0
 14
0.0
 24
0.0
 34
0.0
 15
0.0
 25
0.0
 35
0.0
146
0.0
 13
0.0
 23
0.0
 33
0.0
 16
1.0
 26
0.0
 36
0.0
 17
0.0
 27
1.0
 37
0.0
 76
     0
330
1F
331
215
  0
MATERIAL
  5
218
102
{ACAD_REACTORS
330
EA
102
}
330
EA
100
AcDbMaterial
  1
ByBlock
 73
     1
 78
     1
172
     1
176
     1
270
     1
274
     1
 94
       63
  0
MATERIAL
  5
217
102
{ACAD_REACTORS
330
EA
102
}
330
EA
100
AcDbMaterial
  1
ByLayer
 73
     1
 78
     1
172
     1
176
     1
270
     1
274
     1
 94
       63
  0
MATERIAL
  5
219
102
{ACAD_REACTORS
330
EA
102
}
330
EA
100
AcDbMaterial
  1
Global
 73
     1
 78
     1
172
     1
176
     1
270
     1
274
     1
 94
       63
  0
MLEADERSTYLE
  5
389
102
{ACAD_REACTORS
330
2C3
102
}
330
2C3
100
AcDbMLeaderStyle
170
     2
171
     1
172
     0
 90
        2
 40
0.0
 41
0.0
173
     1
 91
-1073741824
340
15
 92
       -1
290
     1
 42
2.0
291
     0
 43
0.0
  3
Standard
 44
4.0
300

342
380
174
     1
178
     1
175
     1
176
     0
 93
-1073741824
 45
2.0
292
     0
297
     0
 46
4.0
343
356
 94
-1056964608
 47
1.0
 49
1.0
140
1.0
293
     1
141
0.0
294
     1
177
     0
142
0.0
295
     0
296
     1
143
0.0
1001
ACAD_MLEADERVER
1070
     2
  0
MLEADERSTYLE
  5
2C4
102
{ACAD_REACTORS
330
2C3
102
}
330
2C3
100
AcDbMLeaderStyle
170
     2
171
     1
172
     0
 90
        2
 40
0.0
 41
0.0
173
     1
 91
-1056964608
340
14
 92
       -2
290
     1
 42
0.09
291
     1
 43
0.36
  3
Standard
 44
0.18
300

342
11
174
     1
178
     6
175
     1
176
     0
 93
-1056964608
 45
0.18
292
     0
297
     0
 46
0.18
 94
-1056964608
 47
1.0
 49
1.0
140
1.0
293
     1
141
0.0
294
     1
177
     0
142
1.0
295
     0
296
     0
143
0.125
1001
ACAD_MLEADERVER
1070
     2
  0
MLINESTYLE
  5
B381
102
{ACAD_REACTORS
330
17
102
}
330
17
100
AcDbMlineStyle
  2
MP000096$0$STANDARD
 70
     0
  3

 62
   256
 51
90.0
 52
90.0
 71
     2
 49
0.5
 62
   256
  6
BYLAYER
 49
-0.5
 62
   256
  6
BYLAYER
  0
MLINESTYLE
  5
18
102
{ACAD_REACTORS
330
17
102
}
330
17
100
AcDbMlineStyle
  2
STANDARD
 70
     0
  3

 62
   256
 51
90.0
 52
90.0
 71
     2
 49
0.5
 62
   256
  6
BYLAYER
 49
-0.5
 62
   256
  6
BYLAYER
  0
ACDBPLACEHOLDER
  5
F
102
{ACAD_REACTORS
330
E
102
}
330
E
  0
SCALE
  5
13E3
102
{ACAD_REACTORS
330
2A1
102
}
330
2A1
100
AcDbScale
 70
     0
300
1:2_XREF
140
1.0
141
2.0
290
     0
  0
SCALE
  5
6492
102
{ACAD_REACTORS
330
2A1
102
}
330
2A1
100
AcDbScale
 70
     0
300
*1:0.5
140
1.0
141
0.5
290
     0
  0
SCALE
  5
13EA
102
{ACAD_REACTORS
330
2A1
102
}
330
2A1
100
AcDbScale
 70
     0
300
1:50_XREF
140
1.0
141
50.0
290
     0
  0
SCALE
  5
13ED
102
{ACAD_REACTORS
330
2A1
102
}
330
2A1
100
AcDbScale
 70
     0
300
1:150_XREF
140
1.0
141
150.0
290
     0
  0
SCALE
  5
13F1
102
{ACAD_REACTORS
330
2A1
102
}
330
2A1
100
AcDbScale
 70
     0
300
1:750_XREF
140
1.0
141
750.0
290
     0
  0
SCALE
  5
13EB
102
{ACAD_REACTORS
330
2A1
102
}
330
2A1
100
AcDbScale
 70
     0
300
1:75_XREF
140
1.0
141
75.0
290
     0
  0
SCALE
  5
13F4
102
{ACAD_REACTORS
330
2A1
102
}
330
2A1
100
AcDbScale
 70
     0
300
1:2000_XREF
140
1.0
141
2000.0
290
     0
  0
SCALE
  5
13E4
102
{ACAD_REACTORS
330
2A1
102
}
330
2A1
100
AcDbScale
 70
     0
300
1:2.5_XREF
140
1.0
141
2.5
290
     0
  0
SCALE
  5
13EF
102
{ACAD_REACTORS
330
2A1
102
}
330
2A1
100
AcDbScale
 70
     0
300
1:250_XREF
140
1.0
141
250.0
290
     0
  0
SCALE
  5
13F0
102
{ACAD_REACTORS
330
2A1
102
}
330
2A1
100
AcDbScale
 70
     0
300
1:500_XREF
140
1.0
141
500.0
290
     0
  0
SCALE
  5
13F2
102
{ACAD_REACTORS
330
2A1
102
}
330
2A1
100
AcDbScale
 70
     0
300
1:1000_XREF
140
1.0
141
1000.0
290
     0
  0
SCALE
  5
13F5
102
{ACAD_REACTORS
330
2A1
102
}
330
2A1
100
AcDbScale
 70
     0
300
1:2500_XREF
140
1.0
141
2500.0
290
     0
  0
SCALE
  5
13E6
102
{ACAD_REACTORS
330
2A1
102
}
330
2A1
100
AcDbScale
 70
     0
300
1:7.5_XREF
140
1.0
141
7.5
290
     0
  0
SCALE
  5
13F3
102
{ACAD_REACTORS
330
2A1
102
}
330
2A1
100
AcDbScale
 70
     0
300
1:1250_XREF
140
1.0
141
1250.0
290
     0
  0
SCALE
  5
13E9
102
{ACAD_REACTORS
330
2A1
102
}
330
2A1
100
AcDbScale
 70
     0
300
1:25_XREF
140
1.0
141
25.0
290
     0
  0
SCALE
  5
13EC
102
{ACAD_REACTORS
330
2A1
102
}
330
2A1
100
AcDbScale
 70
     0
300
1:100_XREF
140
1.0
141
100.0
290
     0
  0
SCALE
  5
13F6
102
{ACAD_REACTORS
330
2A1
102
}
330
2A1
100
AcDbScale
 70
     0
300
1:5000_XREF
140
1.0
141
5000.0
290
     0
  0
SCALE
  5
13E5
102
{ACAD_REACTORS
330
2A1
102
}
330
2A1
100
AcDbScale
 70
     0
300
1:5_XREF
140
1.0
141
5.0
290
     0
  0
SCALE
  5
13E7
102
{ACAD_REACTORS
330
2A1
102
}
330
2A1
100
AcDbScale
 70
     0
300
1:10_XREF
140
1.0
141
10.0
290
     0
  0
SCALE
  5
13EE
102
{ACAD_REACTORS
330
2A1
102
}
330
2A1
100
AcDbScale
 70
     0
300
1:200_XREF
140
1.0
141
200.0
290
     0
  0
SCALE
  5
13E8
102
{ACAD_REACTORS
330
2A1
102
}
330
2A1
100
AcDbScale
 70
     0
300
1:20_XREF
140
1.0
141
20.0
290
     0
  0
SCALE
  5
A6E
102
{ACAD_REACTORS
330
2A1
102
}
330
2A1
100
AcDbScale
 70
     0
300
*1:1
140
1.0
141
1.0
290
     0
  0
SCALE
  5
A77
102
{ACAD_REACTORS
330
2A1
102
}
330
2A1
100
AcDbScale
 70
     0
300
*1:2.5
140
1.0
141
2.5
290
     0
  0
SCALE
  5
A78
102
{ACAD_REACTORS
330
2A1
102
}
330
2A1
100
AcDbScale
 70
     0
300
*1:25
140
1.0
141
25.0
290
     0
  0
SCALE
  5
A79
102
{ACAD_REACTORS
330
2A1
102
}
330
2A1
100
AcDbScale
 70
     0
300
*1:250
140
1.0
141
250.0
290
     0
  0
SCALE
  5
A7A
102
{ACAD_REACTORS
330
2A1
102
}
330
2A1
100
AcDbScale
 70
     0
300
*1:2500
140
1.0
141
2500.0
290
     0
  0
SCALE
  5
A7B
102
{ACAD_REACTORS
330
2A1
102
}
330
2A1
100
AcDbScale
 70
     0
300
*1:40
140
1.0
141
40.0
290
     0
  0
SCALE
  5
A7C
102
{ACAD_REACTORS
330
2A1
102
}
330
2A1
100
AcDbScale
 70
     0
300
*1:400
140
1.0
141
400.0
290
     0
  0
SCALE
  5
A7D
102
{ACAD_REACTORS
330
2A1
102
}
330
2A1
100
AcDbScale
 70
     0
300
*1:5
140
1.0
141
5.0
290
     0
  0
SCALE
  5
A7E
102
{ACAD_REACTORS
330
2A1
102
}
330
2A1
100
AcDbScale
 70
     0
300
*1:50
140
1.0
141
50.0
290
     0
  0
SCALE
  5
A7F
102
{ACAD_REACTORS
330
2A1
102
}
330
2A1
100
AcDbScale
 70
     0
300
*1:500
140
1.0
141
500.0
290
     0
  0
SCALE
  5
A80
102
{ACAD_REACTORS
330
2A1
102
}
330
2A1
100
AcDbScale
 70
     0
300
*1:5000
140
1.0
141
5000.0
290
     0
  0
SCALE
  5
A6F
102
{ACAD_REACTORS
330
2A1
102
}
330
2A1
100
AcDbScale
 70
     0
300
*1:10
140
1.0
141
10.0
290
     0
  0
SCALE
  5
A81
102
{ACAD_REACTORS
330
2A1
102
}
330
2A1
100
AcDbScale
 70
     0
300
*1:750
140
1.0
141
750.0
290
     0
  0
SCALE
  5
A82
102
{ACAD_REACTORS
330
2A1
102
}
330
2A1
100
AcDbScale
 70
     0
300
*1:8
140
1.0
141
8.0
290
     0
  0
SCALE
  5
A70
102
{ACAD_REACTORS
330
2A1
102
}
330
2A1
100
AcDbScale
 70
     0
300
*1:15
140
1.0
141
15.0
290
     0
  0
SCALE
  5
A71
102
{ACAD_REACTORS
330
2A1
102
}
330
2A1
100
AcDbScale
 70
     0
300
*1:100
140
1.0
141
100.0
290
     0
  0
SCALE
  5
A72
102
{ACAD_REACTORS
330
2A1
102
}
330
2A1
100
AcDbScale
 70
     0
300
*1:1000
140
1.0
141
1000.0
290
     0
  0
SCALE
  5
A73
102
{ACAD_REACTORS
330
2A1
102
}
330
2A1
100
AcDbScale
 70
     0
300
*1:2
140
1.0
141
2.0
290
     0
  0
SCALE
  5
A74
102
{ACAD_REACTORS
330
2A1
102
}
330
2A1
100
AcDbScale
 70
     0
300
*1:20
140
1.0
141
20.0
290
     0
  0
SCALE
  5
A75
102
{ACAD_REACTORS
330
2A1
102
}
330
2A1
100
AcDbScale
 70
     0
300
*1:200
140
1.0
141
200.0
290
     0
  0
SCALE
  5
A76
102
{ACAD_REACTORS
330
2A1
102
}
330
2A1
100
AcDbScale
 70
     0
300
*1:2000
140
1.0
141
2000.0
290
     0
  0
SCALE
  5
2A2
102
{ACAD_REACTORS
330
2A1
102
}
330
2A1
100
AcDbScale
 70
     0
300
1:1
140
1.0
141
1.0
290
     1
  0
TABLESTYLE
  5
B382
102
{ACAD_XDICTIONARY
360
B383
102
}
102
{ACAD_REACTORS
330
22B
102
}
330
22B
100
AcDbTableStyle
  3
Standard
 70
     0
 71
     0
 40
0.06
 41
0.06
280
     0
281
     0
  7
mp000096$0$Standard
140
0.18
170
     2
 62
     0
 63
     7
283
     0
 90
      512
 91
        0
  1

274
    -2
284
     1
 64
     0
275
    -2
285
     1
 65
     0
276
    -2
286
     1
 66
     0
277
    -2
287
     1
 67
     0
278
    -2
288
     1
 68
     0
279
    -2
289
     1
 69
     0
  7
mp000096$0$Standard
140
0.25
170
     5
 62
     0
 63
     7
283
     0
 90
      512
 91
        0
  1

274
    -2
284
     1
 64
     0
275
    -2
285
     1
 65
     0
276
    -2
286
     1
 66
     0
277
    -2
287
     1
 67
     0
278
    -2
288
     1
 68
     0
279
    -2
289
     1
 69
     0
  7
mp000096$0$Standard
140
0.18
170
     5
 62
     0
 63
     7
283
     0
 90
      512
 91
        0
  1

274
    -2
284
     1
 64
     0
275
    -2
285
     1
 65
     0
276
    -2
286
     1
 66
     0
277
    -2
287
     1
 67
     0
278
    -2
288
     1
 68
     0
279
    -2
289
     1
 69
     0
  0
TABLESTYLE
  5
22C
102
{ACAD_XDICTIONARY
360
30E
102
}
102
{ACAD_REACTORS
330
22B
102
}
330
22B
100
AcDbTableStyle
  3
Standard
 70
     0
 71
     0
 40
0.06
 41
0.06
280
     0
281
     0
  7
Standard
140
0.18
170
     2
 62
     0
 63
     7
283
     0
 90
      512
 91
        0
  1

274
    -2
284
     1
 64
     0
275
    -2
285
     1
 65
     0
276
    -2
286
     1
 66
     0
277
    -2
287
     1
 67
     0
278
    -2
288
     1
 68
     0
279
    -2
289
     1
 69
     0
  7
Standard
140
0.25
170
     5
 62
     0
 63
     7
283
     0
 90
      512
 91
        0
  1

274
    -2
284
     1
 64
     0
275
    -2
285
     1
 65
     0
276
    -2
286
     1
 66
     0
277
    -2
287
     1
 67
     0
278
    -2
288
     1
 68
     0
279
    -2
289
     1
 69
     0
  7
Standard
140
0.18
170
     5
 62
     0
 63
     7
283
     0
 90
      512
 91
        0
  1

274
    -2
284
     1
 64
     0
275
    -2
285
     1
 65
     0
276
    -2
286
     1
 66
     0
277
    -2
287
     1
 67
     0
278
    -2
288
     1
 68
     0
279
    -2
289
     1
 69
     0
  0
VISUALSTYLE
  5
220
102
{ACAD_REACTORS
330
21A
102
}
330
21A
100
AcDbVisualStyle
  2
2dWireframe
 70
     4
 71
     0
 72
     2
 73
     1
 90
        0
 40
-0.6
 41
-30.0
 62
     5
 63
     7
421
 16777215
 74
     1
 91
        4
 64
     7
 65
   257
 75
     1
175
     1
 42
1.0
 92
        0
 66
   257
 43
1.0
 76
     1
 77
     6
 78
     2
 67
     7
 79
     5
170
     0
171
     0
290
     0
174
     0
 93
        1
 44
0.0
173
     0
291
     0
 45
0.0
  0
VISUALSTYLE
  5
222
102
{ACAD_REACTORS
330
21A
102
}
330
21A
100
AcDbVisualStyle
  2
3D Hidden
 70
     6
 71
     1
 72
     2
 73
     2
 90
        0
 40
-0.6
 41
-30.0
 62
     5
 63
     7
421
 16777215
 74
     2
 91
       10
 64
     7
 65
   257
 75
     2
175
     2
 42
40.0
 92
        0
 66
   257
 43
1.0
 76
     1
 77
     6
 78
     2
 67
     7
 79
     3
170
     0
171
     0
290
     0
174
     0
 93
        1
 44
0.0
173
     0
291
     0
 45
0.0
  0
VISUALSTYLE
  5
221
102
{ACAD_REACTORS
330
21A
102
}
330
21A
100
AcDbVisualStyle
  2
3dWireframe
 70
     5
 71
     0
 72
     2
 73
     1
 90
        0
 40
-0.6
 41
-30.0
 62
     5
 63
     7
421
 16777215
 74
     1
 91
        4
 64
     7
 65
   257
 75
     1
175
     1
 42
1.0
 92
        0
 66
   257
 43
1.0
 76
     1
 77
     6
 78
     2
 67
     7
 79
     5
170
     0
171
     0
290
     0
174
     0
 93
        1
 44
0.0
173
     0
291
     0
 45
0.0
  0
VISUALSTYLE
  5
21F
102
{ACAD_REACTORS
330
21A
102
}
330
21A
100
AcDbVisualStyle
  2
Basic
 70
     7
 71
     1
 72
     0
 73
     1
 90
        0
 40
-0.6
 41
-30.0
 62
     5
 63
     7
421
 16777215
 74
     0
 91
        4
 64
     7
 65
   257
 75
     1
175
     1
 42
1.0
 92
        8
 66
     7
 43
1.0
 76
     1
 77
     6
 78
     2
 67
     7
 79
     5
170
     0
171
     0
290
     0
174
     0
 93
        1
 44
0.0
173
     0
291
     1
 45
0.0
  0
VISUALSTYLE
  5
226
102
{ACAD_REACTORS
330
21A
102
}
330
21A
100
AcDbVisualStyle
  2
Brighten
 70
    12
 71
     2
 72
     2
 73
     1
 90
        0
 40
-0.6
 41
-30.0
 62
     5
 63
     7
421
 16777215
 74
     1
 91
        4
 64
     7
 65
   257
 75
     1
175
     1
 42
1.0
 92
        8
 66
     7
 43
1.0
 76
     1
 77
     6
 78
     2
 67
     7
 79
     5
170
     0
171
     0
290
     0
174
     0
 93
        1
 44
50.0
173
     0
291
     1
 45
0.0
  0
VISUALSTYLE
  5
22A
102
{ACAD_REACTORS
330
21A
102
}
330
21A
100
AcDbVisualStyle
  2
ColorChange
 70
    16
 71
     2
 72
     2
 73
     3
 90
        0
 40
-0.6
 41
-30.0
 62
     5
 63
     8
421
  8421504
 74
     1
 91
        4
 64
     7
 65
   257
 75
     1
175
     1
 42
1.0
 92
        8
 66
     8
424
  8421504
 43
1.0
 76
     1
 77
     6
 78
     2
 67
     7
 79
     5
170
     0
171
     0
290
     0
174
     0
 93
        1
 44
0.0
173
     0
291
     1
 45
0.0
  0
VISUALSTYLE
  5
223
102
{ACAD_XDICTIONARY
360
811
102
}
102
{ACAD_REACTORS
330
21A
102
}
330
21A
100
AcDbVisualStyle
  2
Conceptual
 70
     9
 71
     2
 72
     2
 73
     1
 90
        0
 40
-0.6
 41
-30.0
 62
     5
 63
     7
421
 16777215
 74
     0
 91
        0
 64
     7
 65
   257
 75
     1
175
     1
 42
40.0
 92
        8
 66
     7
 43
1.0
 76
     1
 77
     6
 78
     2
 67
     7
 79
     5
170
     0
171
     0
290
     0
174
     0
 93
       12
 44
0.0
173
     0
291
     0
 45
0.0
  0
VISUALSTYLE
  5
225
102
{ACAD_REACTORS
330
21A
102
}
330
21A
100
AcDbVisualStyle
  2
Dim
 70
    11
 71
     2
 72
     2
 73
     1
 90
        0
 40
-0.6
 41
-30.0
 62
     5
 63
     7
421
 16777215
 74
     1
 91
        4
 64
     7
 65
   257
 75
     1
175
     1
 42
1.0
 92
        8
 66
     7
 43
1.0
 76
     1
 77
     6
 78
     2
 67
     7
 79
     5
170
     0
171
     0
290
     0
174
     0
 93
        1
 44
-50.0
173
     0
291
     1
 45
0.0
  0
VISUALSTYLE
  5
229
102
{ACAD_REACTORS
330
21A
102
}
330
21A
100
AcDbVisualStyle
  2
Facepattern
 70
    15
 71
     2
 72
     2
 73
     1
 90
        0
 40
-0.6
 41
-30.0
 62
     5
 63
     7
421
 16777215
 74
     1
 91
        4
 64
     7
 65
   257
 75
     1
175
     1
 42
1.0
 92
        8
 66
     7
 43
1.0
 76
     1
 77
     6
 78
     2
 67
     7
 79
     5
170
     0
171
     0
290
     0
174
     0
 93
        1
 44
0.0
173
     0
291
     1
 45
0.0
  0
VISUALSTYLE
  5
21B
102
{ACAD_REACTORS
330
21A
102
}
330
21A
100
AcDbVisualStyle
  2
Flat
 70
     0
 71
     2
 72
     1
 73
     1
 90
        2
 40
-0.6
 41
30.0
 62
     5
 63
     7
421
 16777215
 74
     0
 91
        4
 64
     7
 65
   257
 75
     1
175
     1
 42
1.0
 92
        8
 66
     7
 43
1.0
 76
     1
 77
     6
 78
     2
 67
     7
 79
     5
170
     0
171
     0
290
     0
174
     0
 93
        1
 44
0.0
173
     0
291
     1
 45
0.0
  0
VISUALSTYLE
  5
21C
102
{ACAD_REACTORS
330
21A
102
}
330
21A
100
AcDbVisualStyle
  2
FlatWithEdges
 70
     1
 71
     2
 72
     1
 73
     1
 90
        2
 40
-0.6
 41
30.0
 62
     5
 63
     7
421
 16777215
 74
     1
 91
        4
 64
     7
 65
   257
 75
     1
175
     1
 42
1.0
 92
        0
 66
   257
 43
1.0
 76
     1
 77
     6
 78
     2
 67
     7
 79
     5
170
     0
171
     0
290
     0
174
     0
 93
        1
 44
0.0
173
     0
291
     1
 45
0.0
  0
VISUALSTYLE
  5
21D
102
{ACAD_REACTORS
330
21A
102
}
330
21A
100
AcDbVisualStyle
  2
Gouraud
 70
     2
 71
     2
 72
     2
 73
     1
 90
        2
 40
-0.6
 41
30.0
 62
     5
 63
     7
421
 16777215
 74
     0
 91
        4
 64
     7
 65
   257
 75
     1
175
     1
 42
1.0
 92
        0
 66
     7
 43
1.0
 76
     1
 77
     6
 78
     2
 67
     7
 79
     5
170
     0
171
     0
290
     0
174
     0
 93
        1
 44
0.0
173
     0
291
     1
 45
0.0
  0
VISUALSTYLE
  5
21E
102
{ACAD_REACTORS
330
21A
102
}
330
21A
100
AcDbVisualStyle
  2
GouraudWithEdges
 70
     3
 71
     2
 72
     2
 73
     1
 90
        2
 40
-0.6
 41
30.0
 62
     5
 63
     7
421
 16777215
 74
     1
 91
        4
 64
     7
 65
   257
 75
     1
175
     1
 42
1.0
 92
        0
 66
   257
 43
1.0
 76
     1
 77
     6
 78
     2
 67
     7
 79
     5
170
     0
171
     0
290
     0
174
     0
 93
        1
 44
0.0
173
     0
291
     1
 45
0.0
  0
VISUALSTYLE
  5
228
102
{ACAD_REACTORS
330
21A
102
}
330
21A
100
AcDbVisualStyle
  2
Linepattern
 70
    14
 71
     2
 72
     2
 73
     1
 90
        0
 40
-0.6
 41
-30.0
 62
     5
 63
     7
421
 16777215
 74
     1
 91
        4
 64
     7
 65
   257
 75
     7
175
     7
 42
1.0
 92
        8
 66
     7
 43
1.0
 76
     1
 77
     6
 78
     2
 67
     7
 79
     5
170
     0
171
     0
290
     0
174
     0
 93
        1
 44
0.0
173
     0
291
     1
 45
0.0
  0
VISUALSTYLE
  5
224
102
{ACAD_REACTORS
330
21A
102
}
330
21A
100
AcDbVisualStyle
  2
Realistic
 70
     8
 71
     2
 72
     2
 73
     1
 90
        0
 40
-0.6
 41
-30.0
 62
     5
 63
     7
421
 16777215
 74
     1
 91
        0
 64
     7
 65
   257
 75
     1
175
     1
 42
1.0
 92
        8
 66
     7
 43
1.0
 76
     1
 77
     6
 78
     2
 67
     7
 79
     5
170
     0
171
     0
290
     0
174
     0
 93
       13
 44
0.0
173
     0
291
     0
 45
0.0
  0
VISUALSTYLE
  5
227
102
{ACAD_REACTORS
330
21A
102
}
330
21A
100
AcDbVisualStyle
  2
Thicken
 70
    13
 71
     2
 72
     2
 73
     1
 90
        0
 40
-0.6
 41
-30.0
 62
     5
 63
     7
421
 16777215
 74
     1
 91
        4
 64
     7
 65
   257
 75
     1
175
     1
 42
1.0
 92
       12
 66
     7
 43
1.0
 76
     1
 77
     6
 78
     2
 67
     7
 79
     5
170
     0
171
     0
290
     0
174
     0
 93
        1
 44
0.0
173
     0
291
     1
 45
0.0
  0
DICTIONARY
  5
A22
102
{ACAD_REACTORS
330
A21
102
}
330
A21
100
AcDbDictionary
280
     1
281
     1
  3
DefaultStandard
360
A38
  3
Standards
360
A23
  0
DICTIONARYVAR
  5
6424
102
{ACAD_REACTORS
330
25B
102
}
330
25B
100
DictionaryVariables
280
     0
  1
1
  0
DICTIONARYVAR
  5
313
102
{ACAD_REACTORS
330
25B
102
}
330
25B
100
DictionaryVariables
280
     0
  1
*1:40
  0
DICTIONARYVAR
  5
311
102
{ACAD_REACTORS
330
25B
102
}
330
25B
100
DictionaryVariables
280
     0
  1
2mm
  0
DICTIONARYVAR
  5
25C
102
{ACAD_REACTORS
330
25B
102
}
330
25B
100
DictionaryVariables
280
     0
  1
STANDARD
  0
DICTIONARYVAR
  5
315
102
{ACAD_REACTORS
330
25B
102
}
330
25B
100
DictionaryVariables
280
     0
  1
1
  0
DICTIONARYVAR
  5
316
102
{ACAD_REACTORS
330
25B
102
}
330
25B
100
DictionaryVariables
280
     0
  1
15
  0
DICTIONARYVAR
  5
314
102
{ACAD_REACTORS
330
25B
102
}
330
25B
100
DictionaryVariables
280
     0
  1
0
  0
DICTIONARYVAR
  5
A3E
102
{ACAD_REACTORS
330
25B
102
}
330
25B
100
DictionaryVariables
280
     0
  1
0.000000
  0
DICTIONARYVAR
  5
312
102
{ACAD_REACTORS
330
25B
102
}
330
25B
100
DictionaryVariables
280
     0
  1
0
  0
XRECORD
  5
3E44
102
{ACAD_REACTORS
330
3E43
102
}
330
3E43
100
AcDbXrecord
280
     1
330
0
330
0
330
0
  0
XRECORD
  5
3D97
102
{ACAD_XDICTIONARY
360
3D98
102
}
102
{ACAD_REACTORS
330
290
102
}
330
290
100
AcDbXrecord
280
     1
 91
      514
301

290
     0
302
0
330
0
 90
        8
 62
     7
370
    -3
331
16
  1
Color_7
330
0
 90
        8
 62
     7
370
    -3
331
16
  1
Color_7
330
0
 90
        8
 62
     7
370
    -3
331
16
  1
Color_7
330
0
 90
        0
 62
    30
370
    -3
331
16
  1
Color_30
330
0
 90
        8
 62
   252
370
    -3
331
16
  1
Color_252
330
0
 90
        8
 62
     3
370
    30
331
16
  1
Color_3
330
0
 90
        8
 62
   253
370
    -3
331
16
  1
Color_253
330
0
 90
        8
 62
     1
370
    -3
331
16
  1
Color_1
330
0
 90
        0
 62
     5
370
    -3
331
16
  1
Color_5
330
0
 90
        8
 62
     2
370
    -3
331
16
  1
Color_2
330
0
 90
        0
 62
   178
370
    -3
331
16
  1
Color_178
 92
-1039794079
330
0
 90
        8
 62
     7
370
    -3
331
16
  1
Color_7
330
0
 90
        8
 62
     7
370
    -3
331
16
  1
Color_7
330
0
 90
        8
 62
     7
370
    -3
331
16
  1
Color_7
330
0
 90
        8
 62
     7
370
    -3
331
16
  1
Color_7
330
0
 90
        8
 62
     7
370
    -3
331
16
  1
Color_7
330
0
 90
        0
 62
     4
370
    -3
331
16
  1
Color_4
330
0
 90
        0
 62
     7
370
    -3
331
16
  1
Color_7
330
37D
 90
        0
 62
     7
370
    -3
331
16
  1
Color_7
330
10
 90
        8
 62
     7
370
    -3
331
16
  1
Color_7
330
0
 90
       10
 62
     7
370
    -3
331
16
  1
Color_7
330
0
 90
       10
 62
     7
370
    -3
331
16
  1
Color_7
330
0
 90
       10
 62
     7
370
    -3
331
16
  1
Color_7
330
0
 90
       10
 62
     7
370
    -3
331
16
  1
Color_7
330
0
 90
       10
 62
     7
370
    -3
331
16
  1
Color_7
330
0
 90
       10
 62
     7
370
    -3
331
16
  1
Color_7
330
0
 90
       10
 62
     7
370
    -3
331
16
  1
Color_7
330
0
 90
       10
 62
     7
370
    -3
331
16
  1
Color_7
330
0
 90
       10
 62
     7
370
    -3
331
16
  1
Color_7
330
0
 90
       10
 62
     7
370
    -3
331
16
  1
Color_7
330
0
 90
       10
 62
     7
370
    -3
331
16
  1
Color_7
330
0
 90
       10
 62
     7
370
    -3
331
16
  1
Color_7
330
0
 90
       10
 62
     7
370
    -3
331
16
  1
Color_7
330
0
 90
       10
 62
     7
370
    -3
331
16
  1
Color_7
330
0
 90
       10
 62
     7
370
    -3
331
16
  1
Color_7
330
0
 90
       10
 62
     7
370
    -3
331
16
  1
Color_7
330
0
 90
       10
 62
     7
370
    -3
331
16
  1
Color_7
330
0
 90
       10
 62
     7
370
    -3
331
16
  1
Color_7
330
0
 90
       10
 62
     7
370
    -3
331
16
  1
Color_7
330
0
 90
       10
 62
     7
370
    -3
331
16
  1
Color_7
330
0
 90
       10
 62
     7
370
    -3
331
16
  1
Color_7
330
0
 90
       10
 62
     7
370
    -3
331
16
  1
Color_7
330
0
 90
       10
 62
     7
370
    -3
331
16
  1
Color_7
330
0
 90
       10
 62
     7
370
    -3
331
16
  1
Color_7
330
0
 90
       10
 62
     7
370
    -3
331
16
  1
Color_7
330
0
 90
       10
 62
     7
370
    -3
331
16
  1
Color_7
330
0
 90
       10
 62
     7
370
    -3
331
16
  1
Color_7
330
0
 90
       10
 62
     7
370
    -3
331
16
  1
Color_7
330
0
 90
       10
 62
     7
370
    -3
331
16
  1
Color_7
330
0
 90
       10
 62
     7
370
    -3
331
16
  1
Color_7
330
0
 90
       10
 62
     7
370
    -3
331
16
  1
Color_7
330
0
 90
       10
 62
     7
370
    -3
331
16
  1
Color_7
330
0
 90
       10
 62
     7
370
    -3
331
16
  1
Color_7
330
0
 90
       10
 62
     7
370
    -3
331
16
  1
Color_7
330
0
 90
       10
 62
     7
370
    -3
331
16
  1
Color_7
330
0
 90
       10
 62
     7
370
    -3
331
16
  1
Color_7
330
0
 90
       10
 62
     7
370
    -3
331
16
  1
Color_7
330
0
 90
       10
 62
     7
370
    -3
331
16
  1
Color_7
330
0
 90
       10
 62
     7
370
    -3
331
16
  1
Color_7
330
0
 90
       10
 62
     7
370
    -3
331
16
  1
Color_7
330
0
 90
       10
 62
     7
370
    -3
331
16
  1
Color_7
330
0
 90
       10
 62
     7
370
    -3
331
16
  1
Color_7
330
0
 90
       10
 62
     7
370
    -3
331
16
  1
Color_7
330
0
 90
       10
 62
     7
370
    -3
331
16
  1
Color_7
330
0
 90
       10
 62
     7
370
    -3
331
16
  1
Color_7
330
0
 90
       10
 62
     7
370
    -3
331
16
  1
Color_7
330
0
 90
       10
 62
     7
370
    -3
331
16
  1
Color_7
330
0
 90
       10
 62
     7
370
    -3
331
16
  1
Color_7
330
0
 90
       10
 62
     7
370
    -3
331
16
  1
Color_7
330
0
 90
       10
 62
     7
370
    -3
331
16
  1
Color_7
330
0
 90
       10
 62
     7
370
    -3
331
16
  1
Color_7
330
0
 90
       10
 62
     7
370
    -3
331
16
  1
Color_7
330
0
 90
       10
 62
     7
370
    -3
331
16
  1
Color_7
330
0
 90
       10
 62
     7
370
    -3
331
16
  1
Color_7
330
0
 90
       10
 62
     7
370
    -3
331
16
  1
Color_7
330
0
 90
       10
 62
     7
370
    -3
331
16
  1
Color_7
330
0
 90
       10
 62
     7
370
    -3
331
16
  1
Color_7
330
0
 90
       10
 62
     7
370
    -3
331
16
  1
Color_7
330
0
 90
       10
 62
     7
370
    -3
331
16
  1
Color_7
330
0
 90
       10
 62
     7
370
    -3
331
16
  1
Color_7
330
0
 90
       10
 62
     7
370
    -3
331
16
  1
Color_7
330
0
 90
       10
 62
     7
370
    -3
331
16
  1
Color_7
330
0
 90
       10
 62
     7
370
    -3
331
16
  1
Color_7
330
0
 90
       10
 62
     7
370
    -3
331
16
  1
Color_7
330
0
 90
       10
 62
     7
370
    -3
331
16
  1
Color_7
330
0
 90
       10
 62
     7
370
    -3
331
16
  1
Color_7
330
0
 90
       10
 62
     7
370
    -3
331
16
  1
Color_7
330
0
 90
       10
 62
     7
370
    -3
331
16
  1
Color_7
330
0
 90
       10
 62
     7
370
    -3
331
16
  1
Color_7
330
0
 90
       10
 62
     7
370
    -3
331
16
  1
Color_7
330
0
 90
       10
 62
     7
370
    -3
331
16
  1
Color_7
330
0
 90
       10
 62
     7
370
    -3
331
16
  1
Color_7
330
0
 90
       10
 62
     7
370
    -3
331
16
  1
Color_7
330
0
 90
       10
 62
     7
370
    -3
331
16
  1
Color_7
330
0
 90
       10
 62
     7
370
    -3
331
16
  1
Color_7
330
0
 90
       10
 62
     7
370
    -3
331
16
  1
Color_7
330
0
 90
       10
 62
     7
370
    -3
331
16
  1
Color_7
330
0
 90
       10
 62
     7
370
    -3
331
16
  1
Color_7
330
0
 90
       10
 62
     7
370
    -3
331
16
  1
Color_7
330
0
 90
        2
 62
     7
370
    -3
331
16
  1
Color_7
330
0
 90
       10
 62
     7
370
    -3
331
16
  1
Color_7
330
0
 90
        2
 62
     7
370
    -3
331
16
  1
Color_7
330
0
 90
       10
 62
     7
370
    -3
331
16
  1
Color_7
330
0
 90
        2
 62
     7
370
    -3
331
16
  1
Color_7
330
0
 90
       10
 62
     7
370
    -3
331
16
  1
Color_7
330
0
 90
        2
 62
     7
370
    -3
331
16
  1
Color_7
330
0
 90
       10
 62
     7
370
    -3
331
16
  1
Color_7
330
0
 90
        2
 62
     7
370
    -3
331
16
  1
Color_7
330
0
 90
       10
 62
     7
370
    -3
331
16
  1
Color_7
330
0
 90
        2
 62
     7
370
    -3
331
16
  1
Color_7
330
0
 90
       10
 62
     7
370
    -3
331
16
  1
Color_7
330
0
 90
        2
 62
     7
370
    -3
331
16
  1
Color_7
330
0
 90
       10
 62
     7
370
    -3
331
16
  1
Color_7
330
0
 90
        2
 62
     7
370
    -3
331
16
  1
Color_7
330
0
 90
       10
 62
     7
370
    -3
331
16
  1
Color_7
330
0
 90
        2
 62
     7
370
    -3
331
16
  1
Color_7
330
0
 90
       10
 62
     7
370
    -3
331
16
  1
Color_7
330
0
 90
        2
 62
     7
370
    -3
331
16
  1
Color_7
330
0
 90
       10
 62
     7
370
    -3
331
16
  1
Color_7
330
0
 90
        2
 62
     7
370
    -3
331
16
  1
Color_7
330
0
 90
       10
 62
     7
370
    -3
331
16
  1
Color_7
330
0
 90
        2
 62
     7
370
    -3
331
16
  1
Color_7
330
0
 90
       10
 62
     7
370
    -3
331
16
  1
Color_7
330
0
 90
        2
 62
     7
370
    -3
331
16
  1
Color_7
330
0
 90
       10
 62
     7
370
    -3
331
16
  1
Color_7
330
0
 90
        2
 62
     7
370
    -3
331
16
  1
Color_7
330
0
 90
       10
 62
     7
370
    -3
331
16
  1
Color_7
330
0
 90
        2
 62
     7
370
    -3
331
16
  1
Color_7
330
0
 90
       10
 62
     7
370
    -3
331
16
  1
Color_7
330
0
 90
        2
 62
     7
370
    -3
331
16
  1
Color_7
330
0
 90
       10
 62
     7
370
    -3
331
16
  1
Color_7
330
0
 90
        2
 62
     7
370
    -3
331
16
  1
Color_7
330
0
 90
       10
 62
     7
370
    -3
331
16
  1
Color_7
330
0
 90
        2
 62
     7
370
    -3
331
16
  1
Color_7
330
0
 90
       10
 62
     7
370
    -3
331
16
  1
Color_7
330
0
 90
        2
 62
     7
370
    -3
331
16
  1
Color_7
330
0
 90
       10
 62
     7
370
    -3
331
16
  1
Color_7
330
0
 90
        2
 62
     7
370
    -3
331
16
  1
Color_7
330
0
 90
       10
 62
     7
370
    -3
331
16
  1
Color_7
330
0
 90
        2
 62
     7
370
    -3
331
16
  1
Color_7
330
0
 90
       10
 62
     7
370
    -3
331
16
  1
Color_7
330
0
 90
        2
 62
     7
370
    -3
331
16
  1
Color_7
  0
XRECORD
  5
3D8B
102
{ACAD_XDICTIONARY
360
3D8C
102
}
102
{ACAD_REACTORS
330
290
102
}
330
290
100
AcDbXrecord
280
     1
 91
      514
301

290
     0
302
0
330
0
 90
       10
 62
     7
370
    -3
331
16
  1
Color_7
330
0
 90
       10
 62
     7
370
    -3
331
16
  1
Color_7
330
0
 90
       10
 62
     7
370
    -3
331
16
  1
Color_7
330
0
 90
        2
 62
    30
370
    -3
331
16
  1
Color_30
330
0
 90
       10
 62
   252
370
    -3
331
16
  1
Color_252
330
0
 90
       10
 62
     3
370
    30
331
16
  1
Color_3
330
0
 90
       10
 62
   253
370
    -3
331
16
  1
Color_253
330
0
 90
       10
 62
     1
370
    -3
331
16
  1
Color_1
330
0
 90
        2
 62
     5
370
    -3
331
16
  1
Color_5
330
0
 90
       10
 62
     2
370
    -3
331
16
  1
Color_2
330
0
 90
        2
 62
   178
370
    -3
331
16
  1
Color_178
 92
-1039794079
330
0
 90
       10
 62
     7
370
    -3
331
16
  1
Color_7
330
0
 90
       10
 62
     7
370
    -3
331
16
  1
Color_7
330
0
 90
       10
 62
     7
370
    -3
331
16
  1
Color_7
330
0
 90
       10
 62
     7
370
    -3
331
16
  1
Color_7
330
0
 90
       10
 62
     7
370
    -3
331
16
  1
Color_7
330
0
 90
        2
 62
     4
370
    -3
331
16
  1
Color_4
330
0
 90
        2
 62
     7
370
    -3
331
16
  1
Color_7
330
10
 90
        8
 62
     7
370
    -3
331
16
  1
Color_7
330
37D
 90
        0
 62
     7
370
    -3
331
16
  1
Color_7
330
0
 90
       10
 62
     7
370
    -3
331
16
  1
Color_7
330
0
 90
       10
 62
     7
370
    -3
331
16
  1
Color_7
330
0
 90
       10
 62
     7
370
    -3
331
16
  1
Color_7
330
0
 90
       10
 62
     7
370
    -3
331
16
  1
Color_7
330
0
 90
       10
 62
     7
370
    -3
331
16
  1
Color_7
330
0
 90
       10
 62
     7
370
    -3
331
16
  1
Color_7
330
0
 90
       10
 62
     7
370
    -3
331
16
  1
Color_7
330
0
 90
       10
 62
     7
370
    -3
331
16
  1
Color_7
330
0
 90
       10
 62
     7
370
    -3
331
16
  1
Color_7
330
0
 90
       10
 62
     7
370
    -3
331
16
  1
Color_7
330
0
 90
       10
 62
     7
370
    -3
331
16
  1
Color_7
330
0
 90
       10
 62
     7
370
    -3
331
16
  1
Color_7
330
0
 90
       10
 62
     7
370
    -3
331
16
  1
Color_7
330
0
 90
       10
 62
     7
370
    -3
331
16
  1
Color_7
330
0
 90
       10
 62
     7
370
    -3
331
16
  1
Color_7
330
0
 90
       10
 62
     7
370
    -3
331
16
  1
Color_7
330
0
 90
       10
 62
     7
370
    -3
331
16
  1
Color_7
330
0
 90
       10
 62
     7
370
    -3
331
16
  1
Color_7
330
0
 90
       10
 62
     7
370
    -3
331
16
  1
Color_7
330
0
 90
       10
 62
     7
370
    -3
331
16
  1
Color_7
330
0
 90
       10
 62
     7
370
    -3
331
16
  1
Color_7
330
0
 90
       10
 62
     7
370
    -3
331
16
  1
Color_7
330
0
 90
       10
 62
     7
370
    -3
331
16
  1
Color_7
330
0
 90
       10
 62
     7
370
    -3
331
16
  1
Color_7
330
0
 90
       10
 62
     7
370
    -3
331
16
  1
Color_7
330
0
 90
       10
 62
     7
370
    -3
331
16
  1
Color_7
330
0
 90
       10
 62
     7
370
    -3
331
16
  1
Color_7
330
0
 90
       10
 62
     7
370
    -3
331
16
  1
Color_7
330
0
 90
       10
 62
     7
370
    -3
331
16
  1
Color_7
330
0
 90
       10
 62
     7
370
    -3
331
16
  1
Color_7
330
0
 90
       10
 62
     7
370
    -3
331
16
  1
Color_7
330
0
 90
       10
 62
     7
370
    -3
331
16
  1
Color_7
330
0
 90
       10
 62
     7
370
    -3
331
16
  1
Color_7
330
0
 90
       10
 62
     7
370
    -3
331
16
  1
Color_7
330
0
 90
       10
 62
     7
370
    -3
331
16
  1
Color_7
330
0
 90
       10
 62
     7
370
    -3
331
16
  1
Color_7
330
0
 90
       10
 62
     7
370
    -3
331
16
  1
Color_7
330
0
 90
       10
 62
     7
370
    -3
331
16
  1
Color_7
330
0
 90
       10
 62
     7
370
    -3
331
16
  1
Color_7
330
0
 90
       10
 62
     7
370
    -3
331
16
  1
Color_7
330
0
 90
       10
 62
     7
370
    -3
331
16
  1
Color_7
330
0
 90
       10
 62
     7
370
    -3
331
16
  1
Color_7
330
0
 90
       10
 62
     7
370
    -3
331
16
  1
Color_7
330
0
 90
       10
 62
     7
370
    -3
331
16
  1
Color_7
330
0
 90
       10
 62
     7
370
    -3
331
16
  1
Color_7
330
0
 90
       10
 62
     7
370
    -3
331
16
  1
Color_7
330
0
 90
       10
 62
     7
370
    -3
331
16
  1
Color_7
330
0
 90
       10
 62
     7
370
    -3
331
16
  1
Color_7
330
0
 90
       10
 62
     7
370
    -3
331
16
  1
Color_7
330
0
 90
       10
 62
     7
370
    -3
331
16
  1
Color_7
330
0
 90
       10
 62
     7
370
    -3
331
16
  1
Color_7
330
0
 90
       10
 62
     7
370
    -3
331
16
  1
Color_7
330
0
 90
       10
 62
     7
370
    -3
331
16
  1
Color_7
330
0
 90
       10
 62
     7
370
    -3
331
16
  1
Color_7
330
0
 90
       10
 62
     7
370
    -3
331
16
  1
Color_7
330
0
 90
       10
 62
     7
370
    -3
331
16
  1
Color_7
330
0
 90
       10
 62
     7
370
    -3
331
16
  1
Color_7
330
0
 90
       10
 62
     7
370
    -3
331
16
  1
Color_7
330
0
 90
       10
 62
     7
370
    -3
331
16
  1
Color_7
330
0
 90
       10
 62
     7
370
    -3
331
16
  1
Color_7
330
0
 90
       10
 62
     7
370
    -3
331
16
  1
Color_7
330
0
 90
       10
 62
     7
370
    -3
331
16
  1
Color_7
330
0
 90
       10
 62
     7
370
    -3
331
16
  1
Color_7
330
0
 90
       10
 62
     7
370
    -3
331
16
  1
Color_7
330
0
 90
       10
 62
     7
370
    -3
331
16
  1
Color_7
330
0
 90
       10
 62
     7
370
    -3
331
16
  1
Color_7
330
0
 90
       10
 62
     7
370
    -3
331
16
  1
Color_7
330
0
 90
       10
 62
     7
370
    -3
331
16
  1
Color_7
330
0
 90
       10
 62
     7
370
    -3
331
16
  1
Color_7
330
0
 90
       10
 62
     7
370
    -3
331
16
  1
Color_7
330
0
 90
       10
 62
     7
370
    -3
331
16
  1
Color_7
330
0
 90
       10
 62
     7
370
    -3
331
16
  1
Color_7
330
0
 90
       10
 62
     7
370
    -3
331
16
  1
Color_7
330
0
 90
       10
 62
     7
370
    -3
331
16
  1
Color_7
330
0
 90
       10
 62
     7
370
    -3
331
16
  1
Color_7
330
0
 90
       10
 62
     7
370
    -3
331
16
  1
Color_7
330
0
 90
       10
 62
     7
370
    -3
331
16
  1
Color_7
330
0
 90
       10
 62
     7
370
    -3
331
16
  1
Color_7
330
0
 90
       10
 62
     7
370
    -3
331
16
  1
Color_7
330
0
 90
        2
 62
     7
370
    -3
331
16
  1
Color_7
330
0
 90
       10
 62
     7
370
    -3
331
16
  1
Color_7
330
0
 90
        2
 62
     7
370
    -3
331
16
  1
Color_7
330
0
 90
       10
 62
     7
370
    -3
331
16
  1
Color_7
330
0
 90
        2
 62
     7
370
    -3
331
16
  1
Color_7
330
0
 90
       10
 62
     7
370
    -3
331
16
  1
Color_7
330
0
 90
        2
 62
     7
370
    -3
331
16
  1
Color_7
330
0
 90
       10
 62
     7
370
    -3
331
16
  1
Color_7
330
0
 90
        2
 62
     7
370
    -3
331
16
  1
Color_7
330
0
 90
       10
 62
     7
370
    -3
331
16
  1
Color_7
330
0
 90
        2
 62
     7
370
    -3
331
16
  1
Color_7
330
0
 90
       10
 62
     7
370
    -3
331
16
  1
Color_7
330
0
 90
        2
 62
     7
370
    -3
331
16
  1
Color_7
330
0
 90
       10
 62
     7
370
    -3
331
16
  1
Color_7
330
0
 90
        2
 62
     7
370
    -3
331
16
  1
Color_7
330
0
 90
       10
 62
     7
370
    -3
331
16
  1
Color_7
330
0
 90
        2
 62
     7
370
    -3
331
16
  1
Color_7
330
0
 90
       10
 62
     7
370
    -3
331
16
  1
Color_7
330
0
 90
        2
 62
     7
370
    -3
331
16
  1
Color_7
330
0
 90
       10
 62
     7
370
    -3
331
16
  1
Color_7
330
0
 90
        2
 62
     7
370
    -3
331
16
  1
Color_7
330
0
 90
       10
 62
     7
370
    -3
331
16
  1
Color_7
330
0
 90
        2
 62
     7
370
    -3
331
16
  1
Color_7
330
0
 90
       10
 62
     7
370
    -3
331
16
  1
Color_7
330
0
 90
        2
 62
     7
370
    -3
331
16
  1
Color_7
330
0
 90
       10
 62
     7
370
    -3
331
16
  1
Color_7
330
0
 90
        2
 62
     7
370
    -3
331
16
  1
Color_7
330
0
 90
       10
 62
     7
370
    -3
331
16
  1
Color_7
330
0
 90
        2
 62
     7
370
    -3
331
16
  1
Color_7
330
0
 90
       10
 62
     7
370
    -3
331
16
  1
Color_7
330
0
 90
        2
 62
     7
370
    -3
331
16
  1
Color_7
330
0
 90
       10
 62
     7
370
    -3
331
16
  1
Color_7
330
0
 90
        2
 62
     7
370
    -3
331
16
  1
Color_7
330
0
 90
       10
 62
     7
370
    -3
331
16
  1
Color_7
330
0
 90
        2
 62
     7
370
    -3
331
16
  1
Color_7
330
0
 90
       10
 62
     7
370
    -3
331
16
  1
Color_7
330
0
 90
        2
 62
     7
370
    -3
331
16
  1
Color_7
330
0
 90
       10
 62
     7
370
    -3
331
16
  1
Color_7
330
0
 90
        2
 62
     7
370
    -3
331
16
  1
Color_7
330
0
 90
       10
 62
     7
370
    -3
331
16
  1
Color_7
330
0
 90
        2
 62
     7
370
    -3
331
16
  1
Color_7
330
0
 90
       10
 62
     7
370
    -3
331
16
  1
Color_7
330
0
 90
        2
 62
     7
370
    -3
331
16
  1
Color_7
  0
XRECORD
  5
B371
102
{ACAD_XDICTIONARY
360
B372
102
}
102
{ACAD_REACTORS
330
290
102
}
330
290
100
AcDbXrecord
280
     1
 91
      514
301

290
     0
302
0
330
0
 90
        8
 62
     7
370
    -3
  6
Continuous
  1
Color_7
330
0
 90
        8
 62
     7
370
    -3
  6
Continuous
  1
Color_7
330
0
 90
        8
 62
     7
370
    -3
  6
Continuous
  1
Color_7
330
0
 90
        0
 62
    30
370
    -3
  6
Continuous
  1
Color_30
330
0
 90
        8
 62
   252
370
    -3
  6
Continuous
  1
Color_252
330
0
 90
        8
 62
     3
370
    30
  6
Continuous
  1
Color_3
330
0
 90
        8
 62
   253
370
    -3
  6
Continuous
  1
Color_253
330
0
 90
        8
 62
     1
370
    -3
  6
Continuous
  1
Color_1
330
0
 90
        0
 62
     5
370
    -3
  6
Continuous
  1
Color_5
330
0
 90
        8
 62
     2
370
    -3
  6
Continuous
  1
Color_2
330
0
 90
        0
 62
   178
370
    -3
  6
Continuous
  1
Color_178
 92
-1039794079
330
0
 90
        8
 62
     7
370
    -3
  6
Continuous
  1
Color_7
330
0
 90
        8
 62
     7
370
    -3
  6
Continuous
  1
Color_7
330
0
 90
        8
 62
     7
370
    -3
  6
Continuous
  1
Color_7
330
0
 90
        8
 62
     7
370
    -3
  6
Continuous
  1
Color_7
330
0
 90
        8
 62
     7
370
    -3
  6
Continuous
  1
Color_7
330
0
 90
        0
 62
     4
370
    -3
  6
Continuous
  1
Color_4
330
0
 90
        0
 62
     7
370
    -3
  6
Continuous
  1
Color_7
  8
defpoints
 90
        0
 62
     7
370
    -3
  6
Continuous
  1
Color_7
  8
0
 90
        8
 62
     7
370
    -3
  6
Continuous
  1
Color_7
330
0
 90
       10
 62
     7
370
    -3
  6
Continuous
  1
Color_7
330
0
 90
       10
 62
     7
370
    -3
  6
Continuous
  1
Color_7
330
0
 90
       10
 62
     7
370
    -3
  6
Continuous
  1
Color_7
330
0
 90
       10
 62
     7
370
    -3
  6
Continuous
  1
Color_7
330
0
 90
       10
 62
     7
370
    -3
  6
Continuous
  1
Color_7
330
0
 90
       10
 62
     7
370
    -3
  6
Continuous
  1
Color_7
330
0
 90
       10
 62
     7
370
    -3
  6
Continuous
  1
Color_7
330
0
 90
       10
 62
     7
370
    -3
  6
Continuous
  1
Color_7
330
0
 90
       10
 62
     7
370
    -3
  6
Continuous
  1
Color_7
330
0
 90
       10
 62
     7
370
    -3
  6
Continuous
  1
Color_7
330
0
 90
        2
 62
     7
370
    -3
  6
Continuous
  1
Color_7
330
0
 90
       10
 62
     7
370
    -3
  6
Continuous
  1
Color_7
330
0
 90
        2
 62
     7
370
    -3
  6
Continuous
  1
Color_7
330
0
 90
       10
 62
     7
370
    -3
  6
Continuous
  1
Color_7
330
0
 90
        2
 62
     7
370
    -3
  6
Continuous
  1
Color_7
330
0
 90
       10
 62
     7
370
    -3
  6
Continuous
  1
Color_7
330
0
 90
        2
 62
     7
370
    -3
  6
Continuous
  1
Color_7
330
0
 90
       10
 62
     7
370
    -3
  6
Continuous
  1
Color_7
330
0
 90
        2
 62
     7
370
    -3
  6
Continuous
  1
Color_7
330
0
 90
       10
 62
     7
370
    -3
  6
Continuous
  1
Color_7
330
0
 90
        2
 62
     7
370
    -3
  6
Continuous
  1
Color_7
330
0
 90
       10
 62
     7
370
    -3
  6
Continuous
  1
Color_7
330
0
 90
        2
 62
     7
370
    -3
  6
Continuous
  1
Color_7
  0
XRECORD
  5
B375
102
{ACAD_XDICTIONARY
360
B376
102
}
102
{ACAD_REACTORS
330
290
102
}
330
290
100
AcDbXrecord
280
     1
 91
      514
301

290
     0
302
0
330
0
 90
       10
 62
     7
370
    -3
  6
Continuous
  1
Color_7
330
0
 90
       10
 62
     7
370
    -3
  6
Continuous
  1
Color_7
330
0
 90
       10
 62
     7
370
    -3
  6
Continuous
  1
Color_7
330
0
 90
        2
 62
    30
370
    -3
  6
Continuous
  1
Color_30
330
0
 90
       10
 62
   252
370
    -3
  6
Continuous
  1
Color_252
330
0
 90
       10
 62
     3
370
    30
  6
Continuous
  1
Color_3
330
0
 90
       10
 62
   253
370
    -3
  6
Continuous
  1
Color_253
330
0
 90
       10
 62
     1
370
    -3
  6
Continuous
  1
Color_1
330
0
 90
        2
 62
     5
370
    -3
  6
Continuous
  1
Color_5
330
0
 90
       10
 62
     2
370
    -3
  6
Continuous
  1
Color_2
330
0
 90
        2
 62
   178
370
    -3
  6
Continuous
  1
Color_178
 92
-1039794079
330
0
 90
       10
 62
     7
370
    -3
  6
Continuous
  1
Color_7
330
0
 90
       10
 62
     7
370
    -3
  6
Continuous
  1
Color_7
330
0
 90
       10
 62
     7
370
    -3
  6
Continuous
  1
Color_7
330
0
 90
       10
 62
     7
370
    -3
  6
Continuous
  1
Color_7
330
0
 90
       10
 62
     7
370
    -3
  6
Continuous
  1
Color_7
330
0
 90
        2
 62
     4
370
    -3
  6
Continuous
  1
Color_4
330
0
 90
        2
 62
     7
370
    -3
  6
Continuous
  1
Color_7
  8
0
 90
        8
 62
     7
370
    -3
  6
Continuous
  1
Color_7
  8
defpoints
 90
        0
 62
     7
370
    -3
  6
Continuous
  1
Color_7
330
0
 90
       10
 62
     7
370
    -3
  6
Continuous
  1
Color_7
330
0
 90
       10
 62
     7
370
    -3
  6
Continuous
  1
Color_7
330
0
 90
       10
 62
     7
370
    -3
  6
Continuous
  1
Color_7
330
0
 90
       10
 62
     7
370
    -3
  6
Continuous
  1
Color_7
330
0
 90
       10
 62
     7
370
    -3
  6
Continuous
  1
Color_7
330
0
 90
       10
 62
     7
370
    -3
  6
Continuous
  1
Color_7
330
0
 90
       10
 62
     7
370
    -3
  6
Continuous
  1
Color_7
330
0
 90
       10
 62
     7
370
    -3
  6
Continuous
  1
Color_7
330
0
 90
       10
 62
     7
370
    -3
  6
Continuous
  1
Color_7
330
0
 90
       10
 62
     7
370
    -3
  6
Continuous
  1
Color_7
330
0
 90
        2
 62
     7
370
    -3
  6
Continuous
  1
Color_7
330
0
 90
       10
 62
     7
370
    -3
  6
Continuous
  1
Color_7
330
0
 90
        2
 62
     7
370
    -3
  6
Continuous
  1
Color_7
330
0
 90
       10
 62
     7
370
    -3
  6
Continuous
  1
Color_7
330
0
 90
        2
 62
     7
370
    -3
  6
Continuous
  1
Color_7
330
0
 90
       10
 62
     7
370
    -3
  6
Continuous
  1
Color_7
330
0
 90
        2
 62
     7
370
    -3
  6
Continuous
  1
Color_7
330
0
 90
       10
 62
     7
370
    -3
  6
Continuous
  1
Color_7
330
0
 90
        2
 62
     7
370
    -3
  6
Continuous
  1
Color_7
330
0
 90
       10
 62
     7
370
    -3
  6
Continuous
  1
Color_7
330
0
 90
        2
 62
     7
370
    -3
  6
Continuous
  1
Color_7
330
0
 90
       10
 62
     7
370
    -3
  6
Continuous
  1
Color_7
330
0
 90
        2
 62
     7
370
    -3
  6
Continuous
  1
Color_7
  0
DICTIONARY
  5
170C
330
16BA
100
AcDbDictionary
280
     1
281
     1
  0
DICTIONARY
  5
4377
330
22
100
AcDbDictionary
280
     1
281
     1
  0
DICTIONARY
  5
B383
330
B382
100
AcDbDictionary
280
     1
281
     1
  3
ACAD_ROUNDTRIP_2008_TABLESTYLE_CELLSTYLEMAP
360
B3D6
  0
DICTIONARY
  5
30E
330
22C
100
AcDbDictionary
280
     1
281
     1
  3
ACAD_ROUNDTRIP_2008_TABLESTYLE_CELLSTYLEMAP
360
B3D3
  0
DICTIONARY
  5
811
330
223
100
AcDbDictionary
280
     1
281
     1
  3
LightingQuality
360
812
  0
XRECORD
  5
A38
102
{ACAD_REACTORS
330
A22
102
}
330
A22
100
AcDbXrecord
280
     1
1000
AIA Version 3
  0
BINRECORD
  5
A23
102
{ACAD_REACTORS
330
A22
102
}
330
A22
100
AcAecBinRecord
 90
        0
 91
    19403
 70
     0
310
0100FFFEFF0D4100490041002000560065007200730069006F006E00200033000500FFFF01001C004163416563556B4C6179657244657363726970746976654669656C64FFFEFF154400690073006300690070006C0069006E0065002000440065007300690067006E00610074006F0072000102000000007B333637354541
310
46100100002100000070BA406CD0EA76040B00FFFEFF001500FFFEFF01440002000000FFFEFF07500072006F0063006500730073000E00FFFEFF01440002000000FFFEFF12500072006F0063006500730073002000440065006D006F006C006900740069006F006E00000000000000FFFEFF01560002000000FFFEFF0E5000
310
72006F0063006500730073002000560061006300750075006D00000000000000FFFEFF01450002000000FFFEFF12500072006F006300650073007300200045006C0065006300740072006900630061006C00000000000000FFFEFF01570002000000FFFEFF0E500072006F0063006500730073002000570061007400650072
310
007300000000000000FFFEFF01580002000000FFFEFF0F500072006F00630065007300730020004500780068006100750073007400000000000000FFFEFF01470002000000FFFEFF0D500072006F006300650073007300200047006100730065007300000000000000FFFEFF014F0002000000FFFEFF0B500072006F006300
310
65007300730020004F0069006C00000000000000FFFEFF01500002000000FFFEFF0E500072006F006300650073007300200050006900700069006E006700000000000000FFFEFF01510002000000FFFEFF11500072006F0063006500730073002000450071007500690070006D0065006E007400000000000000FFFEFF0152
310
0002000000FFFEFF19500072006F006300650073007300200044007200610069006E0073002000260020005200650063006C00610069006D007300000000000000FFFEFF01410002000000FFFEFF0C500072006F00630065007300730020004100690072007300000000000000FFFEFF01530002000000FFFEFF0C50007200
310
6F00630065007300730020005300690074006500000000000000FFFEFF01540002000000FFFEFF18500072006F006300650073007300200045006E0074007200610069006E0065006400200053006F006C00690064007300000000000000FFFEFF01430002000000FFFEFF11500072006F0063006500730073002000430068
310
0065006D006900630061006C00730000000000000000000000FFFEFF01560002000000FFFEFF1053007500720076006500790020002F0020004D0061007000700069006E0067000500FFFEFF01460002000000FFFEFF0C4600690065006C0064002000530075007200760065007900000000000000FFFEFF01490002000000
310
FFFEFF0E4400690067006900740061006C002000530075007200760065007900000000000000FFFEFF014A0002000000FFFEFF1F53007500720076006500790020002F0020004D0061007000700069006E006700200028005500730065007200200044006500660069006E00650064002900000000000000FFFEFF014B0002
310
000000FFFEFF1F53007500720076006500790020002F0020004D0061007000700069006E006700200028005500730065007200200044006500660069006E00650064002900000000000000FFFEFF01410002000000FFFEFF0D410065007200690061006C00200053007500720076006500790000000000000000000000FFFE
310
FF01450002000000FFFEFF0A45006C0065006300740072006900630061006C000900FFFEFF01440002000000FFFEFF1545006C0065006300740072006900630061006C002000440065006D006F006C006900740069006F006E00000000000000FFFEFF01590002000000FFFEFF1C45006C0065006300740072006900630061
310
006C00200041007500780069006C0069006100720079002000530079007300740065006D007300000000000000FFFEFF01490002000000FFFEFF1A45006C0065006300740072006900630061006C00200049006E0073007400720075006D0065006E0074006100740069006F006E00000000000000FFFEFF014A0002000000
310
FFFEFF1945006C0065006300740072006900630061006C00200028005500730065007200200044006500660069006E00650064002900000000000000FFFEFF014B0002000000FFFEFF1945006C0065006300740072006900630061006C00200028005500730065007200200044006500660069006E00650064002900000000
310
000000FFFEFF014C0002000000FFFEFF1345006C0065006300740072006900630061006C0020004C00690067006800740069006E006700000000000000FFFEFF01500002000000FFFEFF1045006C0065006300740072006900630061006C00200050006F00770065007200000000000000FFFEFF01530002000000FFFEFF0F
310
45006C0065006300740072006900630061006C0020005300690074006500000000000000FFFEFF01540002000000FFFEFF1D45006C0065006300740072006900630061006C002000540065006C00650063006F006D006D0075006E00690063006100740069006F006E00730000000000000000000000FFFEFF015700020000
310
00FFFEFF0B43006900760069006C00200057006F0072006B0073000200FFFEFF014A0002000000FFFEFF1A43006900760069006C00200057006F0072006B007300200028005500730065007200200044006500660069006E00650064002900000000000000FFFEFF014B0002000000FFFEFF1A43006900760069006C002000
310
57006F0072006B007300200028005500730065007200200044006500660069006E0065006400290000000000000000000000FFFEFF01460002000000FFFEFF0F46006900720065002000500072006F00740065006300740069006F006E000400FFFEFF014A0002000000FFFEFF134600690072006500200028005500730065
310
007200200044006500660069006E00650064002900000000000000FFFEFF014B0002000000FFFEFF134600690072006500200028005500730065007200200044006500660069006E00650064002900000000000000FFFEFF01410002000000FFFEFF184600690072006500200044006500740065006300740069006F006E00
310
200061006E006400200041006C00610072006D00000000000000FFFEFF01530002000000FFFEFF10460069007200650020005300750070007000720065007300730069006F006E0000000000000000000000FFFEFF01470002000000FFFEFF07470065006E006500720061006C000500FFFEFF01490002000000FFFEFF1347
310
0065006E006500720061006C00200049006E0066006F0072006D006100740069006F006E00000000000000FFFEFF014A0002000000FFFEFF16470065006E006500720061006C00200028005500730065007200200044006500660069006E00650064002900000000000000FFFEFF014B0002000000FFFEFF16470065006E00
310
6500720061006C00200028005500730065007200200044006500660069006E00650064002900000000000000FFFEFF01520002000000FFFEFF10470065006E006500720061006C0020005200650073006F007500720063006500000000000000FFFEFF01430002000000FFFEFF13470065006E006500720061006C00200043
310
006F006E0074007200610063007400750061006C0000000000000000000000FFFEFF01580002000000FFFEFF114F00740068006500720020004400690073006300690070006C0069006E00650073000200FFFEFF014A0002000000FFFEFF204F00740068006500720020004400690073006300690070006C0069006E006500
310
7300200028005500730065007200200044006500660069006E00650064002900000000000000FFFEFF014B0002000000FFFEFF204F00740068006500720020004400690073006300690070006C0069006E0065007300200028005500730065007200200044006500660069006E0065006400290000000000000000000000FF
310
FEFF01480002000000FFFEFF13480061007A006100720064006F007500730020004D006100740065007200690061006C0073000700FFFEFF014A0002000000FFFEFF22480061007A006100720064006F007500730020004D006100740065007200690061006C00730020002800550073006500720020004400650066006900
310
6E00650064002900000000000000FFFEFF014B0002000000FFFEFF22480061007A006100720064006F007500730020004D006100740065007200690061006C007300200028005500730065007200200044006500660069006E00650064002900000000000000FFFEFF014C0002000000FFFEFF044C00650061006400000000
310
000000FFFEFF01500002000000FFFEFF03500043004200000000000000FFFEFF01520002000000FFFEFF0C5200650066007200690067006500720061006E0074007300000000000000FFFEFF01410002000000FFFEFF084100730062006500730074006F007300000000000000FFFEFF01430002000000FFFEFF0943006800
310
65006D006900630061006C00730000000000000000000000FFFEFF01490002000000FFFEFF0949006E0074006500720069006F00720073000600FFFEFF01440002000000FFFEFF1349006E0074006500720069006F0072002000440065006D006F006C006900740069006F006E00000000000000FFFEFF01460002000000FF
310
FEFF1149006E0074006500720069006F0072002000460069006E0069007300680065007300000000000000FFFEFF01470002000000FFFEFF1249006E0074006500720069006F0072007300200047007200610070006800690063007300000000000000FFFEFF014A0002000000FFFEFF1849006E0074006500720069006F00
310
72007300200028005500730065007200200044006500660069006E00650064002900000000000000FFFEFF014B0002000000FFFEFF1849006E0074006500720069006F0072007300200028005500730065007200200044006500660069006E00650064002900000000000000FFFEFF014E0002000000FFFEFF0F49006E0074
310
006500720069006F0072002000440065007300690067006E0000000000000000000000FFFEFF015A0002000000FFFEFF1A43006F006E00740072006100630074006F00720020002F002000530068006F0070002000440072006100770069006E00670073000200FFFEFF014A0002000000FFFEFF2943006F006E0074007200
310
6100630074006F00720020002F002000530068006F0070002000440072006100770069006E0067007300200028005500730065007200200044006500660069006E00650064002900000000000000FFFEFF014B0002000000FFFEFF2943006F006E00740072006100630074006F00720020002F002000530068006F00700020
310
00440072006100770069006E0067007300200028005500730065007200200044006500660069006E0065006400290000000000000000000000FFFEFF014C0002000000FFFEFF094C0061006E006400730063006100700065000500FFFEFF01440002000000FFFEFF144C0061006E0064007300630061007000650020004400
310
65006D006F006C006900740069006F006E00000000000000FFFEFF01490002000000FFFEFF144C0061006E006400730063006100700065002000490072007200690067006100740069006F006E00000000000000FFFEFF014A0002000000FFFEFF184C0061006E006400730063006100700065002000280055007300650072
310
00200044006500660069006E00650064002900000000000000FFFEFF014B0002000000FFFEFF184C0061006E00640073006300610070006500200028005500730065007200200044006500660069006E00650064002900000000000000FFFEFF01500002000000FFFEFF124C0061006E006400730063006100700065002000
310
50006C0061006E00740069006E00670000000000000000000000FFFEFF014D0002000000FFFEFF0A4D0065006300680061006E006900630061006C000700FFFEFF01440002000000FFFEFF154D0065006300680061006E006900630061006C002000440065006D006F006C006900740069006F006E00000000000000FFFEFF
310
01480002000000FFFEFF0F4D0065006300680061006E006900630061006C0020004800560041004300000000000000FFFEFF01490002000000FFFEFF1A4D0065006300680061006E006900630061006C00200049006E0073007400720075006D0065006E0074006100740069006F006E00000000000000FFFEFF014A000200
310
0000FFFEFF194D0065006300680061006E006900630061006C00200028005500730065007200200044006500660069006E00650064002900000000000000FFFEFF014B0002000000FFFEFF194D0065006300680061006E006900630061006C00200028005500730065007200200044006500660069006E0065006400290000
310
0000000000FFFEFF01500002000000FFFEFF114D0065006300680061006E006900630061006C00200050006900700069006E006700000000000000FFFEFF01530002000000FFFEFF0F4D0065006300680061006E006900630061006C002000530069007400650000000000000000000000FFFEFF014F0002000000FFFEFF0A
310
4F007000650072006100740069006F006E0073000200FFFEFF014A0002000000FFFEFF194F007000650072006100740069006F006E007300200028005500730065007200200044006500660069006E00650064002900000000000000FFFEFF014B0002000000FFFEFF194F007000650072006100740069006F006E00730020
310
0028005500730065007200200044006500660069006E0065006400290000000000000000000000FFFEFF01500002000000FFFEFF0850006C0075006D00620069006E0067000600FFFEFF01440002000000FFFEFF1350006C0075006D00620069006E0067002000440065006D006F006C006900740069006F006E0000000000
310
0000FFFEFF014A0002000000FFFEFF1750006C0075006D00620069006E006700200028005500730065007200200044006500660069006E00650064002900000000000000FFFEFF014B0002000000FFFEFF1750006C0075006D00620069006E006700200028005500730065007200200044006500660069006E006500640029
310
00000000000000FFFEFF01500002000000FFFEFF0F50006C0075006D00620069006E006700200050006900700069006E006700000000000000FFFEFF01510002000000FFFEFF1250006C0075006D00620069006E0067002000450071007500690070006D0065006E007400000000000000FFFEFF01530002000000FFFEFF0D
310
50006C0075006D00620069006E0067002000530069007400650000000000000000000000FFFEFF01510002000000FFFEFF09450071007500690070006D0065006E0074001100FFFEFF01440002000000FFFEFF1344006500740065006E00740069006F006E002000450071007500690070006D0065006E0074000000000000
310
00FFFEFF01560002000000FFFEFF1C56006900640065006F002F00500068006F0074006F0067007200610070006800690063002000450071007500690070006D0065006E007400000000000000FFFEFF01450002000000FFFEFF1545006400750063006100740069006F006E0061006C002000450071007500690070006D00
310
65006E007400000000000000FFFEFF01460002000000FFFEFF1646006F006F006400200053006500720076006900630065002000450071007500690070006D0065006E007400000000000000FFFEFF01590002000000FFFEFF12530065006300750072006900740079002000450071007500690070006D0065006E00740000
310
0000000000FFFEFF01480002000000FFFEFF1248006F00730070006900740061006C002000450071007500690070006D0065006E007400000000000000FFFEFF014A0002000000FFFEFF18450071007500690070006D0065006E007400200028005500730065007200200044006500660069006E0065006400290000000000
310
0000FFFEFF014B0002000000FFFEFF18450071007500690070006D0065006E007400200028005500730065007200200044006500660069006E00650064002900000000000000FFFEFF014C0002000000FFFEFF144C00610062006F007200610074006F00720079002000450071007500690070006D0065006E007400000000
310
000000FFFEFF014D0002000000FFFEFF154D00610069006E00740065006E0061006E00630065002000450071007500690070006D0065006E007400000000000000FFFEFF01500002000000FFFEFF155000610072006B0069006E00670020004C006F0074002000450071007500690070006D0065006E007400000000000000
310
FFFEFF01520002000000FFFEFF10520065007400610069006C002000450071007500690070006D0065006E007400000000000000FFFEFF01410002000000FFFEFF124100740068006C0065007400690063002000450071007500690070006D0065006E007400000000000000FFFEFF01530002000000FFFEFF0E5300690074
310
0065002000450071007500690070006D0065006E007400000000000000FFFEFF01420002000000FFFEFF0E420061006E006B002000450071007500690070006D0065006E007400000000000000FFFEFF01540002000000FFFEFF145400680065006100740072006900630061006C002000450071007500690070006D006500
310
6E007400000000000000FFFEFF01430002000000FFFEFF16440072007900200043006C00650061006E0069006E0067002000450071007500690070006D0065006E00740000000000000000000000FFFEFF01410002000000FFFEFF0D4100720063006800690074006500630074007500720061006C000A00FFFEFF01440002
310
000000FFFEFF184100720063006800690074006500630074007500720061006C002000440065006D006F006C006900740069006F006E00000000000000FFFEFF01450002000000FFFEFF164100720063006800690074006500630074007500720061006C00200045006C0065006D0065006E0074007300000000000000FFFE
310
FF01460002000000FFFEFF164100720063006800690074006500630074007500720061006C002000460069006E0069007300680065007300000000000000FFFEFF01470002000000FFFEFF164100720063006800690074006500630074007500720061006C00200047007200610070006800690063007300000000000000FF
310
FEFF01490002000000FFFEFF164100720063006800690074006500630074007500720061006C00200049006E0074006500720069006F007200000000000000FFFEFF014A0002000000FFFEFF1C4100720063006800690074006500630074007500720061006C00200028005500730065007200200044006500660069006E00
310
650064002900000000000000FFFEFF014B0002000000FFFEFF1C4100720063006800690074006500630074007500720061006C00200028005500730065007200200044006500660069006E00650064002900000000000000FFFEFF01500002000000FFFEFF144100720063006800690074006500630074007500720061006C
310
00200050006100760069006E006700000000000000FFFEFF01530002000000FFFEFF124100720063006800690074006500630074007500720061006C0020005300690074006500000000000000FFFEFF01540002000000FFFEFF1C4100720063006800690074006500630074007500720061006C0020005400720061006E00
310
730070006F00720074006100740069006F006E0000000000000001000000FFFEFF01520002000000FFFEFF085200650073006F0075007200630065000700FFFEFF01450002000000FFFEFF135200650073006F007500720063006500200045006C0065006300740072006900630061006C00000000000000FFFEFF014A0002
310
000000FFFEFF175200650073006F007500720063006500200028005500730065007200200044006500660069006E00650064002900000000000000FFFEFF014B0002000000FFFEFF175200650073006F007500720063006500200028005500730065007200200044006500660069006E00650064002900000000000000FFFE
310
FF014D0002000000FFFEFF135200650073006F00750072006300650020004D0065006300680061006E006900630061006C00000000000000FFFEFF01410002000000FFFEFF165200650073006F00750072006300650020004100720063006800690074006500630074007500720061006C00000000000000FFFEFF01530002
310
000000FFFEFF135200650073006F00750072006300650020005300740072007500630074007500720061006C00000000000000FFFEFF01430002000000FFFEFF0E5200650073006F007500720063006500200043006900760069006C0000000000000000000000FFFEFF01420002000000FFFEFF0C470065006F0074006500
310
630068006E006900630061006C000200FFFEFF014A0002000000FFFEFF1B470065006F0074006500630068006E006900630061006C00200028005500730065007200200044006500660069006E00650064002900000000000000FFFEFF014B0002000000FFFEFF1B470065006F0074006500630068006E006900630061006C
310
00200028005500730065007200200044006500660069006E0065006400290000000000000000000000FFFEFF01530002000000FFFEFF0A5300740072007500630074007500720061006C000600FFFEFF01440002000000FFFEFF155300740072007500630074007500720061006C002000440065006D006F006C0069007400
310
69006F006E00000000000000FFFEFF01460002000000FFFEFF125300740072007500630074007500720061006C0020004600720061006D0069006E006700000000000000FFFEFF014A0002000000FFFEFF195300740072007500630074007500720061006C00200028005500730065007200200044006500660069006E0065
310
0064002900000000000000FFFEFF014B0002000000FFFEFF195300740072007500630074007500720061006C00200028005500730065007200200044006500660069006E00650064002900000000000000FFFEFF01530002000000FFFEFF0F5300740072007500630074007500720061006C00200053006900740065000000
310
00000000FFFEFF01420002000000FFFEFF175300740072007500630074007500720061006C00200053007500620073007400720075006300740075007200650000000000000000000000FFFEFF01430002000000FFFEFF0543006900760069006C000900FFFEFF01440002000000FFFEFF1043006900760069006C00200044
310
0065006D006F006C006900740069006F006E00000000000000FFFEFF01550002000000FFFEFF0F43006900760069006C0020005500740069006C0069007400690065007300000000000000FFFEFF01470002000000FFFEFF0D43006900760069006C002000470072006100640069006E006700000000000000FFFEFF014900
310
02000000FFFEFF1243006900760069006C00200049006D00700072006F00760065006D0065006E0074007300000000000000FFFEFF014A0002000000FFFEFF1443006900760069006C00200028005500730065007200200044006500660069006E00650064002900000000000000FFFEFF014B0002000000FFFEFF14430069
310
00760069006C00200028005500730065007200200044006500660069006E00650064002900000000000000FFFEFF01500002000000FFFEFF0C43006900760069006C00200050006100760069006E006700000000000000FFFEFF01530002000000FFFEFF0A43006900760069006C0020005300690074006500000000000000
310
FFFEFF01540002000000FFFEFF1443006900760069006C0020005400720061006E00730070006F00720074006100740069006F006E0000000000000000000000FFFEFF01540002000000FFFEFF12540065006C00650063006F006D006D0075006E00690063006100740069006F006E0073000900FFFEFF01590002000000FF
310
FEFF0853006500630075007200690074007900000000000000FFFEFF01490002000000FFFEFF0849006E0074006500720063006F006D00000000000000FFFEFF014A0002000000FFFEFF21540065006C00650063006F006D006D0075006E00690063006100740069006F006E00730020002800550073006500720020004400
310
6500660069006E00650064002900000000000000FFFEFF014B0002000000FFFEFF21540065006C00650063006F006D006D0075006E00690063006100740069006F006E007300200028005500730065007200200044006500660069006E00650064002900000000000000FFFEFF014D0002000000FFFEFF0A4D006F006E0069
310
0074006F00720069006E006700000000000000FFFEFF014E0002000000FFFEFF0D440061007400610020004E006500740077006F0072006B007300000000000000FFFEFF01410002000000FFFEFF0E41007500640069006F0020002F002000560069007300750061006C00000000000000FFFEFF01540002000000FFFEFF09
310
540065006C006500700068006F006E006500000000000000FFFEFF01430002000000FFFEFF1143006C006F0063006B00200061006E0064002000500072006F006700720061006D00000000000000000000000180FFFEFF054D0061006A006F0072000300000000000000000000000000000000000000000000000000000000
310
000000FFFEFF002300FFFEFF052D0046006C006F00720002000000FFFEFF0546006C006F006F007200000000000000FFFEFF052D004500710070006D0002000000FFFEFF09450071007500690070006D0065006E007400000000000000FFFEFF052D00530069007400650002000000FFFEFF09530069007400650020007000
310
6C0061006E00000000000000FFFEFF052D0050006C0061006E0002000000FFFEFF154B0065007900200070006C0061006E002000280066006C006F006F007200200070006C0061006E002900000000000000FFFEFF052D004400650074006C0002000000FFFEFF06440065007400610069006C00000000000000FFFEFF052D
310
0054006F0070006F0002000000FFFEFF0A54006F0070006F00670072006100700068007900000000000000FFFEFF052D004300740072006C0002000000FFFEFF0E43006F006E00740072006F006C00200050006F0069006E0074007300000000000000FFFEFF052D004600750072006E0002000000FFFEFF0B460075007200
310
6E0069007300680069006E0067007300000000000000FFFEFF052D0053006C006100620002000000FFFEFF0553006C00610062007300000000000000FFFEFF052D0050006F006C00790002000000FFFEFF0850006F006C00790067006F006E007300000000000000FFFEFF052D0043006F006D006D0002000000FFFEFF1254
310
0065006C00650063006F006D006D0075006E00690063006100740069006F006E007300000000000000FFFEFF052D00570061006C006C0002000000FFFEFF05570061006C006C007300000000000000FFFEFF052D0047006C0061007A0002000000FFFEFF0747006C0061007A0069006E006700000000000000FFFEFF052D00
310
410072006500610002000000FFFEFF044100720065006100000000000000FFFEFF052D0043006F006400650002000000FFFEFF1443006F0064006500200063006F006D0070006C00690061006E0063006500200070006C0061006E00000000000000FFFEFF052D005300740072006D0002000000FFFEFF0844007200610069
310
006E00610067006500000000000000FFFEFF052D0044006F006F00720002000000FFFEFF0544006F006F0072007300000000000000FFFEFF052D0041006E006E006F0002000000FFFEFF0A41006E006E006F0074006100740069006F006E00000000000000FFFEFF052D004200650061006D0002000000FFFEFF0542006500
310
61006D007300000000000000FFFEFF052D004C0069007400650002000000FFFEFF114C00690067006800740069006E006700200066006900780074007500720065007300000000000000FFFEFF052D00480056004100430002000000FFFEFF044800560041004300000000000000FFFEFF052D004100630063007300020000
310
00FFFEFF0B410063006300650073007300200070006C0061006E00000000000000FFFEFF052D0043006F006C00730002000000FFFEFF0743006F006C0075006D006E007300000000000000FFFEFF052D0043006C006E00670002000000FFFEFF074300650069006C0069006E006700000000000000FFFEFF052D0045007600
310
6100630002000000FFFEFF0F450076006100630075006100740069006F006E00200070006C0061006E00000000000000FFFEFF052D0043006F006E00760002000000FFFEFF1143006F006E0076006500790069006E0067002000730079007300740065006D007300000000000000FFFEFF052D005300650063007400020000
310
00FFFEFF07530065006300740069006F006E00000000000000FFFEFF052D00500072006F00700002000000FFFEFF08500072006F0070006500720074007900000000000000FFFEFF052D0052006F006F00660002000000FFFEFF0452006F006F006600000000000000FFFEFF052D0045006C006500630002000000FFFEFF0A
310
45006C0065006300740072006900630061006C00000000000000FFFEFF052D00470072006900640002000000FFFEFF0A470072006900640020006C0069006E0065007300000000000000FFFEFF052D00540069006E006E0002000000FFFEFF1E54007200690061006E00670075006C00610074006500640020006900720072
310
006500670075006C006100720020006E006500740077006F0072006B00000000000000FFFEFF052D00500072006F00740002000000FFFEFF1646006900720065002000700072006F00740065006300740069006F006E002000730079007300740065006D00000000000000FFFEFF052D00460069007200650002000000FFFE
310
FF1446006900720065002000700072006F00740065006300740069006F006E00200070006C0061006E00000000000000FFFEFF052D0045006C006500760002000000FFFEFF0945006C00650076006100740069006F006E000000000000000180FFFEFF074D0069006E006F00720020003100040000000000000000F00E7704
310
00000000000000000000000000000000F00000FFFEFF006A00FFFEFF052D00410062006F00760002000000FFFEFF0E45006C0065006D0065006E00740073002000610062006F0076006500000000000000FFFEFF052D005400610062006C0002000000FFFEFF0B440061007400610020007400610062006C00650073000000
310
00000000FFFEFF052D00420064007200790002000000FFFEFF0842006F0075006E006400610072007900000000000000FFFEFF052D004500710070006D0002000000FFFEFF09450071007500690070006D0065006E007400000000000000FFFEFF052D0043006E007400720002000000FFFEFF0A430065006E007400650072
310
006C0069006E006500000000000000FFFEFF052D0057006B007300660002000000FFFEFF1E530079007300740065006D00200077006F0072006B0020007300750072006600610063006500200063006F006D0070006F006E0065006E0074007300000000000000FFFEFF052D00420072006E00670002000000FFFEFF1A4200
310
65006100720069006E0067007300200026002000640069007300740061006E006300650020006C006100620065006C007300000000000000FFFEFF052D00530077006300680002000000FFFEFF0853007700690074006300680065007300000000000000FFFEFF052D005400680069006E0002000000FFFEFF195400680069
310
006E0020007700650069006700680074002000670072006100700068006900630020006C0069006E0065007300000000000000FFFEFF052D00520061006900730002000000FFFEFF06520061006900730065006400000000000000FFFEFF052D004F00700065006E0002000000FFFEFF084F00700065006E0069006E006700
310
7300000000000000FFFEFF052D004E0070006C00740002000000FFFEFF204E006F006E002D0070006C006F007400740069006E00670020006700720061007000680069006300200069006E0066006F0072006D006100740069006F006E00000000000000FFFEFF052D00500072006F00660002000000FFFEFF08500072006F
310
00660069006C0065007300000000000000FFFEFF052D005200650066006C0002000000FFFEFF0E5200650066006C0065006300740065006400200050006C0061006E00000000000000FFFEFF052D00460069006E00650002000000FFFEFF19460069006E006500200077006500690067006800740020006700720061007000
310
68006900630020006C0069006E0065007300000000000000FFFEFF052D004100700070006C0002000000FFFEFF0A4100700070006C00690061006E00630065007300000000000000FFFEFF052D00440069006D00730002000000FFFEFF0A440069006D0065006E00730069006F006E007300000000000000FFFEFF052D0050
310
006F007700720002000000FFFEFF0550006F00770065007200000000000000FFFEFF052D0053006C006100620002000000FFFEFF0553006C00610062007300000000000000FFFEFF052D0043006F006E006E0002000000FFFEFF0B43006F006E006E0065006300740069006F006E007300000000000000FFFEFF052D005700
310
61006C006C0002000000FFFEFF05570061006C006C007300000000000000FFFEFF052D004100730073006D0002000000FFFEFF0A41007300730065006D0062006C00690065007300000000000000FFFEFF052D005600680063006C0002000000FFFEFF08560065006800690063006C0065007300000000000000FFFEFF052D
310
0043006F006D006D0002000000FFFEFF1A540065006C006500700068006F006E0065002C00200063006F006D006D0075006E00690063006100740069006F006E0073002000000000000000FFFEFF052D00460072006500650002000000FFFEFF0C46007200650065007300740061006E00640069006E006700000000000000
310
FFFEFF052D00530079006D00620002000000FFFEFF07530079006D0062006F006C007300000000000000FFFEFF052D00520064006D00650002000000FFFEFF1B52006500610064002D006D00650020006C006100790065007200200028006E006F007400200070006C006F0074007400650064002900000000000000FFFEFF
310
052D0053006C006300650002000000FFFEFF0653006C006900630065007300000000000000FFFEFF052D00460061007300630002000000FFFEFF074600610073006300690061007300000000000000FFFEFF052D00460069006C00650002000000FFFEFF0D460069006C006500200063006100620069006E00650074007300
310
000000000000FFFEFF052D004D00610073006B0002000000FFFEFF1241004400540020004D00610073006B0069006E00670020004F0062006A00650063007400000000000000FFFEFF052D004A0061006D00620002000000FFFEFF1544006F006F007200200061006E0064002000770069006E0064006F00770020006A0061
310
006D0062007300000000000000FFFEFF052D005300690067006E0002000000FFFEFF055300690067006E007300000000000000FFFEFF052D0046006E007300680002000000FFFEFF08460069006E0069007300680065007300000000000000FFFEFF052D00530063006800640002000000FFFEFF0953006300680065006400
310
75006C0065007300000000000000FFFEFF052D00500072006800740002000000FFFEFF0E5000610072007400690061006C002000680065006900670068007400000000000000FFFEFF052D00470072007000730002000000FFFEFF06470072006F00750070007300000000000000FFFEFF052D00540068006C006400020000
310
00FFFEFF0A5400680072006500730068006F006C0064007300000000000000FFFEFF052D005300630072006E0002000000FFFEFF14530063007200650065006E006500640020004200610063006B00670072006F0075006E0064007300000000000000FFFEFF052D0043006F006D00700002000000FFFEFF1349006E007400
310
650072006E0061006C00200063006F006D0070006F006E0065006E0074007300000000000000FFFEFF052D005400690074006C0002000000FFFEFF18440072006100770069006E00670020006F0072002000640065007400610069006C0020007400690074006C0065007300000000000000FFFEFF052D0054006500780074
310
0002000000FFFEFF045400650078007400000000000000FFFEFF052D004D00610072006B0002000000FFFEFF1D4D00610072006B006500720073002C00200062007200650061006B0020006D00610072006B0073002C0020006C00650061006400650072007300000000000000FFFEFF052D00460075006C006C0002000000
310
FFFEFF0B460075006C006C002D00680065006900670068007400000000000000FFFEFF052D00450076007400720002000000FFFEFF1B45006C0065007600610074006F00720020006300610072007300200061006E0064002000650071007500690070006D0065006E007400000000000000FFFEFF052D0053007000630065
310
0002000000FFFEFF0553007000610063006500000000000000FFFEFF052D00530075007300700002000000FFFEFF12530075007300700065006E00640065006400200065006C0065006D0065006E0074007300000000000000FFFEFF052D00540065006500730002000000FFFEFF094D00610069006E002000740065006500
310
7300000000000000FFFEFF052D00460069007800740002000000FFFEFF1170006C0075006D00620069006E006700200066006900780074007500720065007300000000000000FFFEFF052D00520065006600720002000000FFFEFF195200650066006500720065006E00630065002C002000650078007400650072006E0061
310
006C002000660069006C0065007300000000000000FFFEFF052D004C00610062006C0002000000FFFEFF064C006100620065006C007300000000000000FFFEFF052D004C0069007400650002000000FFFEFF084C00690067006800740069006E006700000000000000FFFEFF052D00480065007600790002000000FFFEFF1A
310
4800650061007600790020007700650069006700680074002000670072006100700068006900630020006C0069006E0065007300000000000000FFFEFF052D00480065006100640002000000FFFEFF1744006F006F007200200061006E0064002000770069006E0064006F0077002000680065006100640065007200730000
310
0000000000FFFEFF052D004C00650067006E0002000000FFFEFF144C006500670065006E00640073002C002000530079006D0062006F006C0020006B00650079007300000000000000FFFEFF052D004B00650079006E0002000000FFFEFF084B00650079006E006F00740065007300000000000000FFFEFF052D0046006900
310
7800640002000000FFFEFF0F460069007800650064002000650071007500690070006D0065006E007400000000000000FFFEFF052D004C00650076006C0002000000FFFEFF274C006500760065006C0020006300680061006E006700650073002C002000720061006D00700073002C00200070006900740073002C00200064
310
0065007000720065007300730069006F006E007300000000000000FFFEFF052D004D00650064006D0002000000FFFEFF1B4D0065006400690075006D0020007700650069006700680074002000670072006100700068006900630020006C0069006E0065007300000000000000FFFEFF052D0042006C006F00770002000000
310
FFFEFF0E45006C0065006D0065006E00740073002000620065006C006F007700000000000000FFFEFF052D00410063006300730002000000FFFEFF06410063006300650073007300000000000000FFFEFF052D004F0063006300700002000000FFFEFF1A4F00630063007500700061006E00740020006F007200200065006D
310
0070006C006F0079006500650020006E0061006D0065007300000000000000FFFEFF052D00430061007300650002000000FFFEFF08430061007300650077006F0072006B00000000000000FFFEFF052D00520065007600730002000000FFFEFF095200650076006900730069006F006E007300000000000000FFFEFF052D00
310
420072006300650002000000FFFEFF06420072006100630065007300000000000000FFFEFF052D00480069006400650002000000FFFEFF0E480069006400640065006E0020006F0062006A006500630074007300000000000000FFFEFF052D0043006C006E00670002000000FFFEFF074300650069006C0069006E00670000
310
0000000000FFFEFF052D005500740069006C0002000000FFFEFF095500740069006C0069007400690065007300000000000000FFFEFF052D00500061007400740002000000FFFEFF19540065007800740075007200650020006F00720020006800610074006300680020007000610074007400650072006E00730000000000
310
0000FFFEFF052D00430061007600690002000000FFFEFF06430061007600690074007900000000000000FFFEFF052D0050006C006E00740002000000FFFEFF0650006C0061006E0074007300000000000000FFFEFF052D00530074007200730002000000FFFEFF215300740061006900720020007400720065006100640073
310
002C00200065007300630061006C00610074006F00720073002C0020006C00610064006400650072007300000000000000FFFEFF052D00520065007600630002000000FFFEFF0F5200650076006900730069006F006E00200063006C006F00750064007300000000000000FFFEFF052D004D006F007600650002000000FFFE
310
FF124D006F0076006500610062006C0065002000650071007500690070006D0065006E007400000000000000FFFEFF052D005000650070006C0002000000FFFEFF06500065006F0070006C006500000000000000FFFEFF052D00440065006D006F0002000000FFFEFF0A440065006D006F006C006900740069006F006E0000
310
0000000000FFFEFF052D00430075007200740002000000FFFEFF0C4300750072007400610069006E002000570061006C006C00000000000000FFFEFF052D005700640077006B0002000000FFFEFF164100720063006800690074006500630074007500720061006C00200077006F006F00640077006F0072006B0000000000
310
0000FFFEFF052D004E006F007400650002000000FFFEFF054E006F00740065007300000000000000FFFEFF052D004F0076006800640002000000FFFEFF084F007600650072006800650061006400000000000000FFFEFF052D00530075006200740002000000FFFEFF14530075006200740072006100630074006900760065
310
00200065006C0065006D0065006E0074007300000000000000FFFEFF052D00530044004600460002000000FFFEFF1053007500700070006C0079002000640069006600660075007300650072007300000000000000FFFEFF052D00530074006F00720002000000FFFEFF19530079007300740065006D002000730074006F00
310
7200610067006500200063006F006D0070006F006E0065006E0074007300000000000000FFFEFF052D004900640065006E0002000000FFFEFF134900640065006E00740069006600690063006100740069006F006E0020005400610067007300000000000000FFFEFF052D004800720061006C0002000000FFFEFF16480061
310
006E0064007200610069006C0073002C0020006700750061007200640020007200610069006C007300000000000000FFFEFF052D00570069006400650002000000FFFEFF19570069006400650020007700650069006700680074002000670072006100700068006900630020006C0069006E0065007300000000000000FFFE
310
FF052D004D0061007300730002000000FFFEFF104D0061007300730069006E006700200045006C0065006D0065006E0074007300000000000000FFFEFF052D004C0069006E00650002000000FFFEFF0D44006500660069006E0069006E00670020004C0069006E006500000000000000FFFEFF052D00560069006500770002
310
000000FFFEFF13560069006500770070006F0072007400200044006500660069006E006900740069006F006E00000000000000FFFEFF052D0050006B006E00670002000000FFFEFF075000610072006B0069006E006700000000000000FFFEFF052D00520044004600460002000000FFFEFF14520065007400750072006E00
310
20006100690072002000640069006600660075007300650072007300000000000000FFFEFF052D00530065006100740002000000FFFEFF07530065006100740069006E006700000000000000FFFEFF052D0050006E006C00730002000000FFFEFF0D530079007300740065006D002000700061006E0065006C007300000000
310
000000FFFEFF052D004D0061007400630002000000FFFEFF0B4D00610074006300680020006C0069006E0065007300000000000000FFFEFF052D00410064007400760002000000FFFEFF1141006400640069007400690076006500200065006C0065006D0065006E0074007300000000000000FFFEFF052D00430068006100
310
730002000000FFFEFF0543006800610073006500000000000000FFFEFF052D005300700063006C0002000000FFFEFF0B5300700065006300690061006C007400690065007300000000000000FFFEFF052D00470072006900640002000000FFFEFF044700720069006400000000000000FFFEFF052D004E00690063006E0002
310
000000FFFEFF0F4E006F007400200069006E00200063006F006E0074007200610063007400000000000000FFFEFF052D004D0063007500740002000000FFFEFF164D00610069006E00200063007500740020006C0069006E006500200065006C0065006D0065006E0074007300000000000000FFFEFF052D00460069007200
310
650002000000FFFEFF0A46006900720065002000770061006C006C007300000000000000FFFEFF052D00530069006C006C0002000000FFFEFF0C570069006E0064006F0077002000730069006C006C007300000000000000FFFEFF052D005400700074006E0002000000FFFEFF1154006F0069006C00650074002000700061
310
00720074006900740069006F006E007300000000000000FFFEFF052D00520069007300720002000000FFFEFF0C530074006100690072002000720069007300650072007300000000000000FFFEFF052D004F0074006C006E0002000000FFFEFF074F00750074006C0069006E006500000000000000FFFEFF052D0054007400
310
6C00620002000000FFFEFF1642006F007200640065007200200061006E00640020007400690074006C006500200062006C006F0063006B000000000000000180FFFEFF074D0069006E006F0072002000320005000000004164642062656C6F77207468652073656C6563746564206974656DFFFEFF001600FFFEFF052D0041
310
0062006F00760002000000FFFEFF0E45006C0065006D0065006E00740073002000610062006F0076006500000000000000FFFEFF052D00420064007200790002000000FFFEFF0D4500640067006500200062006F0075006E006400610072007900000000000000FFFEFF052D005400680069006E0002000000FFFEFF0E4D00
310
69006E006F00720020006C0069006E00650077006F0072006B00000000000000FFFEFF052D004E0070006C00740002000000FFFEFF154E006F006E002D0070006C006F007400740069006E006700200065006C0065006D0065006E0074007300000000000000FFFEFF052D005200650066006C0002000000FFFEFF0F520065
310
0066006C0065006300740065006400200050006C0061006E007300000000000000FFFEFF052D00440069006D00730002000000FFFEFF0A440069006D0065006E00730069006F006E007300000000000000FFFEFF052D005300630061006C0002000000FFFEFF10470072006100700068006900630061006C00200053006300
310
61006C0065007300000000000000FFFEFF052D0053006C006300650002000000FFFEFF0653006C006900630065007300000000000000FFFEFF052D0047006C0061007A0002000000FFFEFF0747006C0061007A0069006E006700000000000000FFFEFF052D00460061007300630002000000FFFEFF06460061007300630069
310
006100000000000000FFFEFF052D00470072007000730002000000FFFEFF06470072006F00750070007300000000000000FFFEFF052D005400690074006C0002000000FFFEFF065400690074006C0065007300000000000000FFFEFF052D00530066006900740002000000FFFEFF0653006F00660066006900740000000000
310
0000FFFEFF052D00500061007400740002000000FFFEFF0E4800610074006300680020007000610074007400650072006E007300000000000000FFFEFF052D00480069006400650002000000FFFEFF0F480069006400640065006E00200065006C0065006D0065006E0074007300000000000000FFFEFF052D004E006F0074
310
00650002000000FFFEFF16470065006E006500720061006C0020005400650078007400200061006E00640020004E006F00740065007300000000000000FFFEFF052D0055006E006900740002000000FFFEFF0455006E0069007400000000000000FFFEFF052D004900640065006E0002000000FFFEFF0A4900640065006E00
310
740069006600690065007200000000000000FFFEFF052D004C0069006E00650002000000FFFEFF10470065006E006500720061006C0020006C0069006E00650077006F0072006B00000000000000FFFEFF052D00530069006C006C0002000000FFFEFF05530069006C006C007300000000000000FFFEFF052D005200690073
310
00720002000000FFFEFF06520069007300650072007300000000000000FFFEFF052D004F0074006C006E0002000000FFFEFF074F00750074006C0069006E0065000000000000000180FFFEFF06530074006100740075007300060000000000000000A434770470040000B10000005073770400000000050000FFFEFF000F00
310
FFFEFF022D00310002000000FFFEFF075000680061007300650020003100000000000000FFFEFF022D00320002000000FFFEFF075000680061007300650020003200000000000000FFFEFF022D00540002000000FFFEFF0E540065006D0070006F007200610072007900200077006F0072006B00000000000000FFFEFF022D
310
00330002000000FFFEFF075000680061007300650020003300000000000000FFFEFF022D00440002000000FFFEFF144500780069007300740069006E006700200074006F002000640065006D006F006C00690073006800000000000000FFFEFF022D00340002000000FFFEFF07500068006100730065002000340000000000
310
0000FFFEFF022D00450002000000FFFEFF124500780069007300740069006E006700200074006F002000720065006D00610069006E00000000000000FFFEFF022D00350002000000FFFEFF075000680061007300650020003500000000000000FFFEFF022D00460002000000FFFEFF0B460075007400750072006500200077
310
006F0072006B00000000000000FFFEFF022D00360002000000FFFEFF075000680061007300650020003600000000000000FFFEFF022D00370002000000FFFEFF075000680061007300650020003700000000000000FFFEFF022D00380002000000FFFEFF075000680061007300650020003800000000000000FFFEFF022D00
310
390002000000FFFEFF075000680061007300650020003900000000000000FFFEFF022D004D0002000000FFFEFF114900740065006D007300200074006F0020006200650020006D006F00760065006400000000000000FFFEFF022D004E0002000000FFFEFF084E0065007700200077006F0072006B000000000000000600FF
310
FF04001A004163416563556B4C61796572436F6D706F6E656E744669656C64FFFEFF174400690073006300690070006C0069006E0065002000440065007300690067006E00610074006F0072002000310001000000FFFEFF0440002C0040004000000000000100000000FFFEFF014100000000000780FFFEFF174400690073
310
006300690070006C0069006E0065002000440065007300690067006E00610074006F0072002000320001000000FFFEFF0440002C0040004000010000000100000000FFFEFF014400000000000780FFFEFF054D0061006A006F00720005000000FFFEFF052D00400040004000400000000000010000002DFFFEFF052D005700
310
61006C006C00000000000780FFFEFF064D0069006E006F007200310005000000FFFEFF022D002A0001000000010000002DFFFEFF052D004900640065006E00000000000780FFFEFF064D0069006E006F007200320005000000FFFEFF022D002A0001000000010000002DFFFEFF052D005400650078007400000000000780FF
310
FEFF0653007400610074007500730002000000FFFEFF022D002A0001000000010000002DFFFEFF022D004E0000000000050000010203040500FFFEFF00FFFEFF0320002D002000FFFEFF022C002000FFFEFF012000FFFEFF0320002D002000FFFEFF00
  0
DICTIONARY
  5
3D98
330
3D97
100
AcDbDictionary
280
     1
281
     1
  3
AcadLayerStateAnnoScale
360
3D99
  0
DICTIONARY
  5
3D8C
330
3D8B
100
AcDbDictionary
280
     1
281
     1
  3
AcadLayerStateAnnoScale
360
3D8D
  0
DICTIONARY
  5
B372
330
B371
100
AcDbDictionary
280
     1
281
     1
  3
AcadLayerStateAnnoScale
360
B373
  0
DICTIONARY
  5
B376
330
B375
100
AcDbDictionary
280
     1
281
     1
  3
AcadLayerStateAnnoScale
360
B377
  0
CELLSTYLEMAP
  5
B3D6
102
{ACAD_REACTORS
330
B383
102
}
330
B383
100
AcDbCellStyleMap
 90
        3
300
CELLSTYLE
  1
TABLEFORMAT_BEGIN
 90
        5
170
     1
 91
        0
 92
    32768
 62
   257
 93
        1
300
CONTENTFORMAT
  1
CONTENTFORMAT_BEGIN
 90
        0
 91
        0
 92
      512
 93
        0
300

 40
0.0
140
1.0
 94
        5
 62
     0
340
B384
144
0.25
309
CONTENTFORMAT_END
171
     1
301
MARGIN
  1
CELLMARGIN_BEGIN
 40
0.06
 40
0.06
 40
0.06
 40
0.06
 40
0.18
 40
0.18
309
CELLMARGIN_END
 94
        6
 95
        1
302
GRIDFORMAT
  1
GRIDFORMAT_BEGIN
 90
        0
 91
        1
 62
     0
 92
       -2
340
0
 93
        0
 40
0.045
309
GRIDFORMAT_END
 95
        2
302
GRIDFORMAT
  1
GRIDFORMAT_BEGIN
 90
        0
 91
        1
 62
     0
 92
       -2
340
0
 93
        0
 40
0.045
309
GRIDFORMAT_END
 95
        4
302
GRIDFORMAT
  1
GRIDFORMAT_BEGIN
 90
        0
 91
        1
 62
     0
 92
       -2
340
0
 93
        0
 40
0.045
309
GRIDFORMAT_END
 95
        8
302
GRIDFORMAT
  1
GRIDFORMAT_BEGIN
 90
        0
 91
        1
 62
     0
 92
       -2
340
0
 93
        0
 40
0.045
309
GRIDFORMAT_END
 95
       16
302
GRIDFORMAT
  1
GRIDFORMAT_BEGIN
 90
        0
 91
        1
 62
     0
 92
       -2
340
0
 93
        0
 40
0.045
309
GRIDFORMAT_END
 95
       32
302
GRIDFORMAT
  1
GRIDFORMAT_BEGIN
 90
        0
 91
        1
 62
     0
 92
       -2
340
0
 93
        0
 40
0.045
309
GRIDFORMAT_END
309
TABLEFORMAT_END
  1
CELLSTYLE_BEGIN
 90
        1
 91
        1
300
_TITLE
309
CELLSTYLE_END
300
CELLSTYLE
  1
TABLEFORMAT_BEGIN
 90
        5
170
     1
 91
        0
 92
        0
 62
   257
 93
        1
300
CONTENTFORMAT
  1
CONTENTFORMAT_BEGIN
 90
        0
 91
        0
 92
      512
 93
        0
300

 40
0.0
140
1.0
 94
        5
 62
     0
340
B384
144
0.18
309
CONTENTFORMAT_END
171
     1
301
MARGIN
  1
CELLMARGIN_BEGIN
 40
0.06
 40
0.06
 40
0.06
 40
0.06
 40
0.18
 40
0.18
309
CELLMARGIN_END
 94
        6
 95
        1
302
GRIDFORMAT
  1
GRIDFORMAT_BEGIN
 90
        0
 91
        1
 62
     0
 92
       -2
340
0
 93
        0
 40
0.045
309
GRIDFORMAT_END
 95
        2
302
GRIDFORMAT
  1
GRIDFORMAT_BEGIN
 90
        0
 91
        1
 62
     0
 92
       -2
340
0
 93
        0
 40
0.045
309
GRIDFORMAT_END
 95
        4
302
GRIDFORMAT
  1
GRIDFORMAT_BEGIN
 90
        0
 91
        1
 62
     0
 92
       -2
340
0
 93
        0
 40
0.045
309
GRIDFORMAT_END
 95
        8
302
GRIDFORMAT
  1
GRIDFORMAT_BEGIN
 90
        0
 91
        1
 62
     0
 92
       -2
340
0
 93
        0
 40
0.045
309
GRIDFORMAT_END
 95
       16
302
GRIDFORMAT
  1
GRIDFORMAT_BEGIN
 90
        0
 91
        1
 62
     0
 92
       -2
340
0
 93
        0
 40
0.045
309
GRIDFORMAT_END
 95
       32
302
GRIDFORMAT
  1
GRIDFORMAT_BEGIN
 90
        0
 91
        1
 62
     0
 92
       -2
340
0
 93
        0
 40
0.045
309
GRIDFORMAT_END
309
TABLEFORMAT_END
  1
CELLSTYLE_BEGIN
 90
        2
 91
        1
300
_HEADER
309
CELLSTYLE_END
300
CELLSTYLE
  1
TABLEFORMAT_BEGIN
 90
        5
170
     1
 91
        0
 92
        0
 62
   257
 93
        1
300
CONTENTFORMAT
  1
CONTENTFORMAT_BEGIN
 90
        0
 91
        0
 92
      512
 93
        0
300

 40
0.0
140
1.0
 94
        2
 62
     0
340
B384
144
0.18
309
CONTENTFORMAT_END
171
     1
301
MARGIN
  1
CELLMARGIN_BEGIN
 40
0.06
 40
0.06
 40
0.06
 40
0.06
 40
0.18
 40
0.18
309
CELLMARGIN_END
 94
        6
 95
        1
302
GRIDFORMAT
  1
GRIDFORMAT_BEGIN
 90
        0
 91
        1
 62
     0
 92
       -2
340
0
 93
        0
 40
0.045
309
GRIDFORMAT_END
 95
        2
302
GRIDFORMAT
  1
GRIDFORMAT_BEGIN
 90
        0
 91
        1
 62
     0
 92
       -2
340
0
 93
        0
 40
0.045
309
GRIDFORMAT_END
 95
        4
302
GRIDFORMAT
  1
GRIDFORMAT_BEGIN
 90
        0
 91
        1
 62
     0
 92
       -2
340
0
 93
        0
 40
0.045
309
GRIDFORMAT_END
 95
        8
302
GRIDFORMAT
  1
GRIDFORMAT_BEGIN
 90
        0
 91
        1
 62
     0
 92
       -2
340
0
 93
        0
 40
0.045
309
GRIDFORMAT_END
 95
       16
302
GRIDFORMAT
  1
GRIDFORMAT_BEGIN
 90
        0
 91
        1
 62
     0
 92
       -2
340
0
 93
        0
 40
0.045
309
GRIDFORMAT_END
 95
       32
302
GRIDFORMAT
  1
GRIDFORMAT_BEGIN
 90
        0
 91
        1
 62
     0
 92
       -2
340
0
 93
        0
 40
0.045
309
GRIDFORMAT_END
309
TABLEFORMAT_END
  1
CELLSTYLE_BEGIN
 90
        3
 91
        2
300
_DATA
309
CELLSTYLE_END
  0
CELLSTYLEMAP
  5
B3D3
102
{ACAD_REACTORS
330
30E
102
}
330
30E
100
AcDbCellStyleMap
 90
        3
300
CELLSTYLE
  1
TABLEFORMAT_BEGIN
 90
        5
170
     1
 91
        0
 92
    32768
 62
   257
 93
        1
300
CONTENTFORMAT
  1
CONTENTFORMAT_BEGIN
 90
        0
 91
        0
 92
      512
 93
        0
300

 40
0.0
140
1.0
 94
        5
 62
     0
340
11
144
0.25
309
CONTENTFORMAT_END
171
     1
301
MARGIN
  1
CELLMARGIN_BEGIN
 40
0.06
 40
0.06
 40
0.06
 40
0.06
 40
0.18
 40
0.18
309
CELLMARGIN_END
 94
        6
 95
        1
302
GRIDFORMAT
  1
GRIDFORMAT_BEGIN
 90
        0
 91
        1
 62
     0
 92
       -2
340
0
 93
        0
 40
0.045
309
GRIDFORMAT_END
 95
        2
302
GRIDFORMAT
  1
GRIDFORMAT_BEGIN
 90
        0
 91
        1
 62
     0
 92
       -2
340
0
 93
        0
 40
0.045
309
GRIDFORMAT_END
 95
        4
302
GRIDFORMAT
  1
GRIDFORMAT_BEGIN
 90
        0
 91
        1
 62
     0
 92
       -2
340
0
 93
        0
 40
0.045
309
GRIDFORMAT_END
 95
        8
302
GRIDFORMAT
  1
GRIDFORMAT_BEGIN
 90
        0
 91
        1
 62
     0
 92
       -2
340
0
 93
        0
 40
0.045
309
GRIDFORMAT_END
 95
       16
302
GRIDFORMAT
  1
GRIDFORMAT_BEGIN
 90
        0
 91
        1
 62
     0
 92
       -2
340
0
 93
        0
 40
0.045
309
GRIDFORMAT_END
 95
       32
302
GRIDFORMAT
  1
GRIDFORMAT_BEGIN
 90
        0
 91
        1
 62
     0
 92
       -2
340
0
 93
        0
 40
0.045
309
GRIDFORMAT_END
309
TABLEFORMAT_END
  1
CELLSTYLE_BEGIN
 90
        1
 91
        1
300
_TITLE
309
CELLSTYLE_END
300
CELLSTYLE
  1
TABLEFORMAT_BEGIN
 90
        5
170
     1
 91
        0
 92
        0
 62
   257
 93
        1
300
CONTENTFORMAT
  1
CONTENTFORMAT_BEGIN
 90
        0
 91
        0
 92
      512
 93
        0
300

 40
0.0
140
1.0
 94
        5
 62
     0
340
11
144
0.18
309
CONTENTFORMAT_END
171
     1
301
MARGIN
  1
CELLMARGIN_BEGIN
 40
0.06
 40
0.06
 40
0.06
 40
0.06
 40
0.18
 40
0.18
309
CELLMARGIN_END
 94
        6
 95
        1
302
GRIDFORMAT
  1
GRIDFORMAT_BEGIN
 90
        0
 91
        1
 62
     0
 92
       -2
340
0
 93
        0
 40
0.045
309
GRIDFORMAT_END
 95
        2
302
GRIDFORMAT
  1
GRIDFORMAT_BEGIN
 90
        0
 91
        1
 62
     0
 92
       -2
340
0
 93
        0
 40
0.045
309
GRIDFORMAT_END
 95
        4
302
GRIDFORMAT
  1
GRIDFORMAT_BEGIN
 90
        0
 91
        1
 62
     0
 92
       -2
340
0
 93
        0
 40
0.045
309
GRIDFORMAT_END
 95
        8
302
GRIDFORMAT
  1
GRIDFORMAT_BEGIN
 90
        0
 91
        1
 62
     0
 92
       -2
340
0
 93
        0
 40
0.045
309
GRIDFORMAT_END
 95
       16
302
GRIDFORMAT
  1
GRIDFORMAT_BEGIN
 90
        0
 91
        1
 62
     0
 92
       -2
340
0
 93
        0
 40
0.045
309
GRIDFORMAT_END
 95
       32
302
GRIDFORMAT
  1
GRIDFORMAT_BEGIN
 90
        0
 91
        1
 62
     0
 92
       -2
340
0
 93
        0
 40
0.045
309
GRIDFORMAT_END
309
TABLEFORMAT_END
  1
CELLSTYLE_BEGIN
 90
        2
 91
        1
300
_HEADER
309
CELLSTYLE_END
300
CELLSTYLE
  1
TABLEFORMAT_BEGIN
 90
        5
170
     1
 91
        0
 92
        0
 62
   257
 93
        1
300
CONTENTFORMAT
  1
CONTENTFORMAT_BEGIN
 90
        0
 91
        0
 92
      512
 93
        0
300

 40
0.0
140
1.0
 94
        2
 62
     0
340
11
144
0.18
309
CONTENTFORMAT_END
171
     1
301
MARGIN
  1
CELLMARGIN_BEGIN
 40
0.06
 40
0.06
 40
0.06
 40
0.06
 40
0.18
 40
0.18
309
CELLMARGIN_END
 94
        6
 95
        1
302
GRIDFORMAT
  1
GRIDFORMAT_BEGIN
 90
        0
 91
        1
 62
     0
 92
       -2
340
0
 93
        0
 40
0.045
309
GRIDFORMAT_END
 95
        2
302
GRIDFORMAT
  1
GRIDFORMAT_BEGIN
 90
        0
 91
        1
 62
     0
 92
       -2
340
0
 93
        0
 40
0.045
309
GRIDFORMAT_END
 95
        4
302
GRIDFORMAT
  1
GRIDFORMAT_BEGIN
 90
        0
 91
        1
 62
     0
 92
       -2
340
0
 93
        0
 40
0.045
309
GRIDFORMAT_END
 95
        8
302
GRIDFORMAT
  1
GRIDFORMAT_BEGIN
 90
        0
 91
        1
 62
     0
 92
       -2
340
0
 93
        0
 40
0.045
309
GRIDFORMAT_END
 95
       16
302
GRIDFORMAT
  1
GRIDFORMAT_BEGIN
 90
        0
 91
        1
 62
     0
 92
       -2
340
0
 93
        0
 40
0.045
309
GRIDFORMAT_END
 95
       32
302
GRIDFORMAT
  1
GRIDFORMAT_BEGIN
 90
        0
 91
        1
 62
     0
 92
       -2
340
0
 93
        0
 40
0.045
309
GRIDFORMAT_END
309
TABLEFORMAT_END
  1
CELLSTYLE_BEGIN
 90
        3
 91
        2
300
_DATA
309
CELLSTYLE_END
  0
XRECORD
  5
812
102
{ACAD_REACTORS
330
811
102
}
330
811
100
AcDbXrecord
280
     1
 90
        2
  0
XRECORD
  5
3D99
102
{ACAD_REACTORS
330
3D98
102
}
330
3D98
100
AcDbXrecord
280
     1
330
2A2
  0
XRECORD
  5
3D8D
102
{ACAD_REACTORS
330
3D8C
102
}
330
3D8C
100
AcDbXrecord
280
     1
330
2A2
  0
XRECORD
  5
B373
102
{ACAD_REACTORS
330
B372
102
}
330
B372
100
AcDbXrecord
280
     1
330
2A2
  0
XRECORD
  5
B377
102
{ACAD_REACTORS
330
B376
102
}
330
B376
100
AcDbXrecord
280
     1
330
2A2
  0
ENDSEC
  0
EOF
