  0
SECTION
  2
HEADER
  9
$ACADVER
  1
AC1018
  9
$ACADMAINTVER
 70
     0
  9
$DWGCODEPAGE
  3
ANSI_1252
  9
$INSBASE
 10
0.0
 20
0.0
 30
0.0
  9
$EXTMIN
 10
1.000000000000000E+20
 20
1.000000000000000E+20
 30
1.000000000000000E+20
  9
$EXTMAX
 10
-1.000000000000000E+20
 20
-1.000000000000000E+20
 30
-1.000000000000000E+20
  9
$LIMMIN
 10
0.0
 20
0.0
  9
$LIMMAX
 10
12.0
 20
9.0
  9
$ORTHOMODE
 70
     0
  9
$REGENMODE
 70
     1
  9
$FILLMODE
 70
     1
  9
$QTEXTMODE
 70
     0
  9
$MIRRTEXT
 70
     1
  9
$LTSCALE
 40
1.0
  9
$ATTMODE
 70
     1
  9
$TEXTSIZE
 40
0.2
  9
$TRACEWID
 40
0.05
  9
$TEXTSTYLE
  7
Standard
  9
$CLAYER
  8
0
  9
$CELTYPE
  6
ByLayer
  9
$CECOLOR
 62
   256
  9
$CELTSCALE
 40
1.0
  9
$DISPSILH
 70
     0
  9
$DIMSCALE
 40
1.0
  9
$DIMASZ
 40
0.18
  9
$DIMEXO
 40
0.0625
  9
$DIMDLI
 40
0.38
  9
$DIMRND
 40
0.0
  9
$DIMDLE
 40
0.0
  9
$DIMEXE
 40
0.18
  9
$DIMTP
 40
0.0
  9
$DIMTM
 40
0.0
  9
$DIMTXT
 40
0.18
  9
$DIMCEN
 40
0.09
  9
$DIMTSZ
 40
0.0
  9
$DIMTOL
 70
     0
  9
$DIMLIM
 70
     0
  9
$DIMTIH
 70
     1
  9
$DIMTOH
 70
     1
  9
$DIMSE1
 70
     0
  9
$DIMSE2
 70
     0
  9
$DIMTAD
 70
     0
  9
$DIMZIN
 70
     0
  9
$DIMBLK
  1

  9
$DIMASO
 70
     1
  9
$DIMSHO
 70
     1
  9
$DIMPOST
  1

  9
$DIMAPOST
  1

  9
$DIMALT
 70
     0
  9
$DIMALTD
 70
     2
  9
$DIMALTF
 40
25.4
  9
$DIMLFAC
 40
1.0
  9
$DIMTOFL
 70
     0
  9
$DIMTVP
 40
0.0
  9
$DIMTIX
 70
     0
  9
$DIMSOXD
 70
     0
  9
$DIMSAH
 70
     0
  9
$DIMBLK1
  1

  9
$DIMBLK2
  1

  9
$DIMSTYLE
  2
Standard
  9
$DIMCLRD
 70
     0
  9
$DIMCLRE
 70
     0
  9
$DIMCLRT
 70
     0
  9
$DIMTFAC
 40
1.0
  9
$DIMGAP
 40
0.09
  9
$DIMJUST
 70
     0
  9
$DIMSD1
 70
     0
  9
$DIMSD2
 70
     0
  9
$DIMTOLJ
 70
     1
  9
$DIMTZIN
 70
     0
  9
$DIMALTZ
 70
     0
  9
$DIMALTTZ
 70
     0
  9
$DIMUPT
 70
     0
  9
$DIMDEC
 70
     4
  9
$DIMTDEC
 70
     4
  9
$DIMALTU
 70
     2
  9
$DIMALTTD
 70
     2
  9
$DIMTXSTY
  7
Standard
  9
$DIMAUNIT
 70
     0
  9
$DIMADEC
 70
     0
  9
$DIMALTRND
 40
0.0
  9
$DIMAZIN
 70
     0
  9
$DIMDSEP
 70
    46
  9
$DIMATFIT
 70
     3
  9
$DIMFRAC
 70
     0
  9
$DIMLDRBLK
  1

  9
$DIMLUNIT
 70
     2
  9
$DIMLWD
 70
    -2
  9
$DIMLWE
 70
    -2
  9
$DIMTMOVE
 70
     0
  9
$LUNITS
 70
     2
  9
$LUPREC
 70
     4
  9
$SKETCHINC
 40
0.1
  9
$FILLETRAD
 40
0.5
  9
$AUNITS
 70
     0
  9
$AUPREC
 70
     0
  9
$MENU
  1
.
  9
$ELEVATION
 40
0.0
  9
$PELEVATION
 40
0.0
  9
$THICKNESS
 40
0.0
  9
$LIMCHECK
 70
     0
  9
$CHAMFERA
 40
0.5
  9
$CHAMFERB
 40
0.5
  9
$CHAMFERC
 40
1.0
  9
$CHAMFERD
 40
0.0
  9
$SKPOLY
 70
     0
  9
$TDCREATE
 40
2457126.525178958
  9
$TDUCREATE
 40
2457126.025178958
  9
$TDUPDATE
 40
2457126.525180382
  9
$TDUUPDATE
 40
2457126.025180382
  9
$TDINDWG
 40
0.0000000116
  9
$TDUSRTIMER
 40
0.0000000116
  9
$USRTIMER
 70
     1
  9
$ANGBASE
 50
0.0
  9
$ANGDIR
 70
     0
  9
$PDMODE
 70
     0
  9
$PDSIZE
 40
0.0
  9
$PLINEWID
 40
0.0
  9
$SPLFRAME
 70
     0
  9
$SPLINETYPE
 70
     6
  9
$SPLINESEGS
 70
     8
  9
$HANDSEED
  5
18F
  9
$SURFTAB1
 70
     6
  9
$SURFTAB2
 70
     6
  9
$SURFTYPE
 70
     6
  9
$SURFU
 70
     6
  9
$SURFV
 70
     6
  9
$UCSBASE
  2

  9
$UCSNAME
  2

  9
$UCSORG
 10
0.0
 20
0.0
 30
0.0
  9
$UCSXDIR
 10
1.0
 20
0.0
 30
0.0
  9
$UCSYDIR
 10
0.0
 20
1.0
 30
0.0
  9
$UCSORTHOREF
  2

  9
$UCSORTHOVIEW
 70
     0
  9
$UCSORGTOP
 10
0.0
 20
0.0
 30
0.0
  9
$UCSORGBOTTOM
 10
0.0
 20
0.0
 30
0.0
  9
$UCSORGLEFT
 10
0.0
 20
0.0
 30
0.0
  9
$UCSORGRIGHT
 10
0.0
 20
0.0
 30
0.0
  9
$UCSORGFRONT
 10
0.0
 20
0.0
 30
0.0
  9
$UCSORGBACK
 10
0.0
 20
0.0
 30
0.0
  9
$PUCSBASE
  2

  9
$PUCSNAME
  2

  9
$PUCSORG
 10
0.0
 20
0.0
 30
0.0
  9
$PUCSXDIR
 10
1.0
 20
0.0
 30
0.0
  9
$PUCSYDIR
 10
0.0
 20
1.0
 30
0.0
  9
$PUCSORTHOREF
  2

  9
$PUCSORTHOVIEW
 70
     0
  9
$PUCSORGTOP
 10
0.0
 20
0.0
 30
0.0
  9
$PUCSORGBOTTOM
 10
0.0
 20
0.0
 30
0.0
  9
$PUCSORGLEFT
 10
0.0
 20
0.0
 30
0.0
  9
$PUCSORGRIGHT
 10
0.0
 20
0.0
 30
0.0
  9
$PUCSORGFRONT
 10
0.0
 20
0.0
 30
0.0
  9
$PUCSORGBACK
 10
0.0
 20
0.0
 30
0.0
  9
$USERI1
 70
     0
  9
$USERI2
 70
     0
  9
$USERI3
 70
     0
  9
$USERI4
 70
     0
  9
$USERI5
 70
     0
  9
$USERR1
 40
0.0
  9
$USERR2
 40
0.0
  9
$USERR3
 40
0.0
  9
$USERR4
 40
0.0
  9
$USERR5
 40
0.0
  9
$WORLDVIEW
 70
     1
  9
$SHADEDGE
 70
     3
  9
$SHADEDIF
 70
    70
  9
$TILEMODE
 70
     1
  9
$MAXACTVP
 70
    64
  9
$PINSBASE
 10
0.0
 20
0.0
 30
0.0
  9
$PLIMCHECK
 70
     0
  9
$PEXTMIN
 10
1.000000000000000E+20
 20
1.000000000000000E+20
 30
1.000000000000000E+20
  9
$PEXTMAX
 10
-1.000000000000000E+20
 20
-1.000000000000000E+20
 30
-1.000000000000000E+20
  9
$PLIMMIN
 10
0.0
 20
0.0
  9
$PLIMMAX
 10
12.0
 20
9.0
  9
$UNITMODE
 70
     0
  9
$VISRETAIN
 70
     1
  9
$PLINEGEN
 70
     0
  9
$PSLTSCALE
 70
     1
  9
$TREEDEPTH
 70
  3020
  9
$CMLSTYLE
  2
Standard
  9
$CMLJUST
 70
     0
  9
$CMLSCALE
 40
1.0
  9
$PROXYGRAPHICS
 70
     1
  9
$MEASUREMENT
 70
     0
  9
$CELWEIGHT
370
    -1
  9
$ENDCAPS
280
     0
  9
$JOINSTYLE
280
     0
  9
$LWDISPLAY
290
     1
  9
$INSUNITS
 70
     4
  9
$HYPERLINKBASE
  1

  9
$STYLESHEET
  1

  9
$XEDIT
290
     1
  9
$CEPSNTYPE
380
     0
  9
$PSTYLEMODE
290
     1
  9
$FINGERPRINTGUID
  2
{DF6851A3-B198-4E70-A571-EB2BDFBD61D3}
  9
$VERSIONGUID
  2
{FAEB1C32-E019-11D5-929B-00C0DF256EC4}
  9
$EXTNAMES
290
     1
  9
$PSVPSCALE
 40
0.0
  9
$OLESTARTUP
290
     0
  9
$SORTENTS
280
   127
  9
$INDEXCTL
280
     0
  9
$HIDETEXT
280
     1
  9
$XCLIPFRAME
290
     0
  9
$HALOGAP
280
     0
  9
$OBSCOLOR
 70
   257
  9
$OBSLTYPE
280
     0
  9
$INTERSECTIONDISPLAY
280
     0
  9
$INTERSECTIONCOLOR
 70
   257
  9
$DIMASSOC
280
     2
  9
$PROJECTNAME
  1

  0
ENDSEC
  0
SECTION
  2
CLASSES
  0
CLASS
  1
ACDBDICTIONARYWDFLT
  2
AcDbDictionaryWithDefault
  3
ObjectDBX Classes
 90
        0
 91
        4
280
     0
281
     0
  0
CLASS
  1
VISUALSTYLE
  2
AcDbVisualStyle
  3
ObjectDBX Classes
 90
     4095
 91
        4
280
     0
281
     0
  0
CLASS
  1
MATERIAL
  2
AcDbMaterial
  3
ObjectDBX Classes
 90
     1153
 91
        4
280
     0
281
     0
  0
CLASS
  1
WIPEOUT
  2
AcDbWipeout
  3
WipeOut|AutoCAD Express Tool|expresstools@autodesk.com
 90
      127
 91
        4
280
     0
281
     1
  0
CLASS
  1
SCALE
  2
AcDbScale
  3
ObjectDBX Classes
 90
     1153
 91
        4
280
     0
281
     0
  0
CLASS
  1
DICTIONARYVAR
  2
AcDbDictionaryVar
  3
ObjectDBX Classes
 90
        0
 91
        4
280
     0
281
     0
  0
ENDSEC
  0
SECTION
  2
TABLES
  0
TABLE
  2
VPORT
  5
8
330
0
100
AcDbSymbolTable
 70
     1
  0
VPORT
  5
29
330
8
100
AcDbSymbolTableRecord
100
AcDbViewportTableRecord
  2
*Active
 70
     0
 10
0.0
 20
0.0
 11
1.0
 21
1.0
 12
103.7833239490833
 22
257.0750215033312
 13
0.0
 23
0.0
 14
0.5
 24
0.5
 15
0.5
 25
0.5
 16
0.0
 26
0.0
 36
1.0
 17
0.0
 27
0.0
 37
0.0
 40
1010.644461878299
 41
0.9572130018364108
 42
50.0
 43
0.0
 44
0.0
 50
0.0
 51
0.0
 71
     0
 72
   100
 73
     1
 74
     3
 75
     0
 76
     0
 77
     0
 78
     0
281
     0
 65
     1
110
0.0
120
0.0
130
0.0
111
1.0
121
0.0
131
0.0
112
0.0
122
1.0
132
0.0
 79
     0
146
0.0
  0
ENDTAB
  0
TABLE
  2
LTYPE
  5
5
330
0
100
AcDbSymbolTable
 70
     5
  0
LTYPE
  5
14
330
5
100
AcDbSymbolTableRecord
100
AcDbLinetypeTableRecord
  2
ByBlock
 70
     0
  3

 72
    65
 73
     0
 40
0.0
  0
LTYPE
  5
15
330
5
100
AcDbSymbolTableRecord
100
AcDbLinetypeTableRecord
  2
ByLayer
 70
     0
  3

 72
    65
 73
     0
 40
0.0
  0
LTYPE
  5
16
330
5
100
AcDbSymbolTableRecord
100
AcDbLinetypeTableRecord
  2
Continuous
 70
     0
  3
Solid line
 72
    65
 73
     0
 40
0.0
  0
LTYPE
  5
A2
330
5
100
AcDbSymbolTableRecord
100
AcDbLinetypeTableRecord
  2
DASHED2
 70
     0
  3
- - - - - 
 72
    65
 73
     2
 40
7.5
 49
5.0
 74
     0
 49
-2.5
 74
     0
  0
LTYPE
  5
D5
330
5
100
AcDbSymbolTableRecord
100
AcDbLinetypeTableRecord
  2
AStair_dashed
 70
     0
  3
- - - - - 
 72
    65
 73
     2
 40
18.00000000000001
 49
8.000000000000004
 74
     0
 49
-10.0
 74
     0
  0
LTYPE
  5
106
330
5
100
AcDbSymbolTableRecord
100
AcDbLinetypeTableRecord
  2
Above
 70
     0
  3
- - - - - 
 72
    65
 73
     2
 40
15.0
 49
10.0
 74
     0
 49
-4.999999999999999
 74
     0
  0
LTYPE
  5
119
330
5
100
AcDbSymbolTableRecord
100
AcDbLinetypeTableRecord
  2
Wipeout_Contour
 70
     0
  3
- - - - - 
 72
    65
 73
     2
 40
1000.0
 49
0.0
 74
     0
 49
-1000.0
 74
     0
  0
ENDTAB
  0
TABLE
  2
LAYER
  5
2
330
0
100
AcDbSymbolTable
 70
     4
  0
LAYER
  5
10
330
2
100
AcDbSymbolTableRecord
100
AcDbLayerTableRecord
  2
0
 70
     0
 62
     7
  6
Continuous
370
    -3
390
F
  0
LAYER
  5
40
330
2
100
AcDbSymbolTableRecord
100
AcDbLayerTableRecord
  2
0_Pen_No__146
 70
     0
 62
     9
420
 13290186
  6
Continuous
370
     5
390
F
  0
LAYER
  5
43
330
2
100
AcDbSymbolTableRecord
100
AcDbLayerTableRecord
  2
0_Pen_No__1
 70
     0
 62
     7
  6
Continuous
370
    13
390
F
  0
LAYER
  5
11A
330
2
100
AcDbSymbolTableRecord
100
AcDbLayerTableRecord
  2
Key_ Sections_Pen_No__1
 70
     0
 62
     7
  6
Continuous
370
    13
390
F
  0
ENDTAB
  0
TABLE
  2
STYLE
  5
3
330
0
100
AcDbSymbolTable
 70
     2
  0
STYLE
  5
11
330
3
100
AcDbSymbolTableRecord
100
AcDbTextStyleTableRecord
  2
Standard
 70
     0
 40
0.0
 41
1.0
 50
0.0
 71
     0
 42
0.2
  3
txt
  4

  0
STYLE
  5
117
330
3
100
AcDbSymbolTableRecord
100
AcDbTextStyleTableRecord
  2
GENERATED_STYLE_1
 70
     0
 40
0.0
 41
1.0
 50
0.0
 71
     0
 42
0.2
  3

  4

1001
ACAD
1000
Arial
1071
       34
  0
ENDTAB
  0
TABLE
  2
VIEW
  5
6
330
0
100
AcDbSymbolTable
 70
     0
  0
ENDTAB
  0
TABLE
  2
UCS
  5
7
330
0
100
AcDbSymbolTable
 70
     0
  0
ENDTAB
  0
TABLE
  2
APPID
  5
9
330
0
100
AcDbSymbolTable
 70
     1
  0
APPID
  5
12
330
9
100
AcDbSymbolTableRecord
100
AcDbRegAppTableRecord
  2
ACAD
 70
     0
  0
ENDTAB
  0
TABLE
  2
DIMSTYLE
  5
A
330
0
100
AcDbSymbolTable
 70
     2
100
AcDbDimStyleTable
  0
DIMSTYLE
105
27
330
A
100
AcDbSymbolTableRecord
100
AcDbDimStyleTableRecord
  2
Standard
 70
     0
178
     0
340
11
  0
DIMSTYLE
105
11D
330
A
100
AcDbSymbolTableRecord
100
AcDbDimStyleTableRecord
  2
GENERATED_STYLE__1
 70
     0
 41
9.12
172
     1
178
     0
340
0
341
11E
  0
ENDTAB
  0
TABLE
  2
BLOCK_RECORD
  5
1
330
0
100
AcDbSymbolTable
 70
     3
  0
BLOCK_RECORD
  5
1F
330
1
100
AcDbSymbolTableRecord
100
AcDbBlockTableRecord
  2
*Model_Space
340
22
  0
BLOCK_RECORD
  5
1B
330
1
100
AcDbSymbolTableRecord
100
AcDbBlockTableRecord
  2
*Paper_Space
340
1E
  0
BLOCK_RECORD
  5
23
330
1
100
AcDbSymbolTableRecord
100
AcDbBlockTableRecord
  2
*Paper_Space0
340
26
  0
BLOCK_RECORD
  5
11E
330
1
100
AcDbSymbolTableRecord
100
AcDbBlockTableRecord
  2
ARROWHEAD_5
340
0
  0
BLOCK_RECORD
  5
13D
330
1
100
AcDbSymbolTableRecord
100
AcDbBlockTableRecord
  2
DF-40-T Window Head Layout_STORY_MARKER
340
0
  0
ENDTAB
  0
ENDSEC
  0
SECTION
  2
BLOCKS
  0
BLOCK
  5
20
330
1F
100
AcDbEntity
  8
0
100
AcDbBlockBegin
  2
*Model_Space
 70
     0
 10
0.0
 20
0.0
 30
0.0
  3
*Model_Space
  1

  0
ENDBLK
  5
21
330
1F
100
AcDbEntity
  8
0
100
AcDbBlockEnd
  0
BLOCK
  5
1C
330
1B
100
AcDbEntity
 67
     1
  8
0
100
AcDbBlockBegin
  2
*Paper_Space
 70
     0
 10
0.0
 20
0.0
 30
0.0
  3
*Paper_Space
  1

  0
ENDBLK
  5
1D
330
1B
100
AcDbEntity
 67
     1
  8
0
100
AcDbBlockEnd
  0
BLOCK
  5
24
330
23
100
AcDbEntity
  8
0
100
AcDbBlockBegin
  2
*Paper_Space0
 70
     0
 10
0.0
 20
0.0
 30
0.0
  3
*Paper_Space0
  1

  0
ENDBLK
  5
25
330
23
100
AcDbEntity
  8
0
100
AcDbBlockEnd
  0
BLOCK
  5
11F
330
11E
100
AcDbEntity
  8
0
100
AcDbBlockBegin
  2
ARROWHEAD_5
 70
     0
 10
0.0
 20
0.0
 30
0.0
  3
ARROWHEAD_5
  1

  0
SOLID
  5
121
330
11E
100
AcDbEntity
  8
0
  6
Continuous
 62
     0
370
     0
100
AcDbTrace
 10
-1.0
 20
0.2679
 30
0.0
 11
0.0
 21
0.0
 31
0.0
 12
-1.0
 22
-0.2679
 32
0.0
 13
-1.0
 23
0.2679
 33
0.0
  0
LINE
  5
122
330
11E
100
AcDbEntity
  8
0
  6
Continuous
 62
     0
370
     0
100
AcDbLine
 10
0.0
 20
0.0
 30
0.0
 11
-1.0
 21
0.0
 31
0.0
  0
ENDBLK
  5
120
330
11E
100
AcDbEntity
  8
0
100
AcDbBlockEnd
  0
BLOCK
  5
13E
330
13D
100
AcDbEntity
  8
0
100
AcDbBlockBegin
  2
DF-40-T Window Head Layout_STORY_MARKER
 70
     0
 10
0.0
 20
0.0
 30
0.0
  3
DF-40-T Window Head Layout_STORY_MARKER
  1

  0
ENDBLK
  5
13F
330
13D
100
AcDbEntity
  8
0
100
AcDbBlockEnd
  0
ENDSEC
  0
SECTION
  2
ENTITIES
  0
HATCH
  5
3F
330
1F
100
AcDbEntity
  8
0_Pen_No__146
  6
Continuous
 62
   250
420
  3289650
370
     0
100
AcDbHatch
 10
0.0
 20
0.0
 30
0.0
210
0.0
220
0.0
230
1.0
  2
SOLID
 70
     1
 71
     0
 91
        1
 92
        3
 72
     0
 73
     1
 93
        3
 10
77.94228625544575
 20
207.4761883169614
 10
77.94228625544575
 20
267.4301962317318
 10
26.02059256945788
 20
237.4531922743497
 97
        0
 75
     0
 76
     1
 98
        0
  0
HATCH
  5
41
330
1F
100
AcDbEntity
  8
0_Pen_No__146
  6
Continuous
 62
   250
420
  3289650
370
     0
100
AcDbHatch
 10
0.0
 20
0.0
 30
0.0
210
0.0
220
0.0
230
1.0
  2
SOLID
 70
     1
 71
     0
 91
        1
 92
        3
 72
     0
 73
     1
 93
       66
 10
-274.4225327460329
 20
209.8555983650448
 10
-266.9241806577792
 20
152.7742892055644
 10
-264.8456841145673
 20
118.82551233309
 10
-265.4305287054915
 20
113.8218419440618
 10
-250.6360279607689
 20
122.3634510672455
 10
-256.1693217647325
 20
127.1968865347817
 10
-256.1693217647334
 20
184.2729344164067
 10
-255.514573679597
 20
184.6509534012635
 10
-255.514573679597
 20
216.4313389395878
 10
-257.8240142831669
 20
222.6341830198821
 10
-257.8240142831669
 20
305.0256794754476
 10
-244.6995871907709
 20
312.6030710233147
 10
-249.3811897485267
 20
361.7717707015113
 10
-249.3811897485267
 20
385.5667827085698
 10
-249.1234464812551
 20
399.2968963145294
 10
-240.7404672552449
 20
402.9169921231939
 10
-249.3477177391026
 20
496.6169604834047
 10
-249.3811897485267
 20
503.2344795979444
 10
-238.4037277604136
 20
509.5723202594959
 10
-240.7404672552409
 20
534.114011065129
 10
-204.6217633840151
 20
565.7321559434885
 10
-162.2204339024576
 20
598.1567020176217
 10
-114.8307127172021
 20
613.1218771287554
 10
-64.11539706280544
 20
620.6044646843219
 10
-27.3802207867595
 20
631.2573390312315
 10
3.468403295300071
 20
644.2760244236607
 10
29.0583318690123
 20
648.8984190471441
 10
42.80676859272559
 20
642.9292767374086
 10
33.80154211796338
 20
637.7301067853716
 10
36.03026290291078
 20
614.0272792560921
 10
87.22238783462855
 20
614.6407087812502
 10
135.5647991059845
 20
632.3983126401997
 10
222.2496972256311
 20
622.6422850538543
 10
227.6308643455698
 20
618.9825902777258
 10
220.0682109572902
 20
613.9650076967249
 10
236.2655195095833
 20
611.0718264701565
 10
247.8857741364986
 20
595.1730061168395
 10
244.2434799497526
 20
562.4067779397939
 10
280.0271402639496
 20
516.7967815620851
 10
274.5072816604
 20
513.6098897114371
 10
280.8620663003321
 20
506.701337652137
 10
284.5476142077901
 20
494.0649850674716
 10
304.8207470746411
 20
399.8076093650647
 10
293.6498864715352
 20
393.3581099887817
 10
295.1755782735848
 20
382.3014220775103
 10
252.4403484545625
 20
237.1289607634623
 10
243.4351219797999
 20
231.9297908114253
 10
217.0161353908573
 20
173.4840051460442
 10
262.0429952208503
 20
227.3770591541988
 10
297.8142088223453
 20
300.3896560696202
 10
335.5793451579066
 20
380.9552802521536
 10
321.732128501534
 20
471.5916074575033
 10
314.1791012344218
 20
543.3453664950721
 10
267.6020997538957
 20
607.5460982655236
 10
171.4066680155035
 20
654.1230997460561
 10
82.02917868800253
 20
665.4526406467263
 10
1.463554505471532
 20
676.7821815473931
 10
-60.6504735214406
 20
681.0656299283322
 10
-104.2989009289115
 20
671.3659793933382
 10
-146.5616639742406
 20
640.8813634262162
 10
-249.6033761309978
 20
574.7090874778011
 10
-297.4280751802499
 20
547.8337327984492
 10
-291.4420051357974
 20
491.5646743805845
 10
-296.715964443832
 20
399.4225456668386
 10
-293.2518035384775
 20
321.13250920582
 10
-280.0879920981279
 20
259.4704450904998
 97
        0
 75
     0
 76
     1
 98
        0
  0
LWPOLYLINE
  5
42
330
1F
100
AcDbEntity
  8
0_Pen_No__1
  6
Continuous
100
AcDbPolyline
 90
        2
 70
   128
 43
0.0
 10
-255.5145736795974
 20
216.4313389395878
 10
-257.8240142831678
 20
222.2049404485125
  0
LWPOLYLINE
  5
44
330
1F
100
AcDbEntity
  8
0_Pen_No__1
  6
Continuous
100
AcDbPolyline
 90
        2
 70
   128
 43
0.0
 10
-257.8240142831678
 20
222.2049404485125
 10
-257.8240142831678
 20
289.4579703471858
  0
LWPOLYLINE
  5
45
330
1F
100
AcDbEntity
  8
0_Pen_No__1
  6
Continuous
100
AcDbPolyline
 90
        2
 70
   128
 43
0.0
 10
-257.8240142831678
 20
305.0256794754476
 10
-249.4968941896025
 20
309.8333445240506
  0
LWPOLYLINE
  5
46
330
1F
100
AcDbEntity
  8
0_Pen_No__1
  6
Continuous
100
AcDbPolyline
 90
        2
 70
   128
 43
0.0
 10
-248.9359147852843
 20
123.3450118710537
 10
-256.1693217647334
 20
129.6635279456111
  0
LWPOLYLINE
  5
47
330
1F
100
AcDbEntity
  8
0_Pen_No__1
  6
Continuous
100
AcDbPolyline
 90
        2
 70
   128
 43
0.0
 10
92.60355495456673
 20
610.9810140051218
 10
87.22238783462765
 20
614.6407087812502
  0
LWPOLYLINE
  5
48
330
1F
100
AcDbEntity
  8
0_Pen_No__1
  6
Continuous
100
AcDbPolyline
 90
        2
 70
   128
 43
0.0
 10
140.9459662259227
 20
628.7386178640712
 10
135.5647991059841
 20
632.3983126401997
  0
LWPOLYLINE
  5
49
330
1F
100
AcDbEntity
  8
0_Pen_No__1
  6
Continuous
100
AcDbPolyline
 90
        2
 70
   128
 43
0.0
 10
-234.6018525375424
 20
530.6809235863108
 10
-240.7404672552414
 20
534.1140110651293
  0
LWPOLYLINE
  5
4A
330
1F
100
AcDbEntity
  8
0_Pen_No__1
  6
Continuous
100
AcDbPolyline
 90
        2
 70
   128
 43
0.0
 10
227.6308643455698
 20
618.9825902777258
 10
222.2496972256311
 20
622.6422850538543
  0
LWPOLYLINE
  5
4B
330
1F
100
AcDbEntity
  8
0_Pen_No__1
  6
Continuous
100
AcDbPolyline
 90
        2
 70
   128
 43
0.0
 10
-249.4968941896025
 20
309.8333445240506
 10
-244.6995871907714
 20
312.6030710233146
  0
LWPOLYLINE
  5
4C
330
1F
100
AcDbEntity
  8
0_Pen_No__1
  6
Continuous
100
AcDbPolyline
 90
        2
 70
   128
 43
0.0
 10
280.8620663003321
 20
506.701337652137
 10
274.5072816604
 20
513.6098897114371
  0
LWPOLYLINE
  5
4D
330
1F
100
AcDbEntity
  8
0_Pen_No__1
  6
Continuous
100
AcDbPolyline
 90
        2
 70
   128
 43
0.0
 10
77.94228625544575
 20
276.0894745388587
 10
77.94228625544575
 20
207.4761883169614
  0
LWPOLYLINE
  5
4E
330
1F
100
AcDbEntity
  8
0_Pen_No__1
  6
Continuous
100
AcDbPolyline
 90
        2
 70
   128
 43
0.0
 10
77.94228625544575
 20
207.4761883169614
 10
18.52143760981795
 20
241.7828314279134
  0
LWPOLYLINE
  5
4F
330
1F
100
AcDbEntity
  8
0_Pen_No__1
  6
Continuous
100
AcDbPolyline
 90
        2
 70
   128
 43
0.0
 10
77.94228625544575
 20
276.0894745388587
 10
77.94228625544575
 20
207.4761883169614
  0
LWPOLYLINE
  5
50
330
1F
100
AcDbEntity
  8
0_Pen_No__1
  6
Continuous
100
AcDbPolyline
 90
        2
 70
   128
 43
0.0
 10
-60.65047352144015
 20
681.0656299283324
 10
-104.2989009289124
 20
671.3659793933382
  0
LWPOLYLINE
  5
51
330
1F
100
AcDbEntity
  8
0_Pen_No__1
  6
Continuous
100
AcDbPolyline
 90
        2
 70
   128
 43
0.0
 10
-104.2989009289124
 20
671.3659793933382
 10
-146.5616639742424
 20
640.881363426215
  0
LWPOLYLINE
  5
52
330
1F
100
AcDbEntity
  8
0_Pen_No__1
  6
Continuous
100
AcDbPolyline
 90
        2
 70
   128
 43
0.0
 10
-146.5616639742424
 20
640.881363426215
 10
-249.6033761310049
 20
574.709087477799
  0
LWPOLYLINE
  5
53
330
1F
100
AcDbEntity
  8
0_Pen_No__1
  6
Continuous
100
AcDbPolyline
 90
        2
 70
   128
 43
0.0
 10
-249.6033761310049
 20
574.709087477799
 10
-297.4280751802499
 20
547.8337327984495
  0
LWPOLYLINE
  5
54
330
1F
100
AcDbEntity
  8
0_Pen_No__1
  6
Continuous
100
AcDbPolyline
 90
        2
 70
   128
 43
0.0
 10
-297.4280751802499
 20
547.8337327984495
 10
-291.4420051357969
 20
491.5646743805876
  0
LWPOLYLINE
  5
55
330
1F
100
AcDbEntity
  8
0_Pen_No__1
  6
Continuous
100
AcDbPolyline
 90
        2
 70
   128
 43
0.0
 10
-291.4420051357969
 20
491.5646743805876
 10
-296.715964443832
 20
399.4225456668393
  0
LWPOLYLINE
  5
56
330
1F
100
AcDbEntity
  8
0_Pen_No__1
  6
Continuous
100
AcDbPolyline
 90
        2
 70
   128
 43
0.0
 10
-296.715964443832
 20
399.4225456668393
 10
-293.2518035384771
 20
321.1325092058178
  0
LWPOLYLINE
  5
57
330
1F
100
AcDbEntity
  8
0_Pen_No__1
  6
Continuous
100
AcDbPolyline
 90
        2
 70
   128
 43
0.0
 10
-293.2518035384771
 20
321.1325092058178
 10
-291.0506947316723
 20
310.8220521634165
  0
LWPOLYLINE
  5
58
330
1F
100
AcDbEntity
  8
0_Pen_No__1
  6
Continuous
100
AcDbPolyline
 90
        2
 70
   128
 43
0.0
 10
-291.0506947316723
 20
310.8220521634165
 10
-280.0879920981292
 20
259.4704450905002
  0
LWPOLYLINE
  5
59
330
1F
100
AcDbEntity
  8
0_Pen_No__1
  6
Continuous
100
AcDbPolyline
 90
        2
 70
   128
 43
0.0
 10
-280.0879920981292
 20
259.4704450905002
 10
-274.4225327460359
 20
209.8555983650619
  0
LWPOLYLINE
  5
5A
330
1F
100
AcDbEntity
  8
0_Pen_No__1
  6
Continuous
100
AcDbPolyline
 90
        2
 70
   128
 43
0.0
 10
-274.4225327460359
 20
209.8555983650619
 10
-266.9241806577796
 20
152.7742892055689
  0
LWPOLYLINE
  5
5B
330
1F
100
AcDbEntity
  8
0_Pen_No__1
  6
Continuous
100
AcDbPolyline
 90
        2
 70
   128
 43
0.0
 10
-266.9241806577796
 20
152.7742892055689
 10
-264.8456841145668
 20
118.8255123330904
  0
LWPOLYLINE
  5
5C
330
1F
100
AcDbEntity
  8
0_Pen_No__1
  6
Continuous
100
AcDbPolyline
 90
        2
 70
   128
 43
0.0
 10
-264.8456841145668
 20
118.8255123330904
 10
-265.430528705492
 20
113.8218419440616
  0
LWPOLYLINE
  5
5D
330
1F
100
AcDbEntity
  8
0_Pen_No__1
  6
Continuous
100
AcDbPolyline
 90
        2
 70
   128
 43
0.0
 10
-265.430528705492
 20
113.8218419440616
 10
-248.9359147852843
 20
123.3450118710537
  0
LWPOLYLINE
  5
5E
330
1F
100
AcDbEntity
  8
0_Pen_No__1
  6
Continuous
100
AcDbPolyline
 90
        2
 70
   128
 43
0.0
 10
-217.4475200532444
 20
554.5045483862494
 10
-204.6217633840013
 20
565.7321559434998
  0
LWPOLYLINE
  5
5F
330
1F
100
AcDbEntity
  8
0_Pen_No__1
  6
Continuous
100
AcDbPolyline
 90
        2
 70
   128
 43
0.0
 10
-204.6217633840013
 20
565.7321559434998
 10
-162.2204339024584
 20
598.1567020176217
  0
LWPOLYLINE
  5
60
330
1F
100
AcDbEntity
  8
0_Pen_No__1
  6
Continuous
100
AcDbPolyline
 90
        2
 70
   128
 43
0.0
 10
-162.2204339024584
 20
598.1567020176217
 10
-114.8307127172026
 20
613.1218771287554
  0
LWPOLYLINE
  5
61
330
1F
100
AcDbEntity
  8
0_Pen_No__1
  6
Continuous
100
AcDbPolyline
 90
        2
 70
   128
 43
0.0
 10
-114.8307127172026
 20
613.1218771287554
 10
-89.9943048292724
 20
616.7862651777942
  0
LWPOLYLINE
  5
62
330
1F
100
AcDbEntity
  8
0_Pen_No__1
  6
Continuous
100
AcDbPolyline
 90
        2
 70
   128
 43
0.0
 10
-256.1693217647334
 20
127.1968865347817
 10
-256.1693217647334
 20
184.2729344164069
  0
LWPOLYLINE
  5
63
330
1F
100
AcDbEntity
  8
0_Pen_No__1
  6
Continuous
100
AcDbPolyline
 90
        2
 70
   128
 43
0.0
 10
-248.9359147852843
 20
120.8783704602248
 10
-256.1693217647334
 20
127.1968865347817
  0
LWPOLYLINE
  5
64
330
1F
100
AcDbEntity
  8
0_Pen_No__1
  6
Continuous
100
AcDbPolyline
 90
        2
 70
   128
 43
0.0
 10
-248.9359147852843
 20
125.8124123329982
 10
-256.1693217647334
 20
132.1309284075551
  0
LWPOLYLINE
  5
65
330
1F
100
AcDbEntity
  8
0_Pen_No__1
  6
Continuous
100
AcDbPolyline
 90
        2
 70
   128
 43
0.0
 10
154.7486444093504
 20
355.342339883685
 10
-234.0325309514424
 20
130.8794226523959
  0
LWPOLYLINE
  5
66
330
1F
100
AcDbEntity
  8
0_Pen_No__1
  6
Continuous
100
AcDbPolyline
 90
        2
 70
   128
 43
0.0
 10
169.9177688888707
 20
321.9213385950279
 10
304.8207470746411
 20
399.8076093650647
  0
LWPOLYLINE
  5
67
330
1F
100
AcDbEntity
  8
0_Pen_No__1
  6
Continuous
100
AcDbPolyline
 90
        2
 70
   128
 43
0.0
 10
-230.3286309485251
 20
222.1427396700839
 10
280.0271402639496
 20
516.7967815620851
  0
LWPOLYLINE
  5
68
330
1F
100
AcDbEntity
  8
0_Pen_No__1
  6
Continuous
100
AcDbPolyline
 90
        2
 70
   128
 43
0.0
 10
36.41081072076213
 20
609.9800879910018
 10
33.80154211796338
 20
637.7301067853716
  0
LWPOLYLINE
  5
69
330
1F
100
AcDbEntity
  8
0_Pen_No__1
  6
Continuous
100
AcDbPolyline
 90
        2
 70
   128
 43
0.0
 10
-234.0325309514415
 20
130.8794226523955
 10
-243.319011948524
 20
229.6427396700829
  0
LWPOLYLINE
  5
6A
330
1F
100
AcDbEntity
  8
0_Pen_No__1
  6
Continuous
100
AcDbPolyline
 90
        2
 70
   128
 43
0.0
 10
-230.3286309485251
 20
485.234479597944
 10
42.80676859272559
 20
642.9292767374086
  0
LWPOLYLINE
  5
6B
330
1F
100
AcDbEntity
  8
0_Pen_No__1
  6
Continuous
100
AcDbPolyline
 90
        2
 70
   128
 43
0.0
 10
236.2655195095833
 20
611.0718264701565
 10
218.6256378708076
 20
613.7834203256887
  0
LWPOLYLINE
  5
6C
330
1F
100
AcDbEntity
  8
0_Pen_No__1
  6
Continuous
100
AcDbPolyline
 90
        2
 70
   128
 43
0.0
 10
129.1699188674769
 20
165.9587447472321
 10
252.4403484545625
 20
237.1289607634623
  0
LWPOLYLINE
  5
6D
330
1F
100
AcDbEntity
  8
0_Pen_No__1
  6
Continuous
100
AcDbPolyline
 90
        2
 70
   128
 43
0.0
 10
-230.3286309485251
 20
354.5795512363259
 10
227.6308643455698
 20
618.9825902777258
  0
LWPOLYLINE
  5
6E
330
1F
100
AcDbEntity
  8
0_Pen_No__1
  6
Continuous
100
AcDbPolyline
 90
        2
 70
   128
 43
0.0
 10
-249.3416292126907
 20
232.3215001752677
 10
-240.1345291470589
 20
134.4024129686256
  0
LWPOLYLINE
  5
6F
330
1F
100
AcDbEntity
  8
0_Pen_No__1
  6
Continuous
100
AcDbPolyline
 90
        2
 70
   128
 43
0.0
 10
-230.3286309485251
 20
485.234479597944
 10
-234.6018525375424
 20
530.6809235863108
  0
LWPOLYLINE
  5
70
330
1F
100
AcDbEntity
  8
0_Pen_No__1
  6
Continuous
100
AcDbPolyline
 90
        2
 70
   128
 43
0.0
 10
-243.319011948524
 20
229.6427396700829
 10
-230.3286309485251
 20
222.1427396700839
  0
LWPOLYLINE
  5
71
330
1F
100
AcDbEntity
  8
0_Pen_No__1
  6
Continuous
100
AcDbPolyline
 90
        2
 70
   128
 43
0.0
 10
-230.3286309485251
 20
222.1427396700839
 10
-243.319011948524
 20
360.2976680317022
  0
LWPOLYLINE
  5
72
330
1F
100
AcDbEntity
  8
0_Pen_No__1
  6
Continuous
100
AcDbPolyline
 90
        2
 70
   128
 43
0.0
 10
-243.319011948524
 20
360.2976680317022
 10
-243.319011948524
 20
377.2514352244063
  0
LWPOLYLINE
  5
73
330
1F
100
AcDbEntity
  8
0_Pen_No__1
  6
Continuous
100
AcDbPolyline
 90
        2
 70
   128
 43
0.0
 10
-243.319011948524
 20
377.2514352244063
 10
-238.3944891332432
 20
374.4082606389487
  0
LWPOLYLINE
  5
74
330
1F
100
AcDbEntity
  8
0_Pen_No__1
  6
Continuous
100
AcDbPolyline
 90
        2
 70
   128
 43
0.0
 10
-238.3944891332432
 20
374.4082606389487
 10
-238.3944891332432
 20
381.1446367230269
  0
LWPOLYLINE
  5
75
330
1F
100
AcDbEntity
  8
0_Pen_No__1
  6
Continuous
100
AcDbPolyline
 90
        2
 70
   128
 43
0.0
 10
-238.3944891332432
 20
381.1446367230269
 10
-241.0248105885233
 20
382.6632535299246
  0
LWPOLYLINE
  5
76
330
1F
100
AcDbEntity
  8
0_Pen_No__1
  6
Continuous
100
AcDbPolyline
 90
        2
 70
   128
 43
0.0
 10
-241.0248105885233
 20
382.6632535299246
 10
-241.0248105885233
 20
380.7422249300079
  0
LWPOLYLINE
  5
77
330
1F
100
AcDbEntity
  8
0_Pen_No__1
  6
Continuous
100
AcDbPolyline
 90
        2
 70
   128
 43
0.0
 10
-241.0248105885233
 20
380.7422249300079
 10
-249.3811897485272
 20
385.5667827085696
  0
LWPOLYLINE
  5
78
330
1F
100
AcDbEntity
  8
0_Pen_No__1
  6
Continuous
100
AcDbPolyline
 90
        2
 70
   128
 43
0.0
 10
-249.3811897485272
 20
385.5667827085696
 10
-249.3811897485272
 20
361.7717707015111
  0
LWPOLYLINE
  5
79
330
1F
100
AcDbEntity
  8
0_Pen_No__1
  6
Continuous
100
AcDbPolyline
 90
        2
 70
   128
 43
0.0
 10
-249.3811897485272
 20
361.7717707015111
 10
-237.1266049342671
 20
233.0675517978455
  0
LWPOLYLINE
  5
7A
330
1F
100
AcDbEntity
  8
0_Pen_No__1
  6
Continuous
100
AcDbPolyline
 90
        2
 70
   128
 43
0.0
 10
-237.1266049342671
 20
233.0675517978455
 10
-249.3811897485272
 20
240.1427396700837
  0
LWPOLYLINE
  5
7B
330
1F
100
AcDbEntity
  8
0_Pen_No__1
  6
Continuous
100
AcDbPolyline
 90
        2
 70
   128
 43
0.0
 10
-249.3811897485272
 20
240.1427396700837
 10
-249.3416292126907
 20
232.3215001752677
  0
LWPOLYLINE
  5
7C
330
1F
100
AcDbEntity
  8
0_Pen_No__1
  6
Continuous
100
AcDbPolyline
 90
        2
 70
   128
 43
0.0
 10
-243.319011948524
 20
360.2976680317022
 10
-241.7758558334664
 20
361.188609634026
  0
LWPOLYLINE
  5
7D
330
1F
100
AcDbEntity
  8
0_Pen_No__1
  6
Continuous
100
AcDbPolyline
 90
        2
 70
   128
 43
0.0
 10
-238.3944891332432
 20
374.4082606389487
 10
-237.9859932906068
 20
374.6441058246881
  0
LWPOLYLINE
  5
7E
330
1F
100
AcDbEntity
  8
0_Pen_No__1
  6
Continuous
100
AcDbPolyline
 90
        2
 70
   128
 43
0.0
 10
-241.0248105885233
 20
382.6632535299246
 10
-238.8576624826379
 20
383.9144570776989
  0
LWPOLYLINE
  5
7F
330
1F
100
AcDbEntity
  8
0_Pen_No__1
  6
Continuous
100
AcDbPolyline
 90
        2
 70
   128
 43
0.0
 10
-249.3811897485272
 20
385.5667827085696
 10
-248.3310395843468
 20
386.1730871911979
  0
LWPOLYLINE
  5
80
330
1F
100
AcDbEntity
  8
0_Pen_No__1
  6
Continuous
100
AcDbPolyline
 90
        2
 70
   128
 43
0.0
 10
-249.3811897485272
 20
240.1427396700837
 10
-238.4037277604172
 20
246.4805803316337
  0
LWPOLYLINE
  5
81
330
1F
100
AcDbEntity
  8
0_Pen_No__1
  6
Continuous
100
AcDbPolyline
 90
        2
 70
   128
 43
0.0
 10
-243.319011948524
 20
492.7344795979434
 10
-230.3286309485251
 20
485.234479597944
  0
LWPOLYLINE
  5
82
330
1F
100
AcDbEntity
  8
0_Pen_No__1
  6
Continuous
100
AcDbPolyline
 90
        2
 70
   128
 43
0.0
 10
-237.1266049342671
 20
496.1592917257058
 10
-249.3811897485272
 20
503.2344795979442
  0
LWPOLYLINE
  5
83
330
1F
100
AcDbEntity
  8
0_Pen_No__1
  6
Continuous
100
AcDbPolyline
 90
        2
 70
   128
 43
0.0
 10
-249.3811897485272
 20
503.2344795979442
 10
-249.3416292126907
 20
495.4132401031288
  0
LWPOLYLINE
  5
84
330
1F
100
AcDbEntity
  8
0_Pen_No__1
  6
Continuous
100
AcDbPolyline
 90
        2
 70
   128
 43
0.0
 10
-249.3416292126907
 20
495.4132401031288
 10
-239.8110829818849
 20
394.0542474942899
  0
LWPOLYLINE
  5
85
330
1F
100
AcDbEntity
  8
0_Pen_No__1
  6
Continuous
100
AcDbPolyline
 90
        2
 70
   128
 43
0.0
 10
-239.8110829818849
 20
394.0542474942899
 10
-248.5151643485231
 20
399.079551236327
  0
LWPOLYLINE
  5
86
330
1F
100
AcDbEntity
  8
0_Pen_No__1
  6
Continuous
100
AcDbPolyline
 90
        2
 70
   128
 43
0.0
 10
-248.5151643485231
 20
399.079551236327
 10
-248.5151643485231
 20
386.2793916738589
  0
LWPOLYLINE
  5
87
330
1F
100
AcDbEntity
  8
0_Pen_No__1
  6
Continuous
100
AcDbPolyline
 90
        2
 70
   128
 43
0.0
 10
-248.5151643485231
 20
386.2793916738589
 10
-242.4529865485319
 20
382.779391673864
  0
LWPOLYLINE
  5
88
330
1F
100
AcDbEntity
  8
0_Pen_No__1
  6
Continuous
100
AcDbPolyline
 90
        2
 70
   128
 43
0.0
 10
-242.4529865485319
 20
382.779391673864
 10
-242.4529865485319
 20
388.5795512363333
  0
LWPOLYLINE
  5
89
330
1F
100
AcDbEntity
  8
0_Pen_No__1
  6
Continuous
100
AcDbPolyline
 90
        2
 70
   128
 43
0.0
 10
-242.4529865485319
 20
388.5795512363333
 10
-239.1151071917563
 20
386.6524256827553
  0
LWPOLYLINE
  5
8A
330
1F
100
AcDbEntity
  8
0_Pen_No__1
  6
Continuous
100
AcDbPolyline
 90
        2
 70
   128
 43
0.0
 10
-239.1151071917563
 20
386.6524256827553
 10
-237.1266049342671
 20
365.5043633640875
  0
LWPOLYLINE
  5
8B
330
1F
100
AcDbEntity
  8
0_Pen_No__1
  6
Continuous
100
AcDbPolyline
 90
        2
 70
   128
 43
0.0
 10
-237.1266049342671
 20
365.5043633640875
 10
-242.4529865485319
 20
368.5795512363284
  0
LWPOLYLINE
  5
8C
330
1F
100
AcDbEntity
  8
0_Pen_No__1
  6
Continuous
100
AcDbPolyline
 90
        2
 70
   128
 43
0.0
 10
-242.4529865485319
 20
368.5795512363284
 10
-242.4529865485319
 20
361.5795512363298
  0
LWPOLYLINE
  5
8D
330
1F
100
AcDbEntity
  8
0_Pen_No__1
  6
Continuous
100
AcDbPolyline
 90
        2
 70
   128
 43
0.0
 10
-242.4529865485319
 20
361.5795512363298
 10
-230.3286309485251
 20
354.5795512363259
  0
LWPOLYLINE
  5
8E
330
1F
100
AcDbEntity
  8
0_Pen_No__1
  6
Continuous
100
AcDbPolyline
 90
        2
 70
   128
 43
0.0
 10
-230.3286309485251
 20
354.5795512363259
 10
-243.319011948524
 20
492.7344795979434
  0
LWPOLYLINE
  5
8F
330
1F
100
AcDbEntity
  8
0_Pen_No__1
  6
Continuous
100
AcDbPolyline
 90
        2
 70
   128
 43
0.0
 10
-249.3811897485272
 20
503.2344795979442
 10
-238.4037277604141
 20
509.5723202594957
  0
LWPOLYLINE
  5
90
330
1F
100
AcDbEntity
  8
0_Pen_No__1
  6
Continuous
100
AcDbPolyline
 90
        2
 70
   128
 43
0.0
 10
-248.5151643485231
 20
399.079551236327
 10
-240.7074564995377
 20
403.5873334843909
  0
LWPOLYLINE
  5
91
330
1F
100
AcDbEntity
  8
0_Pen_No__1
  6
Continuous
100
AcDbPolyline
 90
        2
 70
   128
 43
0.0
 10
-242.4529865485319
 20
382.779391673864
 10
-238.9415593927944
 20
384.8067150963279
  0
LWPOLYLINE
  5
92
330
1F
100
AcDbEntity
  8
0_Pen_No__1
  6
Continuous
100
AcDbPolyline
 90
        2
 70
   128
 43
0.0
 10
-242.4529865485319
 20
368.5795512363284
 10
-237.6751323690241
 20
371.3380466450704
  0
LWPOLYLINE
  5
93
330
1F
100
AcDbEntity
  8
0_Pen_No__1
  6
Continuous
100
AcDbPolyline
 90
        2
 70
   128
 43
0.0
 10
-240.7404672552414
 20
534.1140110651293
 10
-237.1266049342671
 20
496.1592917257058
  0
LWPOLYLINE
  5
94
330
1F
100
AcDbEntity
  8
0_Pen_No__1
  6
Continuous
100
AcDbPolyline
 90
        2
 70
   128
 43
0.0
 10
244.2434799497535
 20
562.4067779397932
 10
280.0271402639496
 20
516.7967815620851
  0
LWPOLYLINE
  5
95
330
1F
100
AcDbEntity
  8
0_Pen_No__1
  6
Continuous
100
AcDbPolyline
 90
        2
 70
   128
 43
0.0
 10
147.2243184825133
 20
-5.000000016393891
 10
147.2243184825133
 20
71.4079475157714
  0
LWPOLYLINE
  5
96
330
1F
100
AcDbEntity
  8
0_Pen_No__1
  6
Continuous
100
AcDbPolyline
 90
        2
 70
   128
 43
0.0
 10
227.6308643455698
 20
618.9825902777258
 10
141.6990448009576
 20
628.5156361385887
  0
LWPOLYLINE
  5
97
330
1F
100
AcDbEntity
  8
0_Pen_No__1
  6
Continuous
100
AcDbPolyline
 90
        2
 70
   128
 43
0.0
 10
80.01649367735375
 20
-40.91198208265467
 10
101.6671287483173
 20
-53.41198212361164
  0
LWPOLYLINE
  5
98
330
1F
100
AcDbEntity
  8
0_Pen_No__1
  6
Continuous
100
AcDbPolyline
 90
        2
 70
   128
 43
0.0
 10
280.8620663003321
 20
506.701337652137
 10
284.5476142077893
 20
494.0649850674723
  0
LWPOLYLINE
  5
99
330
1F
100
AcDbEntity
  8
0_Pen_No__1
  6
Continuous
100
AcDbPolyline
 90
        2
 70
   128
 43
0.0
 10
243.4351219797999
 20
231.9297908114253
 10
252.4403484545625
 20
237.1289607634623
  0
LWPOLYLINE
  5
9A
330
1F
100
AcDbEntity
  8
0_Pen_No__1
  6
Continuous
100
AcDbPolyline
 90
        2
 70
   128
 43
0.0
 10
80.01649367735375
 20
268.6277404503583
 10
80.01649367735375
 20
-40.91198208265467
  0
LWPOLYLINE
  5
9B
330
1F
100
AcDbEntity
  8
0_Pen_No__1
  6
Continuous
100
AcDbPolyline
 90
        2
 70
   128
 43
0.0
 10
101.6671287483173
 20
281.1277404913293
 10
101.6671287483173
 20
-53.41198212361164
  0
LWPOLYLINE
  5
9C
330
1F
100
AcDbEntity
  8
0_Pen_No__1
  6
Continuous
100
AcDbPolyline
 90
        2
 70
   128
 43
0.0
 10
-255.5145736795974
 20
160.2821306524516
 10
-253.2999698871641
 20
161.5607327537492
  0
LWPOLYLINE
  5
9D
330
1F
100
AcDbEntity
  8
0_Pen_No__1
  6
Continuous
100
AcDbPolyline
 90
        2
 70
   128
 43
0.0
 10
-255.5145736795974
 20
216.4313389395875
 10
-255.5145736795974
 20
160.2821306524516
  0
LWPOLYLINE
  5
9E
330
1F
100
AcDbEntity
  8
0_Pen_No__1
  6
Continuous
100
AcDbPolyline
 90
        2
 70
   128
 43
0.0
 10
-257.8240142831678
 20
305.0256794754476
 10
-257.8240142831678
 20
222.2049404485125
  0
LWPOLYLINE
  5
9F
330
1F
100
AcDbEntity
  8
0_Pen_No__1
  6
Continuous
100
AcDbPolyline
 90
        2
 70
   128
 43
0.0
 10
130.7765566510608
 20
-14.49611977884668
 10
147.2243184825133
 20
-5.000000016393891
  0
LWPOLYLINE
  5
A0
330
1F
100
AcDbEntity
  8
0_Pen_No__1
  6
Continuous
100
AcDbPolyline
 90
        2
 70
   128
 43
0.0
 10
77.94228625544619
 20
-45.0000001474904
 10
82.51971744620734
 20
-42.35721900575862
  0
LWPOLYLINE
  5
A1
330
1F
100
AcDbEntity
  8
0_Pen_No__1
  6
Continuous
100
AcDbPolyline
 90
        2
 70
   128
 43
0.0
 10
0.0
 20
0.0
 10
77.94228625544619
 20
-45.0000001474904
  0
LWPOLYLINE
  5
A3
330
1F
100
AcDbEntity
  8
0_Pen_No__1
  6
DASHED2
100
AcDbPolyline
 90
        2
 70
   128
 43
0.0
 10
77.94228625544575
 20
207.476188316962
 10
134.7795663008955
 20
240.2912073946051
  0
LWPOLYLINE
  5
A4
330
1F
100
AcDbEntity
  8
0_Pen_No__1
  6
Continuous
100
AcDbPolyline
 90
        2
 70
   128
 43
0.0
 10
-250.2009823557274
 20
124.4500720179467
 10
-235.2826754067814
 20
111.4186523107601
  0
LWPOLYLINE
  5
A5
330
1F
100
AcDbEntity
  8
0_Pen_No__1
  6
Continuous
100
AcDbPolyline
 90
        2
 70
   128
 43
0.0
 10
-235.2826754067814
 20
111.4186523107601
 10
-235.2826754067814
 20
96.41865231076041
  0
LWPOLYLINE
  5
A6
330
1F
100
AcDbEntity
  8
0_Pen_No__1
  6
Continuous
100
AcDbPolyline
 90
        2
 70
   128
 43
0.0
 10
-245.9676160799109
 20
175.420192030308
 10
-243.7414496119024
 20
176.7054698454906
  0
LWPOLYLINE
  5
A7
330
1F
100
AcDbEntity
  8
0_Pen_No__1
  6
Continuous
100
AcDbPolyline
 90
        2
 70
   128
 43
0.0
 10
-240.7404672552414
 20
534.114011065129
 10
-204.6217633840031
 20
565.7321559434996
  0
LWPOLYLINE
  5
A8
330
1F
100
AcDbEntity
  8
0_Pen_No__1
  6
Continuous
100
AcDbPolyline
 90
        2
 70
   128
 43
0.0
 10
-204.6217633840031
 20
565.7321559434996
 10
-162.2204339024584
 20
598.1567020176217
  0
LWPOLYLINE
  5
A9
330
1F
100
AcDbEntity
  8
0_Pen_No__1
  6
Continuous
100
AcDbPolyline
 90
        2
 70
   128
 43
0.0
 10
-162.2204339024584
 20
598.1567020176217
 10
-114.8307127172026
 20
613.1218771287554
  0
LWPOLYLINE
  5
AA
330
1F
100
AcDbEntity
  8
0_Pen_No__1
  6
Continuous
100
AcDbPolyline
 90
        2
 70
   128
 43
0.0
 10
-114.8307127172026
 20
613.1218771287554
 10
-64.11539706280634
 20
620.6044646843217
  0
LWPOLYLINE
  5
AB
330
1F
100
AcDbEntity
  8
0_Pen_No__1
  6
Continuous
100
AcDbPolyline
 90
        2
 70
   128
 43
0.0
 10
-234.6782894552413
 20
530.6140110651287
 10
-198.5595855840025
 20
562.2321559434993
  0
LWPOLYLINE
  5
AC
330
1F
100
AcDbEntity
  8
0_Pen_No__1
  6
Continuous
100
AcDbPolyline
 90
        2
 70
   128
 43
0.0
 10
-198.5595855840025
 20
562.2321559434993
 10
-156.1582561024588
 20
594.6567020176215
  0
LWPOLYLINE
  5
AD
330
1F
100
AcDbEntity
  8
0_Pen_No__1
  6
Continuous
100
AcDbPolyline
 90
        2
 70
   128
 43
0.0
 10
-156.1582561024588
 20
594.6567020176215
 10
-108.768534917203
 20
609.6218771287547
  0
LWPOLYLINE
  5
AE
330
1F
100
AcDbEntity
  8
0_Pen_No__1
  6
Continuous
100
AcDbPolyline
 90
        2
 70
   128
 43
0.0
 10
-108.768534917203
 20
609.6218771287547
 10
-58.05321926280627
 20
617.1044646843216
  0
LWPOLYLINE
  5
AF
330
1F
100
AcDbEntity
  8
0_Pen_No__1
  6
Continuous
100
AcDbPolyline
 90
        2
 70
   128
 43
0.0
 10
-264.8456841145668
 20
118.8255123330893
 10
-266.9241806577796
 20
152.774289205568
  0
LWPOLYLINE
  5
B0
330
1F
100
AcDbEntity
  8
0_Pen_No__1
  6
Continuous
100
AcDbPolyline
 90
        2
 70
   128
 43
0.0
 10
-266.9241806577796
 20
152.774289205568
 10
-274.4225327460333
 20
209.8555983650388
  0
LWPOLYLINE
  5
B1
330
1F
100
AcDbEntity
  8
0_Pen_No__1
  6
Continuous
100
AcDbPolyline
 90
        2
 70
   128
 43
0.0
 10
-274.4225327460333
 20
209.8555983650388
 10
-280.0879920981283
 20
259.4704450904998
  0
LWPOLYLINE
  5
B2
330
1F
100
AcDbEntity
  8
0_Pen_No__1
  6
Continuous
100
AcDbPolyline
 90
        2
 70
   128
 43
0.0
 10
-280.0879920981283
 20
259.4704450904998
 10
-293.2518035384771
 20
321.1325092058178
  0
LWPOLYLINE
  5
B3
330
1F
100
AcDbEntity
  8
0_Pen_No__1
  6
Continuous
100
AcDbPolyline
 90
        2
 70
   128
 43
0.0
 10
-293.2518035384771
 20
321.1325092058178
 10
-296.715964443832
 20
399.4225456668393
  0
LWPOLYLINE
  5
B4
330
1F
100
AcDbEntity
  8
0_Pen_No__1
  6
Continuous
100
AcDbPolyline
 90
        2
 70
   128
 43
0.0
 10
-249.6033761310049
 20
574.709087477799
 10
-146.5616639742424
 20
640.881363426215
  0
LWPOLYLINE
  5
B5
330
1F
100
AcDbEntity
  8
0_Pen_No__1
  6
Continuous
100
AcDbPolyline
 90
        2
 70
   128
 43
0.0
 10
-146.5616639742424
 20
640.881363426215
 10
-104.2989009289124
 20
671.3659793933382
  0
LWPOLYLINE
  5
B6
330
1F
100
AcDbEntity
  8
0_Pen_No__1
  6
Continuous
100
AcDbPolyline
 90
        2
 70
   128
 43
0.0
 10
-104.2989009289124
 20
671.3659793933382
 10
-60.65047352144015
 20
681.0656299283324
  0
LWPOLYLINE
  5
B7
330
1F
100
AcDbEntity
  8
0_Pen_No__1
  6
Continuous
100
AcDbPolyline
 90
        2
 70
   128
 43
0.0
 10
-292.4910658463878
 20
101.0521417081337
 10
-370.4333521018335
 20
146.0521418556236
  0
LWPOLYLINE
  5
B8
330
1F
100
AcDbEntity
  8
0_Pen_No__1
  6
Continuous
100
AcDbPolyline
 90
        2
 70
   128
 43
0.0
 10
-265.430528705492
 20
113.8218419440612
 10
-264.8456841145668
 20
118.8255123330893
  0
LWPOLYLINE
  5
B9
330
1F
100
AcDbEntity
  8
0_Pen_No__1
  6
Continuous
100
AcDbPolyline
 90
        2
 70
   128
 43
0.0
 10
-292.4910658463878
 20
101.0521417081337
 10
-265.0728407125749
 20
116.8820614390168
  0
LWPOLYLINE
  5
BA
330
1F
100
AcDbEntity
  8
0_Pen_No__1
  6
Continuous
100
AcDbPolyline
 90
        2
 70
   128
 43
0.0
 10
77.94228625544575
 20
276.0894745388587
 10
77.94228625544619
 20
-45.0000001474904
  0
LWPOLYLINE
  5
BB
330
1F
100
AcDbEntity
  8
0_Pen_No__1
  6
DASHED2
100
AcDbPolyline
 90
        2
 70
   128
 43
0.0
 10
77.94228625544575
 20
276.0894745388587
 10
77.94228625544575
 20
314.9219382938948
  0
LWPOLYLINE
  5
BC
330
1F
100
AcDbEntity
  8
0_Pen_No__1
  6
DASHED2
100
AcDbPolyline
 90
        2
 70
   128
 43
0.0
 10
18.52143760981795
 20
241.7828314279134
 10
0.0
 20
252.4761884644513
  0
LWPOLYLINE
  5
BD
330
1F
100
AcDbEntity
  8
0_Pen_No__1
  6
DASHED2
100
AcDbPolyline
 90
        2
 70
   128
 43
0.0
 10
-10.46398909888602
 20
263.8805511969746
 10
77.94228625544575
 20
314.9219382938948
  0
LWPOLYLINE
  5
BE
330
1F
100
AcDbEntity
  8
0_Pen_No__1
  6
DASHED2
100
AcDbPolyline
 90
        2
 70
   128
 43
0.0
 10
-10.46398909888602
 20
357.3545181166962
 10
-10.46398909888602
 20
263.8805511969746
  0
LWPOLYLINE
  5
BF
330
1F
100
AcDbEntity
  8
0_Pen_No__1
  6
DASHED2
100
AcDbPolyline
 90
        2
 70
   128
 43
0.0
 10
0.0
 20
252.4761884644513
 10
0.0
 20
269.9219381464139
  0
LWPOLYLINE
  5
C0
330
1F
100
AcDbEntity
  8
0_Pen_No__1
  6
DASHED2
100
AcDbPolyline
 90
        2
 70
   128
 43
0.0
 10
134.7795663008955
 20
240.2912073946051
 10
134.7795663008955
 20
441.2109242912608
  0
LWPOLYLINE
  5
C1
330
1F
100
AcDbEntity
  8
0_Pen_No__1
  6
Continuous
100
AcDbPolyline
 90
        2
 70
   128
 43
0.0
 10
-292.4910658463878
 20
251.0521417081332
 10
-370.4333521018335
 20
296.052141855624
  0
LWPOLYLINE
  5
C2
330
1F
100
AcDbEntity
  8
0_Pen_No__1
  6
Continuous
100
AcDbPolyline
 90
        2
 70
   128
 43
0.0
 10
-370.4333521018335
 20
146.0521418556236
 10
-370.4333521018335
 20
296.052141855624
  0
LWPOLYLINE
  5
C3
330
1F
100
AcDbEntity
  8
0_Pen_No__1
  6
Continuous
100
AcDbPolyline
 90
        2
 70
   128
 43
0.0
 10
-331.4622089741113
 20
123.5521417818786
 10
-331.4622089741113
 20
273.5521417818786
  0
LWPOLYLINE
  5
C4
330
1F
100
AcDbEntity
  8
0_Pen_No__1
  6
Continuous
100
AcDbPolyline
 90
        2
 70
   128
 43
0.0
 10
-292.4910658463878
 20
101.0521417081337
 10
-292.4910658463878
 20
251.0521417081336
  0
LWPOLYLINE
  5
C5
330
1F
100
AcDbEntity
  8
0_Pen_No__1
  6
Continuous
100
AcDbPolyline
 90
        2
 70
   128
 43
0.0
 10
-292.4910658463878
 20
251.0521417081332
 10
-279.8490163584185
 20
258.3510324150161
  0
LWPOLYLINE
  5
C6
330
1F
100
AcDbEntity
  8
0_Pen_No__1
  6
Continuous
100
AcDbPolyline
 90
        2
 70
   128
 43
0.0
 10
-370.4333521018335
 20
296.052141855624
 10
-331.4622089741113
 20
123.5521417818786
  0
LWPOLYLINE
  5
C7
330
1F
100
AcDbEntity
  8
0_Pen_No__1
  6
Continuous
100
AcDbPolyline
 90
        2
 70
   128
 43
0.0
 10
-331.4622089741113
 20
273.5521417818786
 10
-370.4333521018335
 20
146.0521418556236
  0
LWPOLYLINE
  5
C8
330
1F
100
AcDbEntity
  8
0_Pen_No__1
  6
Continuous
100
AcDbPolyline
 90
        2
 70
   128
 43
0.0
 10
-292.4910658463878
 20
101.0521417081337
 10
-331.4622089741113
 20
273.5521417818786
  0
LWPOLYLINE
  5
C9
330
1F
100
AcDbEntity
  8
0_Pen_No__1
  6
Continuous
100
AcDbPolyline
 90
        2
 70
   128
 43
0.0
 10
-331.4622089741113
 20
123.5521417818786
 10
-292.4910658463878
 20
251.0521417081332
  0
LWPOLYLINE
  5
CA
330
1F
100
AcDbEntity
  8
0_Pen_No__1
  6
Continuous
100
AcDbPolyline
 90
        2
 70
   128
 43
0.0
 10
-370.4333521018335
 20
296.052141855624
 10
-294.0922974023435
 20
340.1276705291986
  0
LWPOLYLINE
  5
CB
330
1F
100
AcDbEntity
  8
0_Pen_No__1
  6
Continuous
100
AcDbPolyline
 90
        2
 70
   128
 43
0.0
 10
-253.2999698871645
 20
179.6535284932195
 10
-242.9666337232539
 20
141.7533737485361
  0
LWPOLYLINE
  5
CC
330
1F
100
AcDbEntity
  8
0_Pen_No__1
  6
Continuous
100
AcDbPolyline
 90
        2
 70
   128
 43
0.0
 10
34.43949898895271
 20
645.2387242710147
 10
42.80676859272737
 20
642.9292767374075
  0
LWPOLYLINE
  5
CD
330
1F
100
AcDbEntity
  8
0_Pen_No__1
  6
Continuous
100
AcDbPolyline
 90
        2
 70
   128
 43
0.0
 10
284.5476142077893
 20
494.0649850674723
 10
304.8207470746411
 20
399.8076093650647
  0
LWPOLYLINE
  5
CE
330
1F
100
AcDbEntity
  8
0_Pen_No__1
  6
Continuous
100
AcDbPolyline
 90
        2
 70
   128
 43
0.0
 10
-253.2999698871645
 20
179.6535284932195
 10
-253.2999698871645
 20
147.7193281904685
  0
LWPOLYLINE
  5
CF
330
1F
100
AcDbEntity
  8
0_Pen_No__1
  6
Continuous
100
AcDbPolyline
 90
        2
 70
   128
 43
0.0
 10
-253.2999698871645
 20
147.7193281904685
 10
-242.9666337232539
 20
141.7533737485361
  0
LWPOLYLINE
  5
D0
330
1F
100
AcDbEntity
  8
0_Pen_No__1
  6
Continuous
100
AcDbPolyline
 90
        2
 70
   128
 43
0.0
 10
93.35663352960167
 20
610.7580322796391
 10
36.41081072076213
 20
609.9800879910018
  0
LWPOLYLINE
  5
D1
330
1F
100
AcDbEntity
  8
0_Pen_No__1
  6
Continuous
100
AcDbPolyline
 90
        2
 70
   128
 43
0.0
 10
-255.5145736795983
 20
160.2821306524516
 10
-253.2999698871641
 20
161.5607327537492
  0
LWPOLYLINE
  5
D2
330
1F
100
AcDbEntity
  8
0_Pen_No__1
  6
Continuous
100
AcDbPolyline
 90
        2
 70
   128
 43
0.0
 10
-250.2634313747993
 20
124.504622402291
 10
-238.7195523708145
 20
131.1694840818587
  0
LWPOLYLINE
  5
D3
330
1F
100
AcDbEntity
  8
0_Pen_No__1
  6
Continuous
100
AcDbPolyline
 90
        2
 70
   128
 43
0.0
 10
-235.2826754067814
 20
96.41865231076041
 10
-230.2942837030701
 20
89.46972881443082
  0
LWPOLYLINE
  5
D4
330
1F
100
AcDbEntity
  8
0_Pen_No__1
  6
Continuous
100
AcDbPolyline
 90
        2
 70
   128
 43
0.0
 10
165.062608273248
 20
343.7256549186709
 10
165.6343580356308
 20
342.8882105029296
  0
LWPOLYLINE
  5
D6
330
1F
100
AcDbEntity
  8
0_Pen_No__1
  6
AStair_dashed
100
AcDbPolyline
 90
        2
 70
   128
 43
0.0
 10
-74.4058475781828
 20
264.8453028766187
 10
-39.76483146464949
 20
284.8453029421656
  0
LWPOLYLINE
  5
D7
330
1F
100
AcDbEntity
  8
0_Pen_No__1
  6
AStair_dashed
100
AcDbPolyline
 90
        2
 70
   128
 43
0.0
 10
-89.99430482927195
 20
273.8453029061172
 10
-74.4058475781828
 20
264.8453028766187
  0
LWPOLYLINE
  5
D8
330
1F
100
AcDbEntity
  8
0_Pen_No__1
  6
Continuous
100
AcDbPolyline
 90
        2
 70
   128
 43
0.0
 10
-256.1693217647334
 20
129.6635279456111
 10
-250.2009823557274
 20
124.4500720179467
  0
LWPOLYLINE
  5
D9
330
1F
100
AcDbEntity
  8
0_Pen_No__1
  6
Continuous
100
AcDbPolyline
 90
        2
 70
   128
 43
0.0
 10
-240.1345291470589
 20
134.4024129686256
 10
-234.0325309514424
 20
130.8794226523959
  0
LWPOLYLINE
  5
DA
330
1F
100
AcDbEntity
  8
0_Pen_No__1
  6
Continuous
100
AcDbPolyline
 90
        2
 70
   128
 43
0.0
 10
252.4403484545625
 20
237.1289607634623
 10
295.1755782735848
 20
382.3014220775103
  0
LWPOLYLINE
  5
DB
330
1F
100
AcDbEntity
  8
0_Pen_No__1
  6
Continuous
100
AcDbPolyline
 90
        2
 70
   128
 43
0.0
 10
29.0583318690123
 20
648.8984190471441
 10
42.80676859272559
 20
642.9292767374086
  0
LWPOLYLINE
  5
DC
330
1F
100
AcDbEntity
  8
0_Pen_No__1
  6
Continuous
100
AcDbPolyline
 90
        2
 70
   128
 43
0.0
 10
33.80154211796338
 20
637.7301067853716
 10
42.80676859272559
 20
642.9292767374086
  0
LWPOLYLINE
  5
DD
330
1F
100
AcDbEntity
  8
0_Pen_No__1
  6
Continuous
100
AcDbPolyline
 90
        2
 70
   128
 43
0.0
 10
235.9142107140477
 20
611.5524868005948
 10
247.8857741364986
 20
595.1730061168395
  0
LWPOLYLINE
  5
DE
330
1F
100
AcDbEntity
  8
0_Pen_No__1
  6
Continuous
100
AcDbPolyline
 90
        2
 70
   128
 43
0.0
 10
-253.2999698871645
 20
147.7193281904685
 10
-245.6208569269078
 20
175.5840918032328
  0
LWPOLYLINE
  5
DF
330
1F
100
AcDbEntity
  8
0_Pen_No__1
  6
Continuous
100
AcDbPolyline
 90
        2
 70
   128
 43
0.0
 10
-253.2999698871645
 20
179.6535284932195
 10
-244.8482044384654
 20
184.5331575714766
  0
LWPOLYLINE
  5
E0
330
1F
100
AcDbEntity
  8
0_Pen_No__1
  6
Continuous
100
AcDbPolyline
 90
        2
 70
   128
 43
0.0
 10
-242.9666337232539
 20
141.7533737485361
 10
-245.9676160799109
 20
175.420192030308
  0
LWPOLYLINE
  5
E1
330
1F
100
AcDbEntity
  8
0_Pen_No__1
  6
Continuous
100
AcDbPolyline
 90
        2
 70
   128
 43
0.0
 10
-253.2999698871645
 20
179.6535284932195
 10
-245.9676160799109
 20
175.420192030308
  0
LWPOLYLINE
  5
E2
330
1F
100
AcDbEntity
  8
0_Pen_No__1
  6
Continuous
100
AcDbPolyline
 90
        2
 70
   128
 43
0.0
 10
218.6256378708076
 20
613.7834203256887
 10
227.6308643455698
 20
618.9825902777258
  0
LWPOLYLINE
  5
E3
330
1F
100
AcDbEntity
  8
0_Pen_No__1
  6
Continuous
100
AcDbPolyline
 90
        2
 70
   128
 43
0.0
 10
247.8857741364986
 20
595.1730061168395
 10
244.2434799497535
 20
562.4067779397932
  0
LWPOLYLINE
  5
E4
330
1F
100
AcDbEntity
  8
0_Pen_No__1
  6
Continuous
100
AcDbPolyline
 90
        2
 70
   128
 43
0.0
 10
274.5072816604
 20
513.6098897114371
 10
280.0271402639496
 20
516.7967815620851
  0
LWPOLYLINE
  5
E5
330
1F
100
AcDbEntity
  8
0_Pen_No__1
  6
Continuous
100
AcDbPolyline
 90
        2
 70
   128
 43
0.0
 10
295.1755782735848
 20
382.3014220775103
 10
293.6498864715352
 20
393.3581099887817
  0
LWPOLYLINE
  5
E6
330
1F
100
AcDbEntity
  8
0_Pen_No__1
  6
Continuous
100
AcDbPolyline
 90
        2
 70
   128
 43
0.0
 10
186.244374836531
 20
105.4087322414707
 10
243.4351219797999
 20
231.9297908114253
  0
LWPOLYLINE
  5
E7
330
1F
100
AcDbEntity
  8
0_Pen_No__1
  6
Continuous
100
AcDbPolyline
 90
        2
 70
   128
 43
0.0
 10
130.7765566510604
 20
57.0759126212792
 10
186.244374836531
 20
105.4087322414707
  0
LWPOLYLINE
  5
E8
330
1F
100
AcDbEntity
  8
0_Pen_No__1
  6
Continuous
100
AcDbPolyline
 90
        2
 70
   128
 43
0.0
 10
-242.9666337232539
 20
141.7533737485361
 10
-240.7404672552453
 20
143.0386515637188
  0
LWPOLYLINE
  5
E9
330
1F
100
AcDbEntity
  8
0_Pen_No__1
  6
Continuous
100
AcDbPolyline
 90
        2
 70
   128
 43
0.0
 10
3.844674057032815
 20
639.9395723443193
 10
34.43949898895271
 20
645.2387242710147
  0
LWPOLYLINE
  5
EA
330
1F
100
AcDbEntity
  8
0_Pen_No__1
  6
Continuous
100
AcDbPolyline
 90
        2
 70
   128
 43
0.0
 10
-243.3635057313048
 20
191.6663757828081
 10
-256.1693217647334
 20
184.2729344164069
  0
LWPOLYLINE
  5
EB
330
1F
100
AcDbEntity
  8
0_Pen_No__1
  6
Continuous
100
AcDbPolyline
 90
        2
 70
   128
 43
0.0
 10
-256.1693217647334
 20
129.6635279456111
 10
-240.7404672552453
 20
138.5713812888789
  0
LWPOLYLINE
  5
EC
330
1F
100
AcDbEntity
  8
0_Pen_No__1
  6
Continuous
100
AcDbPolyline
 90
        2
 70
   128
 43
0.0
 10
-248.5106886493131
 20
122.9735689005298
 10
-236.5172497867869
 20
129.8979840865773
  0
LWPOLYLINE
  5
ED
330
1F
100
AcDbEntity
  8
0_Pen_No__1
  6
Continuous
100
AcDbPolyline
 90
        2
 70
   128
 43
0.0
 10
165.6343580356303
 20
342.8882105029301
 10
165.6343580356308
 20
327.8882105029352
  0
LWPOLYLINE
  5
EE
330
1F
100
AcDbEntity
  8
0_Pen_No__1
  6
Continuous
100
AcDbPolyline
 90
        2
 70
   128
 43
0.0
 10
164.2140378284909
 20
343.7261965052909
 10
165.062608273248
 20
343.7256549186709
  0
LWPOLYLINE
  5
EF
330
1F
100
AcDbEntity
  8
0_Pen_No__1
  6
Continuous
100
AcDbPolyline
 90
        2
 70
   128
 43
0.0
 10
163.5159798946275
 20
341.6651643076372
 10
-235.2826754067814
 20
111.4186523107601
  0
LWPOLYLINE
  5
F0
330
1F
100
AcDbEntity
  8
0_Pen_No__1
  6
Continuous
100
AcDbPolyline
 90
        2
 70
   128
 43
0.0
 10
163.5159798946315
 20
341.6651643076336
 10
163.5887219562599
 20
342.8304737693924
  0
LWPOLYLINE
  5
F1
330
1F
100
AcDbEntity
  8
0_Pen_No__1
  6
Continuous
100
AcDbPolyline
 90
        2
 70
   128
 43
0.0
 10
142.7020755983075
 20
361.0753494042431
 10
143.3273914705384
 20
361.9710721401419
  0
LWPOLYLINE
  5
F2
330
1F
100
AcDbEntity
  8
0_Pen_No__1
  6
Continuous
100
AcDbPolyline
 90
        2
 70
   128
 43
0.0
 10
143.3273914705384
 20
361.9710721401419
 10
144.175961915296
 20
361.9705305535219
  0
LWPOLYLINE
  5
F3
330
1F
100
AcDbEntity
  8
0_Pen_No__1
  6
Continuous
100
AcDbPolyline
 90
        2
 70
   128
 43
0.0
 10
163.5887219562599
 20
342.8304737693924
 10
164.2140378284909
 20
343.7261965052909
  0
LWPOLYLINE
  5
F4
330
1F
100
AcDbEntity
  8
0_Pen_No__1
  6
Continuous
100
AcDbPolyline
 90
        2
 70
   128
 43
0.0
 10
-235.2826754067814
 20
96.41865231076041
 10
165.6343580356308
 20
327.8882105029352
  0
LWPOLYLINE
  5
F5
330
1F
100
AcDbEntity
  8
0_Pen_No__1
  6
Continuous
100
AcDbPolyline
 90
        2
 70
   128
 43
0.0
 10
165.6343580356308
 20
327.8882105029352
 10
170.622749739342
 20
320.9392870066065
  0
LWPOLYLINE
  5
F6
330
1F
100
AcDbEntity
  8
0_Pen_No__1
  6
DASHED2
100
AcDbPolyline
 90
        2
 70
   128
 43
0.0
 10
134.7795663008955
 20
441.2109242912608
 10
-10.46398909888602
 20
357.3545181166962
  0
LWPOLYLINE
  5
F7
330
1F
100
AcDbEntity
  8
0_Pen_No__1
  6
Continuous
100
AcDbPolyline
 90
        2
 70
   128
 43
0.0
 10
-256.1693217647334
 20
129.6635279456111
 10
-240.7404672552453
 20
138.5713812888769
  0
LWPOLYLINE
  5
F8
330
1F
100
AcDbEntity
  8
0_Pen_No__1
  6
Continuous
100
AcDbPolyline
 90
        2
 70
   128
 43
0.0
 10
154.1028859055511
 20
353.2991770707805
 10
165.062608273248
 20
343.7256549186714
  0
LWPOLYLINE
  5
F9
330
1F
100
AcDbEntity
  8
0_Pen_No__1
  6
Continuous
100
AcDbPolyline
 90
        2
 70
   128
 43
0.0
 10
142.6293335366786
 20
359.9100399424846
 10
148.5352239266082
 20
354.751134399169
  0
LWPOLYLINE
  5
FA
330
1F
100
AcDbEntity
  8
0_Pen_No__1
  6
Continuous
100
AcDbPolyline
 90
        2
 70
   128
 43
0.0
 10
151.7515368113229
 20
351.9416250323359
 10
163.5159798946275
 20
341.6651643076372
  0
LWPOLYLINE
  5
FB
330
1F
100
AcDbEntity
  8
0_Pen_No__1
  6
DASHED2
100
AcDbPolyline
 90
        2
 70
   128
 43
0.0
 10
1.087112109150468
 20
269.6219269778539
 10
148.5352239266087
 20
354.751134399169
  0
LWPOLYLINE
  5
FC
330
1F
100
AcDbEntity
  8
0_Pen_No__1
  6
Continuous
100
AcDbPolyline
 90
        2
 70
   128
 43
0.0
 10
-58.05321926280627
 20
617.1044646843216
 10
-25.93796517330205
 20
626.8436600586402
  0
LWPOLYLINE
  5
FD
330
1F
100
AcDbEntity
  8
0_Pen_No__1
  6
Continuous
100
AcDbPolyline
 90
        2
 70
   128
 43
0.0
 10
-25.93796517330205
 20
626.8436600586402
 10
3.844674057032815
 20
639.9395723443193
  0
LWPOLYLINE
  5
FE
330
1F
100
AcDbEntity
  8
0_Pen_No__1
  6
Continuous
100
AcDbPolyline
 90
        2
 70
   128
 43
0.0
 10
170.622749739342
 20
320.9392870066065
 10
-230.2942837030701
 20
89.46972881443082
  0
LWPOLYLINE
  5
FF
330
1F
100
AcDbEntity
  8
0_Pen_No__1
  6
Continuous
100
AcDbPolyline
 90
        2
 70
   128
 43
0.0
 10
69.28203222706708
 20
752.488973404458
 10
112.58330236898
 20
687.48897319142
  0
LWPOLYLINE
  5
100
330
1F
100
AcDbEntity
  8
0_Pen_No__1
  6
Continuous
100
AcDbPolyline
 90
        2
 70
   128
 43
0.0
 10
34.64101611353377
 20
732.48897333891
 10
147.2243184825133
 20
707.488973256968
  0
LWPOLYLINE
  5
101
330
1F
100
AcDbEntity
  8
0_Pen_No__1
  6
Continuous
100
AcDbPolyline
 90
        2
 70
   128
 43
0.0
 10
69.28203222706708
 20
752.488973404458
 10
34.64101611353377
 20
732.48897333891
  0
LWPOLYLINE
  5
102
330
1F
100
AcDbEntity
  8
0_Pen_No__1
  6
Continuous
100
AcDbPolyline
 90
        2
 70
   128
 43
0.0
 10
69.28203222706708
 20
752.488973404458
 10
147.2243184825133
 20
707.488973256968
  0
LWPOLYLINE
  5
103
330
1F
100
AcDbEntity
  8
0_Pen_No__1
  6
Continuous
100
AcDbPolyline
 90
        2
 70
   128
 43
0.0
 10
112.58330236898
 20
687.48897319142
 10
147.2243184825133
 20
707.488973256968
  0
LWPOLYLINE
  5
104
330
1F
100
AcDbEntity
  8
0_Pen_No__1
  6
Continuous
100
AcDbPolyline
 90
        2
 70
   128
 43
0.0
 10
34.64101611353377
 20
732.48897333891
 10
112.58330236898
 20
687.48897319142
  0
LWPOLYLINE
  5
105
330
1F
100
AcDbEntity
  8
0_Pen_No__1
  6
Continuous
100
AcDbPolyline
 90
        2
 70
   128
 43
0.0
 10
34.64101611353377
 20
732.48897333891
 10
34.64101611353377
 20
672.1166010087594
  0
LWPOLYLINE
  5
107
330
1F
100
AcDbEntity
  8
0_Pen_No__1
  6
Above
100
AcDbPolyline
 90
        2
 70
   128
 43
0.0
 10
144.7477116776783
 20
415.7424926085835
 10
-243.3635057313048
 20
191.6663757828081
  0
LWPOLYLINE
  5
108
330
1F
100
AcDbEntity
  8
0_Pen_No__1
  6
Above
100
AcDbPolyline
 90
        2
 70
   128
 43
0.0
 10
144.7477116776783
 20
361.4710964591179
 10
144.7477116776783
 20
415.7424926085835
  0
LWPOLYLINE
  5
109
330
1F
100
AcDbEntity
  8
0_Pen_No__1
  6
Continuous
100
AcDbPolyline
 90
        2
 70
   128
 43
0.0
 10
101.6671287483173
 20
-53.41198212361164
 10
130.7765566510608
 20
-36.60564601456628
  0
LWPOLYLINE
  5
10A
330
1F
100
AcDbEntity
  8
0_Pen_No__1
  6
Continuous
100
AcDbPolyline
 90
        2
 70
   128
 43
0.0
 10
130.7765566510608
 20
297.9340766003758
 10
130.7765566510608
 20
-36.60564601456628
  0
LWPOLYLINE
  5
10B
330
1F
100
AcDbEntity
  8
0_Pen_No__1
  6
Continuous
100
AcDbPolyline
 90
        2
 70
   128
 43
0.0
 10
0.0
 20
222.4301960842514
 10
0.0
 20
0.0
  0
LWPOLYLINE
  5
10C
330
1F
100
AcDbEntity
  8
0_Pen_No__1
  6
Continuous
100
AcDbPolyline
 90
        2
 70
   128
 43
0.0
 10
141.6990448009576
 20
628.5156361385887
 10
93.35663352960167
 20
610.7580322796391
  0
LWPOLYLINE
  5
10D
330
1F
100
AcDbEntity
  8
0_Pen_No__1
  6
Continuous
100
AcDbPolyline
 90
        2
 70
   128
 43
0.0
 10
120.9883037804911
 20
292.2828261459611
 10
120.9883037804911
 20
-42.73523200823659
  0
LWPOLYLINE
  5
10E
330
1F
100
AcDbEntity
  8
0_Pen_No__1
  6
Continuous
100
AcDbPolyline
 90
        2
 70
   128
 43
0.0
 10
124.1702842958308
 20
294.1199434610766
 10
124.1702842958308
 20
-40.41977915386541
  0
LWPOLYLINE
  5
10F
330
1F
100
AcDbEntity
  8
0_Pen_No__1
  6
Continuous
100
AcDbPolyline
 90
        2
 70
   128
 43
0.0
 10
127.35226481117
 20
295.9570607761917
 10
127.35226481117
 20
-38.58266183875014
  0
LWPOLYLINE
  5
110
330
1F
100
AcDbEntity
  8
0_Pen_No__1
  6
Continuous
100
AcDbPolyline
 90
       11
 70
   128
 43
0.0
 10
216.2676263488064
 20
171.8281051783066
 10
262.0429952208512
 20
227.3770591541995
 10
297.8142088223444
 20
300.3896560696204
 10
335.5793451579066
 20
380.9552802521536
 10
321.732128501534
 20
471.5916074575035
 10
314.1791012344214
 20
543.3453664950724
 10
267.6020997538944
 20
607.5460982655287
 10
171.4066680155013
 20
654.1230997460561
 10
82.02917868800341
 20
665.4526406467247
 10
1.463554505470643
 20
676.7821815473933
 10
-60.65047352144015
 20
681.0656299283324
  0
LWPOLYLINE
  5
111
330
1F
100
AcDbEntity
  8
0_Pen_No__1
  6
Continuous
100
AcDbPolyline
 90
        2
 70
   128
 43
0.0
 10
147.2243184825133
 20
657.1884679967166
 10
147.2243184825133
 20
707.488973256968
  0
LWPOLYLINE
  5
112
330
1F
100
AcDbEntity
  8
0_Pen_No__1
  6
Continuous
100
AcDbPolyline
 90
        2
 70
   128
 43
0.0
 10
112.58330236898
 20
687.48897319142
 10
112.58330236898
 20
661.5795827153335
  0
LWPOLYLINE
  5
113
330
1F
100
AcDbEntity
  8
0_Pen_No__1
  6
Continuous
100
AcDbPolyline
 90
        4
 70
   128
 43
0.0
 10
222.2496972256311
 20
622.6422850538543
 10
135.5647991059841
 20
632.3983126401997
 10
87.22238783462765
 20
614.6407087812502
 10
36.03026290291078
 20
614.0272792560921
  0
LWPOLYLINE
  5
114
330
1F
100
AcDbEntity
  8
0_Pen_No__1
  6
Continuous
100
AcDbPolyline
 90
        4
 70
   128
 43
0.0
 10
-64.11539706280634
 20
620.6044646843217
 10
-27.38022078676039
 20
631.2573390312313
 10
3.468403295299627
 20
644.2760244236605
 10
29.0583318690123
 20
648.8984190471441
  0
ELLIPSE
  5
115
330
1F
100
AcDbEntity
  8
0_Pen_No__1
  6
Continuous
100
AcDbEllipse
 10
-217.0190749973049
 20
170.620367490335
 30
0.0
 11
-2.140835418729559
 21
-5.030861475079365
 31
0.0
210
0.0
220
0.0
230
1.0
 40
0.5555555555555576
 41
0.0
 42
6.283185307179586
  0
ELLIPSE
  5
116
330
1F
100
AcDbEntity
  8
0_Pen_No__1
  6
Continuous
100
AcDbEllipse
 10
-79.98273227244024
 20
249.7383371970332
 30
0.0
 11
-2.140835418729559
 21
-5.030861475079365
 31
0.0
210
0.0
220
0.0
230
1.0
 40
0.5555555555555576
 41
0.0
 42
6.283185307179586
  0
WIPEOUT
  5
118
330
1F
100
AcDbEntity
  8
Key_ Sections_Pen_No__1
  6
Wipeout_Contour
 48
3133.630003998624
 92
      296
310
28010000060000000C0000000E000000120000000C00000016000000000000C20C00000014000000010000006C000000070000000400000001000000008076403E6C4366371C8540000000000000000001000000001082403E6C4366371C854000000000000000000100000000108240CD2E398F93AB814000000000000000
310
000100000000807640CD2E398F93AB814000000000000000000C0000000E0000000700000084000000060000000500000001000000008076403E6C4366371C8540000000000000000001000000001082403E6C4366371C854000000000000000000100000000108240CD2E398F93AB81400000000000000000010000000080
310
7640CD2E398F93AB8140000000000000000001000000008076403E6C4366371C85400000000000000000
100
AcDbWipeout
 90
        0
 10
360.0000000000001
 20
565.4470505206497
 30
0.0
 11
218.0000000000001
 21
0.0
 31
0.0
 12
0.0
 22
110.08
 32
0.0
 13
1.0
 23
1.0
340
0
 70
    15
280
     1
281
    50
282
    50
283
     0
360
0
 71
     2
 91
        5
 14
-0.5000000000000001
 24
-0.4999999999999995
 14
0.4999999999999999
 24
-0.4999999999999995
 14
0.4999999999999999
 24
0.5000000000000006
 14
-0.5000000000000001
 24
0.5000000000000006
 14
-0.5000000000000001
 24
-0.4999999999999995
  0
MTEXT
  5
11B
102
{ACAD_REACTORS
330
11C
102
}
330
1F
100
AcDbEntity
  8
Key_ Sections_Pen_No__1
  6
Continuous
100
AcDbMText
 10
365.0000000000001
 20
619.5884217652093
 30
0.0
 40
12.49999999999999
 41
208.0
 71
     4
 72
     1
  1
{Absorbent Breather type \Pbuilding underlay \Pdressed into opening with \Pflexible tape installed over \Punderlay to corners at head}
  7
GENERATED_STYLE_1
 73
     1
 44
0.7928662360710883
  0
LEADER
  5
11C
330
1F
100
AcDbEntity
  8
Key_ Sections_Pen_No__1
  6
Continuous
100
AcDbLeader
  3
GENERATED_STYLE__1
 72
     1
 73
     0
 74
     0
 40
95.45871699923674
 41
200.8124999999999
 76
     3
 10
267.6020997538952
 20
607.5460982655236
 30
0.0
 10
316.3226159179031
 20
617.4581014481013
 30
0.0
 10
364.9100000000001
 20
619.5884217652093
 30
0.0
340
11B
  0
WIPEOUT
  5
123
330
1F
100
AcDbEntity
  8
Key_ Sections_Pen_No__1
  6
Wipeout_Contour
 48
2699.405591215814
 92
      296
310
28010000060000000C0000000E000000120000000C00000016000000000000C20C00000014000000010000006C0000000700000004000000FEFFFFFFFF7F76400C4EB90C80B980400000000000000000AD47E17A14BA80400C4EB90C80B980400000000000000000AD47E17A14BA8040C4B8CC7D3B127D4000000000000000
310
00FEFFFFFFFF7F7640C4B8CC7D3B127D4000000000000000000C0000000E00000007000000840000000600000005000000FEFFFFFFFF7F76400C4EB90C80B980400000000000000000AD47E17A14BA80400C4EB90C80B980400000000000000000AD47E17A14BA8040C4B8CC7D3B127D400000000000000000FEFFFFFFFF7F
310
7640C4B8CC7D3B127D400000000000000000FEFFFFFFFF7F76400C4EB90C80B980400000000000000000
100
AcDbWipeout
 90
        0
 10
359.9999999999999
 20
465.1395242688125
 30
0.0
 11
175.26
 21
0.0
 31
0.0
 12
0.0
 22
70.048
 32
0.0
 13
1.0
 23
1.0
340
0
 70
    15
280
     1
281
    50
282
    50
283
     0
360
0
 71
     2
 91
        5
 14
-0.5
 24
-0.5
 14
0.5
 24
-0.5
 14
0.5
 24
0.5
 14
-0.5
 24
0.5
 14
-0.5
 24
-0.5
  0
MTEXT
  5
124
102
{ACAD_REACTORS
330
125
102
}
330
1F
100
AcDbEntity
  8
Key_ Sections_Pen_No__1
  6
Continuous
100
AcDbMText
 10
364.9999999999999
 20
499.2646384625209
 30
0.0
 40
12.5
 41
165.26
 71
     4
 72
     1
  1
{Flexible flashing tape \Pover flashing to full \Pwidth of opening}
  7
GENERATED_STYLE_1
 73
     1
 44
0.9448816498417989
  0
LEADER
  5
125
330
1F
100
AcDbEntity
  8
Key_ Sections_Pen_No__1
  6
Continuous
100
AcDbLeader
  3
GENERATED_STYLE__1
 72
     1
 73
     0
 74
     0
 40
56.14664344459105
 41
161.725
 76
     3
 10
134.7795663008948
 20
420.9380565565255
 30
0.0
 10
276.8470602649161
 20
486.3903813845011
 30
0.0
 10
364.9099999999999
 20
499.2646384625209
 30
0.0
340
124
  0
WIPEOUT
  5
126
330
1F
100
AcDbEntity
  8
Key_ Sections_Pen_No__1
  6
Wipeout_Contour
 48
2448.659477820992
 92
      296
310
28010000060000000C0000000E000000120000000C00000016000000000000C20C00000014000000010000006C000000070000000400000000000000008076409BC7497775CA7B400000000000000000703D0AD7A3D481409BC7497775CA7B400000000000000000703D0AD7A3D48140BA4C35C92DE9744000000000000000
310
000000000000807640BA4C35C92DE9744000000000000000000C0000000E0000000700000084000000060000000500000000000000008076409BC7497775CA7B400000000000000000703D0AD7A3D481409BC7497775CA7B400000000000000000703D0AD7A3D48140BA4C35C92DE974400000000000000000000000000080
310
7640BA4C35C92DE97440000000000000000000000000008076409BC7497775CA7B400000000000000000
100
AcDbWipeout
 90
        0
 10
360.0
 20
334.5736782152195
 30
0.0
 11
210.5799999999999
 21
0.0
 31
0.0
 12
0.0
 22
110.08
 32
0.0
 13
1.0
 23
1.0
340
0
 70
    15
280
     1
281
    50
282
    50
283
     0
360
0
 71
     2
 91
        5
 14
-0.5
 24
-0.5000000000000002
 14
0.5
 24
-0.5000000000000002
 14
0.5
 24
0.4999999999999997
 14
-0.5
 24
0.4999999999999997
 14
-0.5
 24
-0.5000000000000002
  0
MTEXT
  5
127
102
{ACAD_REACTORS
330
128
102
}
330
1F
100
AcDbEntity
  8
Key_ Sections_Pen_No__1
  6
Continuous
100
AcDbMText
 10
365.0
 20
388.8136208883506
 30
0.0
 40
12.5
 41
200.58
 71
     4
 72
     1
  1
{2 part head flashing with \P15degree fall. End of head\Pflashing requires folded \Pstop end or application \Pof sealant as stop end}
  7
GENERATED_STYLE_1
 73
     1
 44
0.7619507399853378
  0
LEADER
  5
128
330
1F
100
AcDbEntity
  8
Key_ Sections_Pen_No__1
  6
Continuous
100
AcDbLeader
  3
GENERATED_STYLE__1
 72
     1
 73
     0
 74
     0
 40
96.03061234521337
 41
187.4125000000001
 76
     3
 10
165.6343580356302
 20
335.3882105029327
 30
0.0
 10
263.182322045135
 20
376.6141470842496
 30
0.0
 10
364.91
 20
388.8136208883506
 30
0.0
340
127
  0
WIPEOUT
  5
129
330
1F
100
AcDbEntity
  8
Key_ Sections_Pen_No__1
  6
Wipeout_Contour
 48
1979.896461025255
 92
      296
310
28010000060000000C0000000E000000120000000C00000016000000000000C20C00000014000000010000006C00000007000000040000000A00000000807640BD156A70943870400000000000000000A9703D0AD7278040BD156A70943870400000000000000000A9703D0AD7278040D26488A99FAF674000000000000000
310
000A00000000807640D26488A99FAF674000000000000000000C0000000E000000070000008400000006000000050000000A00000000807640BD156A70943870400000000000000000A9703D0AD7278040BD156A70943870400000000000000000A9703D0AD7278040D26488A99FAF674000000000000000000A0000000080
310
7640D26488A99FAF674000000000000000000A00000000807640BD156A70943870400000000000000000
100
AcDbWipeout
 90
        0
 10
360.0000000000006
 20
189.4882400192205
 30
0.0
 11
156.98
 21
0.0
 31
0.0
 12
0.0
 22
70.048
 32
0.0
 13
1.0
 23
1.0
340
0
 70
    15
280
     1
281
    50
282
    50
283
     0
360
0
 71
     2
 91
        5
 14
-0.5
 24
-0.5
 14
0.5
 24
-0.5
 14
0.5
 24
0.5
 14
-0.5
 24
0.5
 14
-0.5
 24
-0.5
  0
MTEXT
  5
12A
102
{ACAD_REACTORS
330
12B
102
}
330
1F
100
AcDbEntity
  8
Key_ Sections_Pen_No__1
  6
Continuous
100
AcDbMText
 10
365.0000000000006
 20
225.3147827843575
 30
0.0
 40
12.5
 41
146.98
 71
     4
 72
     1
  1
{Flashing tape over \Pbuilding wrap fitted \Paround corners}
  7
GENERATED_STYLE_1
 73
     1
 44
0.9558154610760365
  0
LEADER
  5
12B
330
1F
100
AcDbEntity
  8
Key_ Sections_Pen_No__1
  6
Continuous
100
AcDbLeader
  3
GENERATED_STYLE__1
 72
     1
 73
     0
 74
     0
 40
52.72875499698019
 41
143.0625
 76
     3
 10
77.94228625544575
 20
237.4531922743466
 30
0.0
 10
126.4840971396668
 20
229.863522302236
 30
0.0
 10
364.9100000000006
 20
225.3147827843575
 30
0.0
340
12A
  0
WIPEOUT
  5
12C
330
1F
100
AcDbEntity
  8
Key_ Sections_Pen_No__1
  6
Wipeout_Contour
 48
1958.541681957991
 92
      296
310
28010000060000000C0000000E000000120000000C00000016000000000000C20C00000014000000010000006C00000007000000040000000200000000807640FF9C3AB27EA6674000000000000000006766666666CC8140FF9C3AB27EA6674000000000000000006766666666CC814085504E33F5C8584000000000000000
310
00020000000080764085504E33F5C8584000000000000000000C0000000E000000070000008400000006000000050000000200000000807640FF9C3AB27EA6674000000000000000006766666666CC8140FF9C3AB27EA6674000000000000000006766666666CC814085504E33F5C858400000000000000000020000000080
310
764085504E33F5C8584000000000000000000200000000807640FF9C3AB27EA667400000000000000000
100
AcDbWipeout
 90
        0
 10
360.0000000000001
 20
99.13996584556487
 30
0.0
 11
209.55
 21
0.0
 31
0.0
 12
0.0
 22
90.063
 32
0.0
 13
1.0
 23
1.0
340
0
 70
    15
280
     1
281
    50
282
    50
283
     0
360
0
 71
     2
 91
        5
 14
-0.5
 24
-0.4999999999999999
 14
0.5
 24
-0.4999999999999999
 14
0.5
 24
0.5000000000000001
 14
-0.5
 24
0.5000000000000001
 14
-0.5
 24
-0.4999999999999999
  0
MTEXT
  5
12D
102
{ACAD_REACTORS
330
12E
102
}
330
1F
100
AcDbEntity
  8
Key_ Sections_Pen_No__1
  6
Continuous
100
AcDbMText
 10
365.0000000000001
 20
143.2679228504132
 30
0.0
 40
12.49999999999999
 41
199.55
 71
     4
 72
     1
  1
{Palliside Traditional Bevel \PBack weatherboard \Pfixed with Palliside fastfix \Pfasteners @500crs}
  7
GENERATED_STYLE_1
 73
     1
 44
0.9532603119066635
  0
LEADER
  5
12E
330
1F
100
AcDbEntity
  8
Key_ Sections_Pen_No__1
  6
Continuous
100
AcDbLeader
  3
GENERATED_STYLE__1
 72
     1
 73
     0
 74
     0
 40
76.16883731044659
 41
197.1749999999999
 76
     3
 10
-122.075455593734
 20
289.1283559888071
 30
0.0
 10
36.85824084108172
 20
190.6533906033153
 30
0.0
 10
364.9100000000001
 20
143.2679228504132
 30
0.0
340
12D
  0
WIPEOUT
  5
12F
330
1F
100
AcDbEntity
  8
Key_ Sections_Pen_No__1
  6
Wipeout_Contour
 48
1823.434740165343
 92
      296
310
28010000060000000C0000000E000000120000000C00000016000000000000C20C00000014000000010000006C00000007000000040000000200000000807640BE0849B095E55540000000000000000090C2F5285CF78040BE0849B095E55540000000000000000090C2F5285CF780404017BC1B50CE03C000000000000000
310
0002000000008076404017BC1B50CE03C000000000000000000C0000000E000000070000008400000006000000050000000200000000807640BE0849B095E55540000000000000000090C2F5285CF78040BE0849B095E55540000000000000000090C2F5285CF780404017BC1B50CE03C00000000000000000020000000080
310
76404017BC1B50CE03C000000000000000000200000000807640BE0849B095E555400000000000000000
100
AcDbWipeout
 90
        0
 10
360.0000000000001
 20
-2.475738732030455
 30
0.0
 11
182.92
 21
0.0
 31
0.0
 12
0.0
 22
90.06299999999999
 32
0.0
 13
1.0
 23
1.0
340
0
 70
    15
280
     1
281
    50
282
    50
283
     0
360
0
 71
     2
 91
        5
 14
-0.5
 24
-0.5
 14
0.5
 24
-0.5
 14
0.5
 24
0.5000000000000001
 14
-0.5
 24
0.5000000000000001
 14
-0.5
 24
-0.5
  0
MTEXT
  5
130
102
{ACAD_REACTORS
330
131
102
}
330
1F
100
AcDbEntity
  8
Key_ Sections_Pen_No__1
  6
Continuous
100
AcDbMText
 10
365.0000000000001
 20
41.65650398710353
 30
0.0
 40
12.49999999999999
 41
172.92
 71
     4
 72
     1
  1
{Additonal building \Punderlay from \Poverlap above, lapped \Pover flashing.}
  7
GENERATED_STYLE_1
 73
     1
 44
0.9533197673736268
  0
LEADER
  5
131
330
1F
100
AcDbEntity
  8
Key_ Sections_Pen_No__1
  6
Continuous
100
AcDbLeader
  3
GENERATED_STYLE__1
 72
     1
 73
     0
 74
     0
 40
76.16006591141853
 41
169.8249999999999
 76
     3
 10
-249.1637602453225
 20
268.8299312476648
 30
0.0
 10
0.3224070141099877
 20
105.0459144613185
 30
0.0
 10
364.9100000000001
 20
41.65650398710353
 30
0.0
340
130
  0
WIPEOUT
  5
132
330
1F
100
AcDbEntity
  8
Key_ Sections_Pen_No__1
  6
Wipeout_Contour
 48
1786.569007897498
 92
      296
310
28010000060000000C0000000E000000120000000C00000016000000000000C20C00000014000000010000006C00000007000000040000000200000000807640306FFA68E31127C000000000000000000000000000868040306FFA68E31127C0000000000000000000000000008680403658B36D91C84EC000000000000000
310
0002000000008076403658B36D91C84EC000000000000000000C0000000E000000070000008400000006000000050000000200000000807640306FFA68E31127C000000000000000000000000000868040306FFA68E31127C0000000000000000000000000008680403658B36D91C84EC00000000000000000020000000080
310
76403658B36D91C84EC000000000000000000200000000807640306FFA68E31127C00000000000000000
100
AcDbWipeout
 90
        0
 10
360.0000000000001
 20
-61.5669381261545
 30
0.0
 11
168.7499999999999
 21
0.0
 31
0.0
 12
0.0
 22
50.03199999999999
 32
0.0
 13
1.0
 23
1.0
340
0
 70
    15
280
     1
281
    50
282
    50
283
     0
360
0
 71
     2
 91
        5
 14
-0.5
 24
-0.4999999999999999
 14
0.5
 24
-0.4999999999999999
 14
0.5
 24
0.5000000000000001
 14
-0.5
 24
0.5000000000000001
 14
-0.5
 24
-0.4999999999999999
  0
MTEXT
  5
133
102
{ACAD_REACTORS
330
134
102
}
330
1F
100
AcDbEntity
  8
Key_ Sections_Pen_No__1
  6
Continuous
100
AcDbMText
 10
365.0000000000001
 20
-37.44995245787175
 30
0.0
 40
12.5
 41
158.75
 71
     4
 72
     1
  1
{Palliside 2 part jamb \Pflashing base}
  7
GENERATED_STYLE_1
 73
     1
 44
0.9459980913343259
  0
LEADER
  5
134
330
1F
100
AcDbEntity
  8
Key_ Sections_Pen_No__1
  6
Continuous
100
AcDbLeader
  3
GENERATED_STYLE__1
 72
     1
 73
     0
 74
     0
 40
36.13059347403185
 41
155.025
 76
     3
 10
130.7765566510608
 20
2.271918639223729
 30
0.0
 10
276.8412756210346
 20
-29.60834635672419
 30
0.0
 10
364.9100000000001
 20
-37.44995245787175
 30
0.0
340
133
  0
WIPEOUT
  5
135
330
1F
100
AcDbEntity
  8
Key_ Sections_Pen_No__1
  6
Wipeout_Contour
 48
1624.544134030653
 92
      296
310
28010000060000000C0000000E000000120000000C00000016000000000000C20C00000014000000010000006C000000070000000400000002000000008076405797E0ED7CDF5AC000000000000000003308AC1C5ADC79405797E0ED7CDF5AC000000000000000003308AC1C5ADC794038E35E89413061C000000000000000
310
00020000000080764038E35E89413061C000000000000000000C0000000E0000000700000084000000060000000500000002000000008076405797E0ED7CDF5AC000000000000000003308AC1C5ADC79405797E0ED7CDF5AC000000000000000003308AC1C5ADC794038E35E89413061C00000000000000000020000000080
310
764038E35E89413061C0000000000000000002000000008076405797E0ED7CDF5AC00000000000000000
100
AcDbWipeout
 90
        0
 10
360.0000000000001
 20
-137.5080000737451
 30
0.0
 11
53.77199999999999
 21
0.0
 31
0.0
 12
0.0
 22
30.01599999999998
 32
0.0
 13
1.0
 23
1.0
340
0
 70
    15
280
     1
281
    50
282
    50
283
     0
360
0
 71
     2
 91
        5
 14
-0.4999999999999994
 24
-0.5000000000000002
 14
0.5000000000000006
 24
-0.5000000000000002
 14
0.5000000000000006
 24
0.4999999999999998
 14
-0.4999999999999994
 24
0.4999999999999998
 14
-0.4999999999999994
 24
-0.5000000000000002
  0
MTEXT
  5
136
102
{ACAD_REACTORS
330
137
102
}
330
1F
100
AcDbEntity
  8
Key_ Sections_Pen_No__1
  6
Continuous
100
AcDbMText
 10
365.0000000000001
 20
-121.7020000737451
 30
0.0
 40
12.5
 41
43.77199999999999
 71
     4
 72
     1
  1
{Studs}
  7
GENERATED_STYLE_1
 73
     1
 44
1.0
  0
LEADER
  5
137
330
1F
100
AcDbEntity
  8
Key_ Sections_Pen_No__1
  6
Continuous
100
AcDbLeader
  3
GENERATED_STYLE__1
 72
     1
 73
     0
 74
     0
 40
12.925
 41
43.1375
 76
     3
 10
38.9711431277231
 20
-22.5000000737452
 30
0.0
 10
53.16848082882814
 20
-76.92244914559086
 30
0.0
 10
364.9100000000001
 20
-121.7020000737451
 30
0.0
340
136
  0
WIPEOUT
  5
138
330
1F
100
AcDbEntity
  8
Key_ Sections_Pen_No__1
  6
Wipeout_Contour
 48
2210.163604814999
 92
      296
310
28010000060000000C0000000E000000120000000C00000016000000000000C20C00000014000000010000006C00000007000000040000000A00000000807640C993DA9EBC8174400000000000000000E67A14AE47638140C993DA9EBC8174400000000000000000E67A14AE476381403BFC6B8C3961714000000000000000
310
000A000000008076403BFC6B8C3961714000000000000000000C0000000E000000070000008400000006000000050000000A00000000807640C993DA9EBC8174400000000000000000E67A14AE47638140C993DA9EBC8174400000000000000000E67A14AE476381403BFC6B8C3961714000000000000000000A0000000080
310
76403BFC6B8C3961714000000000000000000A00000000807640C993DA9EBC8174400000000000000000
100
AcDbWipeout
 90
        0
 10
360.0000000000006
 20
278.0765499323058
 30
0.0
 11
196.41
 21
0.0
 31
0.0
 12
0.0
 22
50.03200000000004
 32
0.0
 13
1.0
 23
1.0
340
0
 70
    15
280
     1
281
    50
282
    50
283
     0
360
0
 71
     2
 91
        5
 14
-0.5
 24
-0.5
 14
0.5
 24
-0.5
 14
0.5
 24
0.5
 14
-0.5
 24
0.5
 14
-0.5
 24
-0.5
  0
MTEXT
  5
139
102
{ACAD_REACTORS
330
13A
102
}
330
1F
100
AcDbEntity
  8
Key_ Sections_Pen_No__1
  6
Continuous
100
AcDbMText
 10
365.0000000000006
 20
302.1935356005886
 30
0.0
 40
12.5
 41
186.41
 71
     4
 72
     1
  1
{50mm long sealant strip \Pat both ends of flashing}
  7
GENERATED_STYLE_1
 73
     1
 44
0.9459980913343259
  0
LEADER
  5
13A
330
1F
100
AcDbEntity
  8
Key_ Sections_Pen_No__1
  6
Continuous
100
AcDbLeader
  3
GENERATED_STYLE__1
 72
     1
 73
     0
 74
     0
 40
36.13059347403185
 41
183.7875
 76
     3
 10
119.6817093739102
 20
338.0925499323059
 30
0.0
 10
182.1696807320728
 20
315.9062737651206
 30
0.0
 10
364.9100000000006
 20
302.1935356005886
 30
0.0
340
139
  0
LWPOLYLINE
  5
13B
330
1F
100
AcDbEntity
  8
0_Pen_No__1
  6
Continuous
100
AcDbPolyline
 90
        4
 70
   129
 43
0.0
 10
360.0000000000001
 20
-162.500000073745
 10
496.1717742635464
 20
-162.500000073745
 10
496.1717742635464
 20
-238.3389303977956
 10
360.0000000000001
 20
-238.3389303977956
  0
MTEXT
  5
13C
330
1F
100
AcDbEntity
  8
0_Pen_No__1
  6
Continuous
100
AcDbMText
 10
365.0000000000001
 20
-170.3571429308878
 30
0.0
 40
12.5
 41
0.0
 71
     1
 72
     1
  1
{Note:\PWindow omitted \Pfor clarity.}
  7
GENERATED_STYLE_1
 73
     1
 44
1.0465152245945
  0
ENDSEC
  0
SECTION
  2
OBJECTS
  0
DICTIONARY
  5
C
330
0
100
AcDbDictionary
281
     1
  3
ACAD_GROUP
350
D
  3
ACAD_LAYOUT
350
1A
  3
ACAD_MATERIAL
350
3B
  3
ACAD_MLEADERSTYLE
350
18D
  3
ACAD_MLINESTYLE
350
17
  3
ACAD_PLOTSETTINGS
350
19
  3
ACAD_PLOTSTYLENAME
350
E
  3
ACAD_SCALELIST
350
140
  3
ACAD_TABLESTYLE
350
18C
  3
ACAD_VISUALSTYLE
350
2A
  3
AcDbVariableDictionary
350
164
  3
WATERMARKS
350
162
  0
DICTIONARY
  5
D
102
{ACAD_REACTORS
330
C
102
}
330
C
100
AcDbDictionary
281
     1
  0
DICTIONARY
  5
1A
102
{ACAD_REACTORS
330
C
102
}
330
C
100
AcDbDictionary
281
     1
  3
Layout1
350
1E
  3
Layout2
350
26
  3
Model
350
22
  0
DICTIONARY
  5
3B
102
{ACAD_REACTORS
330
C
102
}
330
C
100
AcDbDictionary
281
     1
  3
ByBlock
350
3D
  3
ByLayer
350
3C
  3
Global
350
3E
  0
DICTIONARY
  5
18D
102
{ACAD_REACTORS
330
C
102
}
330
C
100
AcDbDictionary
281
     1
  0
DICTIONARY
  5
17
102
{ACAD_REACTORS
330
C
102
}
330
C
100
AcDbDictionary
281
     1
  3
Standard
350
18
  0
DICTIONARY
  5
19
102
{ACAD_REACTORS
330
C
102
}
330
C
100
AcDbDictionary
281
     1
  0
ACDBDICTIONARYWDFLT
  5
E
102
{ACAD_REACTORS
330
C
102
}
330
C
100
AcDbDictionary
281
     1
  3
Normal
350
F
100
AcDbDictionaryWithDefault
340
F
  0
DICTIONARY
  5
140
102
{ACAD_REACTORS
330
C
102
}
330
C
100
AcDbDictionary
281
     1
  3
A0
350
141
  3
A1
350
142
  3
A2
350
143
  3
A3
350
144
  3
A4
350
145
  3
A5
350
146
  3
A6
350
147
  3
A7
350
148
  3
A8
350
149
  3
A9
350
14A
  3
B0
350
14B
  3
B1
350
14C
  3
B2
350
14D
  3
B3
350
14E
  3
B4
350
14F
  3
B5
350
150
  3
B6
350
151
  3
B7
350
152
  3
B8
350
153
  3
B9
350
154
  3
C0
350
155
  3
C1
350
156
  3
C2
350
157
  3
C3
350
158
  3
C4
350
159
  3
C5
350
15A
  3
C6
350
15B
  3
C7
350
15C
  3
C8
350
15D
  3
C9
350
15E
  3
D0
350
15F
  3
D1
350
160
  3
D2
350
161
  0
DICTIONARY
  5
18C
102
{ACAD_REACTORS
330
C
102
}
330
C
100
AcDbDictionary
281
     1
  0
DICTIONARY
  5
2A
102
{ACAD_REACTORS
330
C
102
}
330
C
100
AcDbDictionary
281
     1
  3
2dWireframe
350
2F
  3
3D Hidden
350
31
  3
3dWireframe
350
30
  3
Basic
350
32
  3
Brighten
350
36
  3
ColorChange
350
3A
  3
Conceptual
350
34
  3
Dim
350
35
  3
Facepattern
350
39
  3
Flat
350
2B
  3
FlatWithEdges
350
2C
  3
Gouraud
350
2D
  3
GouraudWithEdges
350
2E
  3
Linepattern
350
38
  3
Realistic
350
33
  3
Thicken
350
37
  0
DICTIONARY
  5
164
102
{ACAD_REACTORS
330
C
102
}
330
C
100
AcDbDictionary
281
     1
  3
CANNOSCALE
350
165
  3
XCLIPFRAME
350
18E
  0
DICTIONARY
  5
162
102
{ACAD_REACTORS
330
C
102
}
330
C
100
AcDbDictionary
281
     1
  3
AC_WATERMARK
350
163
  0
LAYOUT
  5
1E
102
{ACAD_REACTORS
330
1A
102
}
330
1A
100
AcDbPlotSettings
  1

  2
none_device
  4

  6

 40
0.0
 41
0.0
 42
0.0
 43
0.0
 44
0.0
 45
0.0
 46
0.0
 47
0.0
 48
0.0
 49
0.0
140
0.0
141
0.0
142
1.0
143
1.0
 70
   688
 72
     0
 73
     0
 74
     5
  7

 75
    16
 76
     0
 77
     2
 78
   300
147
1.0
148
0.0
149
0.0
100
AcDbLayout
  1
Layout1
 70
     1
 71
     1
 10
0.0
 20
0.0
 11
12.0
 21
9.0
 12
0.0
 22
0.0
 32
0.0
 14
1.000000000000000E+20
 24
1.000000000000000E+20
 34
1.000000000000000E+20
 15
-1.000000000000000E+20
 25
-1.000000000000000E+20
 35
-1.000000000000000E+20
146
0.0
 13
0.0
 23
0.0
 33
0.0
 16
1.0
 26
0.0
 36
0.0
 17
0.0
 27
1.0
 37
0.0
 76
     0
330
1B
  0
LAYOUT
  5
26
102
{ACAD_REACTORS
330
1A
102
}
330
1A
100
AcDbPlotSettings
  1

  2
none_device
  4

  6

 40
0.0
 41
0.0
 42
0.0
 43
0.0
 44
0.0
 45
0.0
 46
0.0
 47
0.0
 48
0.0
 49
0.0
140
0.0
141
0.0
142
1.0
143
1.0
 70
   688
 72
     0
 73
     0
 74
     5
  7

 75
    16
 76
     0
 77
     2
 78
   300
147
1.0
148
0.0
149
0.0
100
AcDbLayout
  1
Layout2
 70
     1
 71
     2
 10
0.0
 20
0.0
 11
0.0
 21
0.0
 12
0.0
 22
0.0
 32
0.0
 14
0.0
 24
0.0
 34
0.0
 15
0.0
 25
0.0
 35
0.0
146
0.0
 13
0.0
 23
0.0
 33
0.0
 16
1.0
 26
0.0
 36
0.0
 17
0.0
 27
1.0
 37
0.0
 76
     0
330
23
  0
LAYOUT
  5
22
102
{ACAD_REACTORS
330
1A
102
}
330
1A
100
AcDbPlotSettings
  1

  2
none_device
  4

  6

 40
0.0
 41
0.0
 42
0.0
 43
0.0
 44
0.0
 45
0.0
 46
0.0
 47
0.0
 48
0.0
 49
0.0
140
0.0
141
0.0
142
1.0
143
1.0
 70
  1712
 72
     0
 73
     0
 74
     0
  7

 75
     0
 76
     0
 77
     2
 78
   300
147
1.0
148
0.0
149
0.0
100
AcDbLayout
  1
Model
 70
     1
 71
     0
 10
0.0
 20
0.0
 11
12.0
 21
9.0
 12
0.0
 22
0.0
 32
0.0
 14
1.000000000000000E+20
 24
1.000000000000000E+20
 34
1.000000000000000E+20
 15
-1.000000000000000E+20
 25
-1.000000000000000E+20
 35
-1.000000000000000E+20
146
0.0
 13
0.0
 23
0.0
 33
0.0
 16
1.0
 26
0.0
 36
0.0
 17
0.0
 27
1.0
 37
0.0
 76
     0
330
1F
331
29
  0
MATERIAL
  5
3D
102
{ACAD_REACTORS
330
3B
102
}
102
{ACAD_XDICTIONARY
360
188
102
}
330
3B
100
AcDbMaterial
  1
ByBlock
  0
MATERIAL
  5
3C
102
{ACAD_REACTORS
330
3B
102
}
102
{ACAD_XDICTIONARY
360
186
102
}
330
3B
100
AcDbMaterial
  1
ByLayer
  0
MATERIAL
  5
3E
102
{ACAD_REACTORS
330
3B
102
}
102
{ACAD_XDICTIONARY
360
18A
102
}
330
3B
100
AcDbMaterial
  1
Global
  0
MLINESTYLE
  5
18
102
{ACAD_REACTORS
330
17
102
}
330
17
100
AcDbMlineStyle
  2
Standard
 70
     0
  3

 62
   256
 51
90.0
 52
90.0
 71
     2
 49
0.5
 62
   256
  6
BYLAYER
 49
-0.5
 62
   256
  6
BYLAYER
  0
ACDBPLACEHOLDER
  5
F
102
{ACAD_REACTORS
330
E
102
}
330
E
  0
SCALE
  5
141
102
{ACAD_REACTORS
330
140
102
}
330
140
100
AcDbScale
 70
     0
300
1:1
140
1.0
141
1.0
290
     1
  0
SCALE
  5
142
102
{ACAD_REACTORS
330
140
102
}
330
140
100
AcDbScale
 70
     0
300
1:2
140
1.0
141
2.0
290
     0
  0
SCALE
  5
143
102
{ACAD_REACTORS
330
140
102
}
330
140
100
AcDbScale
 70
     0
300
1:4
140
1.0
141
4.0
290
     0
  0
SCALE
  5
144
102
{ACAD_REACTORS
330
140
102
}
330
140
100
AcDbScale
 70
     0
300
1:5
140
1.0
141
5.0
290
     0
  0
SCALE
  5
145
102
{ACAD_REACTORS
330
140
102
}
330
140
100
AcDbScale
 70
     0
300
1:8
140
1.0
141
8.0
290
     0
  0
SCALE
  5
146
102
{ACAD_REACTORS
330
140
102
}
330
140
100
AcDbScale
 70
     0
300
1:10
140
1.0
141
10.0
290
     0
  0
SCALE
  5
147
102
{ACAD_REACTORS
330
140
102
}
330
140
100
AcDbScale
 70
     0
300
1:16
140
1.0
141
16.0
290
     0
  0
SCALE
  5
148
102
{ACAD_REACTORS
330
140
102
}
330
140
100
AcDbScale
 70
     0
300
1:20
140
1.0
141
20.0
290
     0
  0
SCALE
  5
149
102
{ACAD_REACTORS
330
140
102
}
330
140
100
AcDbScale
 70
     0
300
1:30
140
1.0
141
30.0
290
     0
  0
SCALE
  5
14A
102
{ACAD_REACTORS
330
140
102
}
330
140
100
AcDbScale
 70
     0
300
1:40
140
1.0
141
40.0
290
     0
  0
SCALE
  5
14B
102
{ACAD_REACTORS
330
140
102
}
330
140
100
AcDbScale
 70
     0
300
1:50
140
1.0
141
50.0
290
     0
  0
SCALE
  5
14C
102
{ACAD_REACTORS
330
140
102
}
330
140
100
AcDbScale
 70
     0
300
1:100
140
1.0
141
100.0
290
     0
  0
SCALE
  5
14D
102
{ACAD_REACTORS
330
140
102
}
330
140
100
AcDbScale
 70
     0
300
2:1
140
2.0
141
1.0
290
     0
  0
SCALE
  5
14E
102
{ACAD_REACTORS
330
140
102
}
330
140
100
AcDbScale
 70
     0
300
4:1
140
4.0
141
1.0
290
     0
  0
SCALE
  5
14F
102
{ACAD_REACTORS
330
140
102
}
330
140
100
AcDbScale
 70
     0
300
8:1
140
8.0
141
1.0
290
     0
  0
SCALE
  5
150
102
{ACAD_REACTORS
330
140
102
}
330
140
100
AcDbScale
 70
     0
300
10:1
140
10.0
141
1.0
290
     0
  0
SCALE
  5
151
102
{ACAD_REACTORS
330
140
102
}
330
140
100
AcDbScale
 70
     0
300
100:1
140
100.0
141
1.0
290
     0
  0
SCALE
  5
152
102
{ACAD_REACTORS
330
140
102
}
330
140
100
AcDbScale
 70
     0
300
1/128" = 1'-0"
140
0.0078125
141
12.0
290
     0
  0
SCALE
  5
153
102
{ACAD_REACTORS
330
140
102
}
330
140
100
AcDbScale
 70
     0
300
1/64" = 1'-0"
140
0.015625
141
12.0
290
     0
  0
SCALE
  5
154
102
{ACAD_REACTORS
330
140
102
}
330
140
100
AcDbScale
 70
     0
300
1/32" = 1'-0"
140
0.03125
141
12.0
290
     0
  0
SCALE
  5
155
102
{ACAD_REACTORS
330
140
102
}
330
140
100
AcDbScale
 70
     0
300
1/16" = 1'-0"
140
0.0625
141
12.0
290
     0
  0
SCALE
  5
156
102
{ACAD_REACTORS
330
140
102
}
330
140
100
AcDbScale
 70
     0
300
3/32" = 1'-0"
140
0.09375
141
12.0
290
     0
  0
SCALE
  5
157
102
{ACAD_REACTORS
330
140
102
}
330
140
100
AcDbScale
 70
     0
300
1/8" = 1'-0"
140
0.125
141
12.0
290
     0
  0
SCALE
  5
158
102
{ACAD_REACTORS
330
140
102
}
330
140
100
AcDbScale
 70
     0
300
3/16" = 1'-0"
140
0.1875
141
12.0
290
     0
  0
SCALE
  5
159
102
{ACAD_REACTORS
330
140
102
}
330
140
100
AcDbScale
 70
     0
300
1/4" = 1'-0"
140
0.25
141
12.0
290
     0
  0
SCALE
  5
15A
102
{ACAD_REACTORS
330
140
102
}
330
140
100
AcDbScale
 70
     0
300
3/8" = 1'-0"
140
0.375
141
12.0
290
     0
  0
SCALE
  5
15B
102
{ACAD_REACTORS
330
140
102
}
330
140
100
AcDbScale
 70
     0
300
1/2" = 1'-0"
140
0.5
141
12.0
290
     0
  0
SCALE
  5
15C
102
{ACAD_REACTORS
330
140
102
}
330
140
100
AcDbScale
 70
     0
300
3/4" = 1'-0"
140
0.75
141
12.0
290
     0
  0
SCALE
  5
15D
102
{ACAD_REACTORS
330
140
102
}
330
140
100
AcDbScale
 70
     0
300
1" = 1'-0"
140
1.0
141
12.0
290
     0
  0
SCALE
  5
15E
102
{ACAD_REACTORS
330
140
102
}
330
140
100
AcDbScale
 70
     0
300
1-1/2" = 1'-0"
140
1.5
141
12.0
290
     0
  0
SCALE
  5
15F
102
{ACAD_REACTORS
330
140
102
}
330
140
100
AcDbScale
 70
     0
300
3" = 1'-0"
140
3.0
141
12.0
290
     0
  0
SCALE
  5
160
102
{ACAD_REACTORS
330
140
102
}
330
140
100
AcDbScale
 70
     0
300
6" = 1'-0"
140
6.0
141
12.0
290
     0
  0
SCALE
  5
161
102
{ACAD_REACTORS
330
140
102
}
330
140
100
AcDbScale
 70
     0
300
1'-0" = 1'-0"
140
12.0
141
12.0
290
     0
  0
VISUALSTYLE
  5
2F
102
{ACAD_REACTORS
330
2A
102
}
102
{ACAD_XDICTIONARY
360
16E
102
}
330
2A
100
AcDbVisualStyle
  2
2dWireframe
 70
     4
 71
     0
 72
     2
 73
     0
 90
        0
 40
-0.6
 41
-30.0
 62
     5
 63
     7
421
 16777215
 74
     1
 91
        4
 64
     7
 65
   257
 75
     1
175
     1
 42
1.0
 92
        0
 66
   257
 43
1.0
 76
     1
 77
     6
 78
     2
 67
     7
 79
     5
170
     0
171
     0
290
     0
174
     0
 93
        1
 44
0.0
173
     0
291
     0
 45
0.0
1001
ACAD
1000
AcDbSavedByObjectVersion
1070
     0
  0
VISUALSTYLE
  5
31
102
{ACAD_REACTORS
330
2A
102
}
102
{ACAD_XDICTIONARY
360
172
102
}
330
2A
100
AcDbVisualStyle
  2
3D Hidden
 70
     6
 71
     1
 72
     2
 73
     2
 90
        0
 40
-0.6
 41
-30.0
 62
     5
 63
     7
421
 16777215
 74
     2
 91
        2
 64
     7
 65
   257
 75
     2
175
     1
 42
40.0
 92
        0
 66
   257
 43
1.0
 76
     1
 77
     6
 78
     2
 67
     7
 79
     3
170
     0
171
     0
290
     0
174
     0
 93
        1
 44
0.0
173
     0
291
     0
 45
0.0
1001
ACAD
1000
AcDbSavedByObjectVersion
1070
     0
  0
VISUALSTYLE
  5
30
102
{ACAD_REACTORS
330
2A
102
}
102
{ACAD_XDICTIONARY
360
170
102
}
330
2A
100
AcDbVisualStyle
  2
3dWireframe
 70
     5
 71
     0
 72
     2
 73
     0
 90
        0
 40
-0.6
 41
-30.0
 62
     5
 63
     7
421
 16777215
 74
     1
 91
        4
 64
     7
 65
   257
 75
     1
175
     1
 42
1.0
 92
        0
 66
   257
 43
1.0
 76
     1
 77
     6
 78
     2
 67
     7
 79
     5
170
     0
171
     0
290
     0
174
     0
 93
        1
 44
0.0
173
     0
291
     0
 45
0.0
1001
ACAD
1000
AcDbSavedByObjectVersion
1070
     0
  0
VISUALSTYLE
  5
32
102
{ACAD_REACTORS
330
2A
102
}
102
{ACAD_XDICTIONARY
360
174
102
}
330
2A
100
AcDbVisualStyle
  2
Basic
 70
     7
 71
     1
 72
     0
 73
     1
 90
        0
 40
-0.6
 41
-30.0
 62
     5
 63
     7
421
 16777215
 74
     0
 91
        4
 64
     7
 65
   257
 75
     1
175
     1
 42
1.0
 92
        8
 66
     7
 43
1.0
 76
     1
 77
     6
 78
     2
 67
     7
 79
     5
170
     0
171
     0
290
     0
174
     0
 93
        1
 44
0.0
173
     0
291
     1
 45
0.0
1001
ACAD
1000
AcDbSavedByObjectVersion
1070
     0
  0
VISUALSTYLE
  5
36
102
{ACAD_REACTORS
330
2A
102
}
102
{ACAD_XDICTIONARY
360
17C
102
}
330
2A
100
AcDbVisualStyle
  2
Brighten
 70
    12
 71
     2
 72
     2
 73
     0
 90
        0
 40
-0.6
 41
-30.0
 62
     5
 63
     7
421
 16777215
 74
     1
 91
        4
 64
     7
 65
   257
 75
     1
175
     1
 42
1.0
 92
        8
 66
     7
 43
1.0
 76
     1
 77
     6
 78
     2
 67
     7
 79
     5
170
     0
171
     0
290
     0
174
     0
 93
        1
 44
50.0
173
     0
291
     1
 45
0.0
1001
ACAD
1000
AcDbSavedByObjectVersion
1070
     0
  0
VISUALSTYLE
  5
3A
102
{ACAD_REACTORS
330
2A
102
}
102
{ACAD_XDICTIONARY
360
184
102
}
330
2A
100
AcDbVisualStyle
  2
ColorChange
 70
    16
 71
     2
 72
     2
 73
     3
 90
        0
 40
-0.6
 41
-30.0
 62
     5
 63
     8
421
  8421504
 74
     1
 91
        4
 64
     7
 65
   257
 75
     1
175
     1
 42
1.0
 92
        8
 66
     8
424
  8421504
 43
1.0
 76
     1
 77
     6
 78
     2
 67
     7
 79
     5
170
     0
171
     0
290
     0
174
     0
 93
        1
 44
0.0
173
     0
291
     1
 45
0.0
1001
ACAD
1000
AcDbSavedByObjectVersion
1070
     0
  0
VISUALSTYLE
  5
34
102
{ACAD_REACTORS
330
2A
102
}
102
{ACAD_XDICTIONARY
360
178
102
}
330
2A
100
AcDbVisualStyle
  2
Conceptual
 70
     9
 71
     3
 72
     2
 73
     0
 90
        0
 40
-0.6
 41
-30.0
 62
     5
 63
     7
421
 16777215
 74
     2
 91
        2
 64
     7
 65
   257
 75
     1
175
     1
 42
40.0
 92
        8
 66
     7
 43
1.0
 76
     1
 77
     6
 78
     2
 67
     7
 79
     3
170
     0
171
     0
290
     0
174
     0
 93
        1
 44
0.0
173
     0
291
     0
 45
0.0
1001
ACAD
1000
AcDbSavedByObjectVersion
1070
     0
  0
VISUALSTYLE
  5
35
102
{ACAD_REACTORS
330
2A
102
}
102
{ACAD_XDICTIONARY
360
17A
102
}
330
2A
100
AcDbVisualStyle
  2
Dim
 70
    11
 71
     2
 72
     2
 73
     0
 90
        0
 40
-0.6
 41
-30.0
 62
     5
 63
     7
421
 16777215
 74
     1
 91
        4
 64
     7
 65
   257
 75
     1
175
     1
 42
1.0
 92
        8
 66
     7
 43
1.0
 76
     1
 77
     6
 78
     2
 67
     7
 79
     5
170
     0
171
     0
290
     0
174
     0
 93
        1
 44
-50.0
173
     0
291
     1
 45
0.0
1001
ACAD
1000
AcDbSavedByObjectVersion
1070
     0
  0
VISUALSTYLE
  5
39
102
{ACAD_REACTORS
330
2A
102
}
102
{ACAD_XDICTIONARY
360
182
102
}
330
2A
100
AcDbVisualStyle
  2
Facepattern
 70
    15
 71
     2
 72
     2
 73
     0
 90
        0
 40
-0.6
 41
-30.0
 62
     5
 63
     7
421
 16777215
 74
     1
 91
        4
 64
     7
 65
   257
 75
     1
175
     1
 42
1.0
 92
        8
 66
     7
 43
1.0
 76
     1
 77
     6
 78
     2
 67
     7
 79
     5
170
     0
171
     0
290
     0
174
     0
 93
        1
 44
0.0
173
     0
291
     1
 45
0.0
1001
ACAD
1000
AcDbSavedByObjectVersion
1070
     0
  0
VISUALSTYLE
  5
2B
102
{ACAD_REACTORS
330
2A
102
}
102
{ACAD_XDICTIONARY
360
166
102
}
330
2A
100
AcDbVisualStyle
  2
Flat
 70
     0
 71
     2
 72
     1
 73
     1
 90
        2
 40
-0.6
 41
30.0
 62
     5
 63
     7
421
 16777215
 74
     0
 91
        4
 64
     7
 65
   257
 75
     1
175
     1
 42
1.0
 92
        8
 66
     7
 43
1.0
 76
     1
 77
     6
 78
     2
 67
     7
 79
     5
170
     0
171
     0
290
     0
174
     0
 93
       13
 44
0.0
173
     0
291
     1
 45
0.0
1001
ACAD
1000
AcDbSavedByObjectVersion
1070
     0
  0
VISUALSTYLE
  5
2C
102
{ACAD_REACTORS
330
2A
102
}
102
{ACAD_XDICTIONARY
360
168
102
}
330
2A
100
AcDbVisualStyle
  2
FlatWithEdges
 70
     1
 71
     2
 72
     1
 73
     1
 90
        2
 40
-0.6
 41
30.0
 62
     5
 63
     7
421
 16777215
 74
     1
 91
        4
 64
     7
 65
   257
 75
     1
175
     1
 42
1.0
 92
        0
 66
   257
 43
1.0
 76
     1
 77
     6
 78
     2
 67
     7
 79
     5
170
     0
171
     0
290
     0
174
     0
 93
       13
 44
0.0
173
     0
291
     1
 45
0.0
1001
ACAD
1000
AcDbSavedByObjectVersion
1070
     0
  0
VISUALSTYLE
  5
2D
102
{ACAD_REACTORS
330
2A
102
}
102
{ACAD_XDICTIONARY
360
16A
102
}
330
2A
100
AcDbVisualStyle
  2
Gouraud
 70
     2
 71
     2
 72
     2
 73
     1
 90
        2
 40
-0.6
 41
30.0
 62
     5
 63
     7
421
 16777215
 74
     0
 91
        4
 64
     7
 65
   257
 75
     1
175
     1
 42
1.0
 92
        0
 66
     7
 43
1.0
 76
     1
 77
     6
 78
     2
 67
     7
 79
     5
170
     0
171
     0
290
     0
174
     0
 93
       13
 44
0.0
173
     0
291
     1
 45
0.0
1001
ACAD
1000
AcDbSavedByObjectVersion
1070
     0
  0
VISUALSTYLE
  5
2E
102
{ACAD_REACTORS
330
2A
102
}
102
{ACAD_XDICTIONARY
360
16C
102
}
330
2A
100
AcDbVisualStyle
  2
GouraudWithEdges
 70
     3
 71
     2
 72
     2
 73
     1
 90
        2
 40
-0.6
 41
30.0
 62
     5
 63
     7
421
 16777215
 74
     1
 91
        4
 64
     7
 65
   257
 75
     1
175
     1
 42
1.0
 92
        0
 66
   257
 43
1.0
 76
     1
 77
     6
 78
     2
 67
     7
 79
     5
170
     0
171
     0
290
     0
174
     0
 93
       13
 44
0.0
173
     0
291
     1
 45
0.0
1001
ACAD
1000
AcDbSavedByObjectVersion
1070
     0
  0
VISUALSTYLE
  5
38
102
{ACAD_REACTORS
330
2A
102
}
102
{ACAD_XDICTIONARY
360
180
102
}
330
2A
100
AcDbVisualStyle
  2
Linepattern
 70
    14
 71
     2
 72
     2
 73
     0
 90
        0
 40
-0.6
 41
-30.0
 62
     5
 63
     7
421
 16777215
 74
     1
 91
        4
 64
     7
 65
   257
 75
     7
175
     7
 42
1.0
 92
        8
 66
     7
 43
1.0
 76
     1
 77
     6
 78
     2
 67
     7
 79
     5
170
     0
171
     0
290
     0
174
     0
 93
        1
 44
0.0
173
     0
291
     1
 45
0.0
1001
ACAD
1000
AcDbSavedByObjectVersion
1070
     0
  0
VISUALSTYLE
  5
33
102
{ACAD_REACTORS
330
2A
102
}
102
{ACAD_XDICTIONARY
360
176
102
}
330
2A
100
AcDbVisualStyle
  2
Realistic
 70
     8
 71
     2
 72
     2
 73
     0
 90
        0
 40
-0.6
 41
-30.0
 62
     5
 63
     7
421
 16777215
 74
     1
 91
        0
 64
     7
 65
   257
 75
     1
175
     1
 42
1.0
 92
        8
 66
     8
424
  7895160
 43
1.0
 76
     1
 77
     6
 78
     2
 67
     7
 79
     5
170
     0
171
     0
290
     0
174
     0
 93
       13
 44
0.0
173
     0
291
     0
 45
0.0
1001
ACAD
1000
AcDbSavedByObjectVersion
1070
     0
  0
VISUALSTYLE
  5
37
102
{ACAD_REACTORS
330
2A
102
}
102
{ACAD_XDICTIONARY
360
17E
102
}
330
2A
100
AcDbVisualStyle
  2
Thicken
 70
    13
 71
     2
 72
     2
 73
     0
 90
        0
 40
-0.6
 41
-30.0
 62
     5
 63
     7
421
 16777215
 74
     1
 91
        4
 64
     7
 65
   257
 75
     1
175
     1
 42
1.0
 92
       12
 66
     7
 43
1.0
 76
     1
 77
     6
 78
     2
 67
     7
 79
     5
170
     0
171
     0
290
     0
174
     0
 93
        1
 44
0.0
173
     0
291
     1
 45
0.0
1001
ACAD
1000
AcDbSavedByObjectVersion
1070
     0
  0
DICTIONARYVAR
  5
165
102
{ACAD_REACTORS
330
164
102
}
330
164
100
DictionaryVariables
280
     0
  1
1:1
  0
DICTIONARYVAR
  5
18E
102
{ACAD_REACTORS
330
164
102
}
330
164
100
DictionaryVariables
280
     0
  1
0
  0
XRECORD
  5
163
102
{ACAD_REACTORS
330
162
102
}
330
162
100
AcDbXrecord
280
     1
1000
This DWG file was created in ArchiCAD(TM)®
  0
DICTIONARY
  5
188
330
3D
100
AcDbDictionary
280
     1
281
     1
  3
ACAD_XREC_ROUNDTRIP
360
189
  0
DICTIONARY
  5
186
330
3C
100
AcDbDictionary
280
     1
281
     1
  3
ACAD_XREC_ROUNDTRIP
360
187
  0
DICTIONARY
  5
18A
330
3E
100
AcDbDictionary
280
     1
281
     1
  3
ACAD_XREC_ROUNDTRIP
360
18B
  0
DICTIONARY
  5
16E
330
2F
100
AcDbDictionary
280
     1
281
     1
  3
ACAD_XREC_ROUNDTRIP
360
16F
  0
DICTIONARY
  5
172
330
31
100
AcDbDictionary
280
     1
281
     1
  3
ACAD_XREC_ROUNDTRIP
360
173
  0
DICTIONARY
  5
170
330
30
100
AcDbDictionary
280
     1
281
     1
  3
ACAD_XREC_ROUNDTRIP
360
171
  0
DICTIONARY
  5
174
330
32
100
AcDbDictionary
280
     1
281
     1
  3
ACAD_XREC_ROUNDTRIP
360
175
  0
DICTIONARY
  5
17C
330
36
100
AcDbDictionary
280
     1
281
     1
  3
ACAD_XREC_ROUNDTRIP
360
17D
  0
DICTIONARY
  5
184
330
3A
100
AcDbDictionary
280
     1
281
     1
  3
ACAD_XREC_ROUNDTRIP
360
185
  0
DICTIONARY
  5
178
330
34
100
AcDbDictionary
280
     1
281
     1
  3
ACAD_XREC_ROUNDTRIP
360
179
  0
DICTIONARY
  5
17A
330
35
100
AcDbDictionary
280
     1
281
     1
  3
ACAD_XREC_ROUNDTRIP
360
17B
  0
DICTIONARY
  5
182
330
39
100
AcDbDictionary
280
     1
281
     1
  3
ACAD_XREC_ROUNDTRIP
360
183
  0
DICTIONARY
  5
166
330
2B
100
AcDbDictionary
280
     1
281
     1
  3
ACAD_XREC_ROUNDTRIP
360
167
  0
DICTIONARY
  5
168
330
2C
100
AcDbDictionary
280
     1
281
     1
  3
ACAD_XREC_ROUNDTRIP
360
169
  0
DICTIONARY
  5
16A
330
2D
100
AcDbDictionary
280
     1
281
     1
  3
ACAD_XREC_ROUNDTRIP
360
16B
  0
DICTIONARY
  5
16C
330
2E
100
AcDbDictionary
280
     1
281
     1
  3
ACAD_XREC_ROUNDTRIP
360
16D
  0
DICTIONARY
  5
180
330
38
100
AcDbDictionary
280
     1
281
     1
  3
ACAD_XREC_ROUNDTRIP
360
181
  0
DICTIONARY
  5
176
330
33
100
AcDbDictionary
280
     1
281
     1
  3
ACAD_XREC_ROUNDTRIP
360
177
  0
DICTIONARY
  5
17E
330
37
100
AcDbDictionary
280
     1
281
     1
  3
ACAD_XREC_ROUNDTRIP
360
17F
  0
XRECORD
  5
189
102
{ACAD_REACTORS
330
188
102
}
330
188
100
AcDbXrecord
280
     1
102
MATERIAL
148
0.0
149
0.0
149
0.0
 93
        0
 94
      127
282
     0
 72
     1
 77
     1
171
     1
175
     1
179
     1
273
     0
  0
XRECORD
  5
187
102
{ACAD_REACTORS
330
186
102
}
330
186
100
AcDbXrecord
280
     1
102
MATERIAL
148
0.0
149
0.0
149
0.0
 93
        0
 94
      127
282
     0
 72
     1
 77
     1
171
     1
175
     1
179
     1
273
     0
  0
XRECORD
  5
18B
102
{ACAD_REACTORS
330
18A
102
}
330
18A
100
AcDbXrecord
280
     1
102
MATERIAL
148
0.0
149
0.0
149
0.0
 93
        0
 94
      127
282
     0
 72
     1
 77
     1
171
     1
175
     1
179
     1
273
     0
  0
XRECORD
  5
16F
102
{ACAD_REACTORS
330
16E
102
}
330
16E
100
AcDbXrecord
280
     1
102
RTVSPropertyOp0
 70
     1
102
RTVSPropertyOp1
 70
     1
102
RTVSPropertyOp2
 70
     1
102
RTVSPropertyOp3
 70
     1
102
RTVSPropertyOp4
 70
     1
102
RTVSPropertyOp5
 70
     1
102
RTVSPropertyOp6
 70
     1
102
RTVSPropertyOp7
 70
     1
102
RTVSPropertyOp8
 70
     1
102
RTVSPropertyOp9
 70
     1
102
RTVSPropertyOp10
 70
     1
102
RTVSPropertyOp11
 70
     1
102
RTVSPropertyOp12
 70
     1
102
RTVSPropertyOp13
 70
     1
102
RTVSPropertyOp14
 70
     1
102
RTVSPropertyOp15
 70
     1
102
RTVSPropertyOp16
 70
     1
102
RTVSPropertyOp17
 70
     1
102
RTVSPropertyOp18
 70
     1
102
RTVSPropertyOp19
 70
     1
102
RTVSPropertyOp20
 70
     1
102
RTVSPropertyOp21
 70
     1
102
RTVSPropertyOp22
 70
     1
102
RTVSPropertyOp23
 70
     1
102
RTVSPropertyOp24
 70
     1
102
RTVSPropertyOp25
 70
     1
102
RTVSPropertyOp26
 70
     1
102
RTVSPropertyOp27
 70
     1
102
RTVSPropertyOp28
 70
     1
102
RTVSPropertyOp29
 70
     1
102
RTVSPropertyOp30
 70
     1
102
RTVSPropertyOp31
 70
     1
102
RTVSPropertyOp32
 70
     1
  0
XRECORD
  5
173
102
{ACAD_REACTORS
330
172
102
}
330
172
100
AcDbXrecord
280
     1
102
RTVSPropertyOp0
 70
     1
102
RTVSPropertyOp1
 70
     1
102
RTVSPropertyOp2
 70
     1
102
RTVSPropertyOp3
 70
     1
102
RTVSPropertyOp4
 70
     1
102
RTVSPropertyOp5
 70
     1
102
RTVSPropertyOp6
 70
     1
102
RTVSPropertyOp7
 70
     1
102
RTVSPropertyOp8
 70
     1
102
RTVSPropertyOp9
 70
     1
102
RTVSPropertyOp10
 70
     1
102
RTVSPropertyOp11
 70
     1
102
RTVSPropertyOp12
 70
     1
102
RTVSPropertyOp13
 70
     1
102
RTVSPropertyOp14
 70
     1
102
RTVSPropertyOp15
 70
     1
102
RTVSPropertyOp16
 70
     1
102
RTVSPropertyOp17
 70
     1
102
RTVSPropertyOp18
 70
     1
102
RTVSPropertyOp19
 70
     1
102
RTVSPropertyOp20
 70
     1
102
RTVSPropertyOp21
 70
     1
102
RTVSPropertyOp22
 70
     1
102
RTVSPropertyOp23
 70
     1
102
RTVSPropertyOp24
 70
     1
102
RTVSPropertyOp25
 70
     1
102
RTVSPropertyOp26
 70
     1
102
RTVSPropertyOp27
 70
     1
102
RTVSPropertyOp28
 70
     1
102
RTVSPropertyOp29
 70
     1
102
RTVSPropertyOp30
 70
     1
102
RTVSPropertyOp31
 70
     1
102
RTVSPropertyOp32
 70
     1
  0
XRECORD
  5
171
102
{ACAD_REACTORS
330
170
102
}
330
170
100
AcDbXrecord
280
     1
102
RTVSPropertyOp0
 70
     1
102
RTVSPropertyOp1
 70
     1
102
RTVSPropertyOp2
 70
     1
102
RTVSPropertyOp3
 70
     1
102
RTVSPropertyOp4
 70
     1
102
RTVSPropertyOp5
 70
     1
102
RTVSPropertyOp6
 70
     1
102
RTVSPropertyOp7
 70
     1
102
RTVSPropertyOp8
 70
     1
102
RTVSPropertyOp9
 70
     1
102
RTVSPropertyOp10
 70
     1
102
RTVSPropertyOp11
 70
     1
102
RTVSPropertyOp12
 70
     1
102
RTVSPropertyOp13
 70
     1
102
RTVSPropertyOp14
 70
     1
102
RTVSPropertyOp15
 70
     1
102
RTVSPropertyOp16
 70
     1
102
RTVSPropertyOp17
 70
     1
102
RTVSPropertyOp18
 70
     1
102
RTVSPropertyOp19
 70
     1
102
RTVSPropertyOp20
 70
     1
102
RTVSPropertyOp21
 70
     1
102
RTVSPropertyOp22
 70
     1
102
RTVSPropertyOp23
 70
     1
102
RTVSPropertyOp24
 70
     1
102
RTVSPropertyOp25
 70
     1
102
RTVSPropertyOp26
 70
     1
102
RTVSPropertyOp27
 70
     1
102
RTVSPropertyOp28
 70
     1
102
RTVSPropertyOp29
 70
     1
102
RTVSPropertyOp30
 70
     1
102
RTVSPropertyOp31
 70
     1
102
RTVSPropertyOp32
 70
     1
  0
XRECORD
  5
175
102
{ACAD_REACTORS
330
174
102
}
330
174
100
AcDbXrecord
280
     1
102
RTVSPropertyOp0
 70
     1
102
RTVSPropertyOp1
 70
     1
102
RTVSPropertyOp2
 70
     1
102
RTVSPropertyOp3
 70
     1
102
RTVSPropertyOp4
 70
     1
102
RTVSPropertyOp5
 70
     1
102
RTVSPropertyOp6
 70
     1
102
RTVSPropertyOp7
 70
     1
102
RTVSPropertyOp8
 70
     1
102
RTVSPropertyOp9
 70
     1
102
RTVSPropertyOp10
 70
     1
102
RTVSPropertyOp11
 70
     1
102
RTVSPropertyOp12
 70
     1
102
RTVSPropertyOp13
 70
     1
102
RTVSPropertyOp14
 70
     1
102
RTVSPropertyOp15
 70
     1
102
RTVSPropertyOp16
 70
     1
102
RTVSPropertyOp17
 70
     1
102
RTVSPropertyOp18
 70
     1
102
RTVSPropertyOp19
 70
     1
102
RTVSPropertyOp20
 70
     1
102
RTVSPropertyOp21
 70
     1
102
RTVSPropertyOp22
 70
     1
102
RTVSPropertyOp23
 70
     1
102
RTVSPropertyOp24
 70
     1
102
RTVSPropertyOp25
 70
     1
102
RTVSPropertyOp26
 70
     1
102
RTVSPropertyOp27
 70
     1
102
RTVSPropertyOp28
 70
     1
102
RTVSPropertyOp29
 70
     1
102
RTVSPropertyOp30
 70
     1
102
RTVSPropertyOp31
 70
     1
102
RTVSPropertyOp32
 70
     1
  0
XRECORD
  5
17D
102
{ACAD_REACTORS
330
17C
102
}
330
17C
100
AcDbXrecord
280
     1
102
RTVSPropertyOp0
 70
     1
102
RTVSPropertyOp1
 70
     1
102
RTVSPropertyOp2
 70
     1
102
RTVSPropertyOp3
 70
     1
102
RTVSPropertyOp4
 70
     1
102
RTVSPropertyOp5
 70
     1
102
RTVSPropertyOp6
 70
     1
102
RTVSPropertyOp7
 70
     1
102
RTVSPropertyOp8
 70
     1
102
RTVSPropertyOp9
 70
     1
102
RTVSPropertyOp10
 70
     1
102
RTVSPropertyOp11
 70
     1
102
RTVSPropertyOp12
 70
     1
102
RTVSPropertyOp13
 70
     1
102
RTVSPropertyOp14
 70
     1
102
RTVSPropertyOp15
 70
     1
102
RTVSPropertyOp16
 70
     1
102
RTVSPropertyOp17
 70
     1
102
RTVSPropertyOp18
 70
     1
102
RTVSPropertyOp19
 70
     1
102
RTVSPropertyOp20
 70
     1
102
RTVSPropertyOp21
 70
     1
102
RTVSPropertyOp22
 70
     1
102
RTVSPropertyOp23
 70
     1
102
RTVSPropertyOp24
 70
     1
102
RTVSPropertyOp25
 70
     1
102
RTVSPropertyOp26
 70
     1
102
RTVSPropertyOp27
 70
     1
102
RTVSPropertyOp28
 70
     1
102
RTVSPropertyOp29
 70
     1
102
RTVSPropertyOp30
 70
     1
102
RTVSPropertyOp31
 70
     1
102
RTVSPropertyOp32
 70
     1
  0
XRECORD
  5
185
102
{ACAD_REACTORS
330
184
102
}
330
184
100
AcDbXrecord
280
     1
102
RTVSPropertyOp0
 70
     1
102
RTVSPropertyOp1
 70
     1
102
RTVSPropertyOp2
 70
     1
102
RTVSPropertyOp3
 70
     1
102
RTVSPropertyOp4
 70
     1
102
RTVSPropertyOp5
 70
     1
102
RTVSPropertyOp6
 70
     1
102
RTVSPropertyOp7
 70
     1
102
RTVSPropertyOp8
 70
     1
102
RTVSPropertyOp9
 70
     1
102
RTVSPropertyOp10
 70
     1
102
RTVSPropertyOp11
 70
     1
102
RTVSPropertyOp12
 70
     1
102
RTVSPropertyOp13
 70
     1
102
RTVSPropertyOp14
 70
     1
102
RTVSPropertyOp15
 70
     1
102
RTVSPropertyOp16
 70
     1
102
RTVSPropertyOp17
 70
     1
102
RTVSPropertyOp18
 70
     1
102
RTVSPropertyOp19
 70
     1
102
RTVSPropertyOp20
 70
     1
102
RTVSPropertyOp21
 70
     1
102
RTVSPropertyOp22
 70
     1
102
RTVSPropertyOp23
 70
     1
102
RTVSPropertyOp24
 70
     1
102
RTVSPropertyOp25
 70
     1
102
RTVSPropertyOp26
 70
     1
102
RTVSPropertyOp27
 70
     1
102
RTVSPropertyOp28
 70
     1
102
RTVSPropertyOp29
 70
     1
102
RTVSPropertyOp30
 70
     1
102
RTVSPropertyOp31
 70
     1
102
RTVSPropertyOp32
 70
     1
  0
XRECORD
  5
179
102
{ACAD_REACTORS
330
178
102
}
330
178
100
AcDbXrecord
280
     1
102
RTVSPropertyOp0
 70
     1
102
RTVSPropertyOp1
 70
     1
102
RTVSPropertyOp2
 70
     1
102
RTVSPropertyOp3
 70
     1
102
RTVSPropertyOp4
 70
     1
102
RTVSPropertyOp5
 70
     1
102
RTVSPropertyOp6
 70
     1
102
RTVSPropertyOp7
 70
     1
102
RTVSPropertyOp8
 70
     1
102
RTVSPropertyOp9
 70
     1
102
RTVSPropertyOp10
 70
     1
102
RTVSPropertyOp11
 70
     1
102
RTVSPropertyOp12
 70
     1
102
RTVSPropertyOp13
 70
     1
102
RTVSPropertyOp14
 70
     1
102
RTVSPropertyOp15
 70
     1
102
RTVSPropertyOp16
 70
     1
102
RTVSPropertyOp17
 70
     1
102
RTVSPropertyOp18
 70
     1
102
RTVSPropertyOp19
 70
     1
102
RTVSPropertyOp20
 70
     1
102
RTVSPropertyOp21
 70
     1
102
RTVSPropertyOp22
 70
     1
102
RTVSPropertyOp23
 70
     1
102
RTVSPropertyOp24
 70
     1
102
RTVSPropertyOp25
 70
     1
102
RTVSPropertyOp26
 70
     1
102
RTVSPropertyOp27
 70
     1
102
RTVSPropertyOp28
 70
     1
102
RTVSPropertyOp29
 70
     1
102
RTVSPropertyOp30
 70
     1
102
RTVSPropertyOp31
 70
     1
102
RTVSPropertyOp32
 70
     1
  0
XRECORD
  5
17B
102
{ACAD_REACTORS
330
17A
102
}
330
17A
100
AcDbXrecord
280
     1
102
RTVSPropertyOp0
 70
     1
102
RTVSPropertyOp1
 70
     1
102
RTVSPropertyOp2
 70
     1
102
RTVSPropertyOp3
 70
     1
102
RTVSPropertyOp4
 70
     1
102
RTVSPropertyOp5
 70
     1
102
RTVSPropertyOp6
 70
     1
102
RTVSPropertyOp7
 70
     1
102
RTVSPropertyOp8
 70
     1
102
RTVSPropertyOp9
 70
     1
102
RTVSPropertyOp10
 70
     1
102
RTVSPropertyOp11
 70
     1
102
RTVSPropertyOp12
 70
     1
102
RTVSPropertyOp13
 70
     1
102
RTVSPropertyOp14
 70
     1
102
RTVSPropertyOp15
 70
     1
102
RTVSPropertyOp16
 70
     1
102
RTVSPropertyOp17
 70
     1
102
RTVSPropertyOp18
 70
     1
102
RTVSPropertyOp19
 70
     1
102
RTVSPropertyOp20
 70
     1
102
RTVSPropertyOp21
 70
     1
102
RTVSPropertyOp22
 70
     1
102
RTVSPropertyOp23
 70
     1
102
RTVSPropertyOp24
 70
     1
102
RTVSPropertyOp25
 70
     1
102
RTVSPropertyOp26
 70
     1
102
RTVSPropertyOp27
 70
     1
102
RTVSPropertyOp28
 70
     1
102
RTVSPropertyOp29
 70
     1
102
RTVSPropertyOp30
 70
     1
102
RTVSPropertyOp31
 70
     1
102
RTVSPropertyOp32
 70
     1
  0
XRECORD
  5
183
102
{ACAD_REACTORS
330
182
102
}
330
182
100
AcDbXrecord
280
     1
102
RTVSPropertyOp0
 70
     1
102
RTVSPropertyOp1
 70
     1
102
RTVSPropertyOp2
 70
     1
102
RTVSPropertyOp3
 70
     1
102
RTVSPropertyOp4
 70
     1
102
RTVSPropertyOp5
 70
     1
102
RTVSPropertyOp6
 70
     1
102
RTVSPropertyOp7
 70
     1
102
RTVSPropertyOp8
 70
     1
102
RTVSPropertyOp9
 70
     1
102
RTVSPropertyOp10
 70
     1
102
RTVSPropertyOp11
 70
     1
102
RTVSPropertyOp12
 70
     1
102
RTVSPropertyOp13
 70
     1
102
RTVSPropertyOp14
 70
     1
102
RTVSPropertyOp15
 70
     1
102
RTVSPropertyOp16
 70
     1
102
RTVSPropertyOp17
 70
     1
102
RTVSPropertyOp18
 70
     1
102
RTVSPropertyOp19
 70
     1
102
RTVSPropertyOp20
 70
     1
102
RTVSPropertyOp21
 70
     1
102
RTVSPropertyOp22
 70
     1
102
RTVSPropertyOp23
 70
     1
102
RTVSPropertyOp24
 70
     1
102
RTVSPropertyOp25
 70
     1
102
RTVSPropertyOp26
 70
     1
102
RTVSPropertyOp27
 70
     1
102
RTVSPropertyOp28
 70
     1
102
RTVSPropertyOp29
 70
     1
102
RTVSPropertyOp30
 70
     1
102
RTVSPropertyOp31
 70
     1
102
RTVSPropertyOp32
 70
     1
  0
XRECORD
  5
167
102
{ACAD_REACTORS
330
166
102
}
330
166
100
AcDbXrecord
280
     1
102
RTVSPropertyOp0
 70
     1
102
RTVSPropertyOp1
 70
     1
102
RTVSPropertyOp2
 70
     1
102
RTVSPropertyOp3
 70
     1
102
RTVSPropertyOp4
 70
     1
102
RTVSPropertyOp5
 70
     1
102
RTVSPropertyOp6
 70
     1
102
RTVSPropertyOp7
 70
     1
102
RTVSPropertyOp8
 70
     1
102
RTVSPropertyOp9
 70
     1
102
RTVSPropertyOp10
 70
     1
102
RTVSPropertyOp11
 70
     1
102
RTVSPropertyOp12
 70
     1
102
RTVSPropertyOp13
 70
     1
102
RTVSPropertyOp14
 70
     1
102
RTVSPropertyOp15
 70
     1
102
RTVSPropertyOp16
 70
     1
102
RTVSPropertyOp17
 70
     1
102
RTVSPropertyOp18
 70
     1
102
RTVSPropertyOp19
 70
     1
102
RTVSPropertyOp20
 70
     1
102
RTVSPropertyOp21
 70
     1
102
RTVSPropertyOp22
 70
     1
102
RTVSPropertyOp23
 70
     1
102
RTVSPropertyOp24
 70
     1
102
RTVSPropertyOp25
 70
     1
102
RTVSPropertyOp26
 70
     1
102
RTVSPropertyOp27
 70
     1
102
RTVSPropertyOp28
 70
     1
102
RTVSPropertyOp29
 70
     1
102
RTVSPropertyOp30
 70
     1
102
RTVSPropertyOp31
 70
     1
102
RTVSPropertyOp32
 70
     1
  0
XRECORD
  5
169
102
{ACAD_REACTORS
330
168
102
}
330
168
100
AcDbXrecord
280
     1
102
RTVSPropertyOp0
 70
     1
102
RTVSPropertyOp1
 70
     1
102
RTVSPropertyOp2
 70
     1
102
RTVSPropertyOp3
 70
     1
102
RTVSPropertyOp4
 70
     1
102
RTVSPropertyOp5
 70
     1
102
RTVSPropertyOp6
 70
     1
102
RTVSPropertyOp7
 70
     1
102
RTVSPropertyOp8
 70
     1
102
RTVSPropertyOp9
 70
     1
102
RTVSPropertyOp10
 70
     1
102
RTVSPropertyOp11
 70
     1
102
RTVSPropertyOp12
 70
     1
102
RTVSPropertyOp13
 70
     1
102
RTVSPropertyOp14
 70
     1
102
RTVSPropertyOp15
 70
     1
102
RTVSPropertyOp16
 70
     1
102
RTVSPropertyOp17
 70
     1
102
RTVSPropertyOp18
 70
     1
102
RTVSPropertyOp19
 70
     1
102
RTVSPropertyOp20
 70
     1
102
RTVSPropertyOp21
 70
     1
102
RTVSPropertyOp22
 70
     1
102
RTVSPropertyOp23
 70
     1
102
RTVSPropertyOp24
 70
     1
102
RTVSPropertyOp25
 70
     1
102
RTVSPropertyOp26
 70
     1
102
RTVSPropertyOp27
 70
     1
102
RTVSPropertyOp28
 70
     1
102
RTVSPropertyOp29
 70
     1
102
RTVSPropertyOp30
 70
     1
102
RTVSPropertyOp31
 70
     1
102
RTVSPropertyOp32
 70
     1
  0
XRECORD
  5
16B
102
{ACAD_REACTORS
330
16A
102
}
330
16A
100
AcDbXrecord
280
     1
102
RTVSPropertyOp0
 70
     1
102
RTVSPropertyOp1
 70
     1
102
RTVSPropertyOp2
 70
     1
102
RTVSPropertyOp3
 70
     1
102
RTVSPropertyOp4
 70
     1
102
RTVSPropertyOp5
 70
     1
102
RTVSPropertyOp6
 70
     1
102
RTVSPropertyOp7
 70
     1
102
RTVSPropertyOp8
 70
     1
102
RTVSPropertyOp9
 70
     1
102
RTVSPropertyOp10
 70
     1
102
RTVSPropertyOp11
 70
     1
102
RTVSPropertyOp12
 70
     1
102
RTVSPropertyOp13
 70
     1
102
RTVSPropertyOp14
 70
     1
102
RTVSPropertyOp15
 70
     1
102
RTVSPropertyOp16
 70
     1
102
RTVSPropertyOp17
 70
     1
102
RTVSPropertyOp18
 70
     1
102
RTVSPropertyOp19
 70
     1
102
RTVSPropertyOp20
 70
     1
102
RTVSPropertyOp21
 70
     1
102
RTVSPropertyOp22
 70
     1
102
RTVSPropertyOp23
 70
     1
102
RTVSPropertyOp24
 70
     1
102
RTVSPropertyOp25
 70
     1
102
RTVSPropertyOp26
 70
     1
102
RTVSPropertyOp27
 70
     1
102
RTVSPropertyOp28
 70
     1
102
RTVSPropertyOp29
 70
     1
102
RTVSPropertyOp30
 70
     1
102
RTVSPropertyOp31
 70
     1
102
RTVSPropertyOp32
 70
     1
  0
XRECORD
  5
16D
102
{ACAD_REACTORS
330
16C
102
}
330
16C
100
AcDbXrecord
280
     1
102
RTVSPropertyOp0
 70
     1
102
RTVSPropertyOp1
 70
     1
102
RTVSPropertyOp2
 70
     1
102
RTVSPropertyOp3
 70
     1
102
RTVSPropertyOp4
 70
     1
102
RTVSPropertyOp5
 70
     1
102
RTVSPropertyOp6
 70
     1
102
RTVSPropertyOp7
 70
     1
102
RTVSPropertyOp8
 70
     1
102
RTVSPropertyOp9
 70
     1
102
RTVSPropertyOp10
 70
     1
102
RTVSPropertyOp11
 70
     1
102
RTVSPropertyOp12
 70
     1
102
RTVSPropertyOp13
 70
     1
102
RTVSPropertyOp14
 70
     1
102
RTVSPropertyOp15
 70
     1
102
RTVSPropertyOp16
 70
     1
102
RTVSPropertyOp17
 70
     1
102
RTVSPropertyOp18
 70
     1
102
RTVSPropertyOp19
 70
     1
102
RTVSPropertyOp20
 70
     1
102
RTVSPropertyOp21
 70
     1
102
RTVSPropertyOp22
 70
     1
102
RTVSPropertyOp23
 70
     1
102
RTVSPropertyOp24
 70
     1
102
RTVSPropertyOp25
 70
     1
102
RTVSPropertyOp26
 70
     1
102
RTVSPropertyOp27
 70
     1
102
RTVSPropertyOp28
 70
     1
102
RTVSPropertyOp29
 70
     1
102
RTVSPropertyOp30
 70
     1
102
RTVSPropertyOp31
 70
     1
102
RTVSPropertyOp32
 70
     1
  0
XRECORD
  5
181
102
{ACAD_REACTORS
330
180
102
}
330
180
100
AcDbXrecord
280
     1
102
RTVSPropertyOp0
 70
     1
102
RTVSPropertyOp1
 70
     1
102
RTVSPropertyOp2
 70
     1
102
RTVSPropertyOp3
 70
     1
102
RTVSPropertyOp4
 70
     1
102
RTVSPropertyOp5
 70
     1
102
RTVSPropertyOp6
 70
     1
102
RTVSPropertyOp7
 70
     1
102
RTVSPropertyOp8
 70
     1
102
RTVSPropertyOp9
 70
     1
102
RTVSPropertyOp10
 70
     1
102
RTVSPropertyOp11
 70
     1
102
RTVSPropertyOp12
 70
     1
102
RTVSPropertyOp13
 70
     1
102
RTVSPropertyOp14
 70
     1
102
RTVSPropertyOp15
 70
     1
102
RTVSPropertyOp16
 70
     1
102
RTVSPropertyOp17
 70
     1
102
RTVSPropertyOp18
 70
     1
102
RTVSPropertyOp19
 70
     1
102
RTVSPropertyOp20
 70
     1
102
RTVSPropertyOp21
 70
     1
102
RTVSPropertyOp22
 70
     1
102
RTVSPropertyOp23
 70
     1
102
RTVSPropertyOp24
 70
     1
102
RTVSPropertyOp25
 70
     1
102
RTVSPropertyOp26
 70
     1
102
RTVSPropertyOp27
 70
     1
102
RTVSPropertyOp28
 70
     1
102
RTVSPropertyOp29
 70
     1
102
RTVSPropertyOp30
 70
     1
102
RTVSPropertyOp31
 70
     1
102
RTVSPropertyOp32
 70
     1
  0
XRECORD
  5
177
102
{ACAD_REACTORS
330
176
102
}
330
176
100
AcDbXrecord
280
     1
102
RTVSPropertyOp0
 70
     1
102
RTVSPropertyOp1
 70
     1
102
RTVSPropertyOp2
 70
     1
102
RTVSPropertyOp3
 70
     1
102
RTVSPropertyOp4
 70
     1
102
RTVSPropertyOp5
 70
     1
102
RTVSPropertyOp6
 70
     1
102
RTVSPropertyOp7
 70
     1
102
RTVSPropertyOp8
 70
     1
102
RTVSPropertyOp9
 70
     1
102
RTVSPropertyOp10
 70
     1
102
RTVSPropertyOp11
 70
     1
102
RTVSPropertyOp12
 70
     1
102
RTVSPropertyOp13
 70
     1
102
RTVSPropertyOp14
 70
     1
102
RTVSPropertyOp15
 70
     1
102
RTVSPropertyOp16
 70
     1
102
RTVSPropertyOp17
 70
     1
102
RTVSPropertyOp18
 70
     1
102
RTVSPropertyOp19
 70
     1
102
RTVSPropertyOp20
 70
     1
102
RTVSPropertyOp21
 70
     1
102
RTVSPropertyOp22
 70
     1
102
RTVSPropertyOp23
 70
     1
102
RTVSPropertyOp24
 70
     1
102
RTVSPropertyOp25
 70
     1
102
RTVSPropertyOp26
 70
     1
102
RTVSPropertyOp27
 70
     1
102
RTVSPropertyOp28
 70
     1
102
RTVSPropertyOp29
 70
     1
102
RTVSPropertyOp30
 70
     1
102
RTVSPropertyOp31
 70
     1
102
RTVSPropertyOp32
 70
     1
  0
XRECORD
  5
17F
102
{ACAD_REACTORS
330
17E
102
}
330
17E
100
AcDbXrecord
280
     1
102
RTVSPropertyOp0
 70
     1
102
RTVSPropertyOp1
 70
     1
102
RTVSPropertyOp2
 70
     1
102
RTVSPropertyOp3
 70
     1
102
RTVSPropertyOp4
 70
     1
102
RTVSPropertyOp5
 70
     1
102
RTVSPropertyOp6
 70
     1
102
RTVSPropertyOp7
 70
     1
102
RTVSPropertyOp8
 70
     1
102
RTVSPropertyOp9
 70
     1
102
RTVSPropertyOp10
 70
     1
102
RTVSPropertyOp11
 70
     1
102
RTVSPropertyOp12
 70
     1
102
RTVSPropertyOp13
 70
     1
102
RTVSPropertyOp14
 70
     1
102
RTVSPropertyOp15
 70
     1
102
RTVSPropertyOp16
 70
     1
102
RTVSPropertyOp17
 70
     1
102
RTVSPropertyOp18
 70
     1
102
RTVSPropertyOp19
 70
     1
102
RTVSPropertyOp20
 70
     1
102
RTVSPropertyOp21
 70
     1
102
RTVSPropertyOp22
 70
     1
102
RTVSPropertyOp23
 70
     1
102
RTVSPropertyOp24
 70
     1
102
RTVSPropertyOp25
 70
     1
102
RTVSPropertyOp26
 70
     1
102
RTVSPropertyOp27
 70
     1
102
RTVSPropertyOp28
 70
     1
102
RTVSPropertyOp29
 70
     1
102
RTVSPropertyOp30
 70
     1
102
RTVSPropertyOp31
 70
     1
102
RTVSPropertyOp32
 70
     1
  0
ENDSEC
  0
EOF
