  0
SECTION
  2
HEADER
  9
$ACADVER
  1
AC1024
  9
$ACADMAINTVER
 70
   155
  9
$DWGCODEPAGE
  3
ANSI_1252
  9
$LASTSAVEDBY
  1
Jason
  9
$INSBASE
 10
0.0
 20
0.0
 30
0.0
  9
$EXTMIN
 10
10253.25549066184
 20
481.6619614783885
 30
0.0
  9
$EXTMAX
 10
10626.39721774782
 20
1021.711577117184
 30
0.0
  9
$LIMMIN
 10
0.0
 20
0.0
  9
$LIMMAX
 10
12.0
 20
9.0
  9
$ORTHOMODE
 70
     0
  9
$REGENMODE
 70
     1
  9
$FILLMODE
 70
     1
  9
$QTEXTMODE
 70
     0
  9
$MIRRTEXT
 70
     1
  9
$LTSCALE
 40
5.0
  9
$ATTMODE
 70
     1
  9
$TEXTSIZE
 40
0.2
  9
$TRACEWID
 40
0.05
  9
$TEXTSTYLE
  7
Standard
  9
$CLAYER
  8
Specialized_Lines
  9
$CELTYPE
  6
PLASTER
  9
$CECOLOR
 62
   256
  9
$CELTSCALE
 40
3.0
  9
$DISPSILH
 70
     0
  9
$DIMSCALE
 40
1.0
  9
$DIMASZ
 40
0.18
  9
$DIMEXO
 40
0.0625
  9
$DIMDLI
 40
0.38
  9
$DIMRND
 40
0.0
  9
$DIMDLE
 40
0.0
  9
$DIMEXE
 40
0.18
  9
$DIMTP
 40
0.0
  9
$DIMTM
 40
0.0
  9
$DIMTXT
 40
0.18
  9
$DIMCEN
 40
0.09
  9
$DIMTSZ
 40
0.0
  9
$DIMTOL
 70
     0
  9
$DIMLIM
 70
     0
  9
$DIMTIH
 70
     1
  9
$DIMTOH
 70
     1
  9
$DIMSE1
 70
     0
  9
$DIMSE2
 70
     0
  9
$DIMTAD
 70
     0
  9
$DIMZIN
 70
     0
  9
$DIMBLK
  1

  9
$DIMASO
 70
     1
  9
$DIMSHO
 70
     1
  9
$DIMPOST
  1

  9
$DIMAPOST
  1

  9
$DIMALT
 70
     0
  9
$DIMALTD
 70
     2
  9
$DIMALTF
 40
25.4
  9
$DIMLFAC
 40
1.0
  9
$DIMTOFL
 70
     0
  9
$DIMTVP
 40
0.0
  9
$DIMTIX
 70
     0
  9
$DIMSOXD
 70
     0
  9
$DIMSAH
 70
     0
  9
$DIMBLK1
  1

  9
$DIMBLK2
  1

  9
$DIMSTYLE
  2
Standard
  9
$DIMCLRD
 70
     0
  9
$DIMCLRE
 70
     0
  9
$DIMCLRT
 70
     0
  9
$DIMTFAC
 40
1.0
  9
$DIMGAP
 40
0.09
  9
$DIMJUST
 70
     0
  9
$DIMSD1
 70
     0
  9
$DIMSD2
 70
     0
  9
$DIMTOLJ
 70
     1
  9
$DIMTZIN
 70
     0
  9
$DIMALTZ
 70
     0
  9
$DIMALTTZ
 70
     0
  9
$DIMUPT
 70
     0
  9
$DIMDEC
 70
     4
  9
$DIMTDEC
 70
     4
  9
$DIMALTU
 70
     2
  9
$DIMALTTD
 70
     2
  9
$DIMTXSTY
  7
Standard
  9
$DIMAUNIT
 70
     0
  9
$DIMADEC
 70
     0
  9
$DIMALTRND
 40
0.0
  9
$DIMAZIN
 70
     0
  9
$DIMDSEP
 70
    46
  9
$DIMATFIT
 70
     3
  9
$DIMFRAC
 70
     0
  9
$DIMLDRBLK
  1

  9
$DIMLUNIT
 70
     2
  9
$DIMLWD
 70
    -2
  9
$DIMLWE
 70
    -2
  9
$DIMTMOVE
 70
     0
  9
$DIMFXL
 40
1.0
  9
$DIMFXLON
 70
     0
  9
$DIMJOGANG
 40
0.7853981633974483
  9
$DIMTFILL
 70
     0
  9
$DIMTFILLCLR
 70
     0
  9
$DIMARCSYM
 70
     0
  9
$DIMLTYPE
  6

  9
$DIMLTEX1
  6

  9
$DIMLTEX2
  6

  9
$DIMTXTDIRECTION
 70
     0
  9
$LUNITS
 70
     2
  9
$LUPREC
 70
     4
  9
$SKETCHINC
 40
0.1
  9
$FILLETRAD
 40
0.5
  9
$AUNITS
 70
     0
  9
$AUPREC
 70
     0
  9
$MENU
  1
.
  9
$ELEVATION
 40
0.0
  9
$PELEVATION
 40
0.0
  9
$THICKNESS
 40
0.0
  9
$LIMCHECK
 70
     0
  9
$CHAMFERA
 40
0.5
  9
$CHAMFERB
 40
0.5
  9
$CHAMFERC
 40
1.0
  9
$CHAMFERD
 40
0.0
  9
$SKPOLY
 70
     0
  9
$TDCREATE
 40
2456216.552878171
  9
$TDUCREATE
 40
2456216.011211505
  9
$TDUPDATE
 40
2456636.589439282
  9
$TDUUPDATE
 40
2456636.047772616
  9
$TDINDWG
 40
0.0123477199
  9
$TDUSRTIMER
 40
0.0123477199
  9
$USRTIMER
 70
     1
  9
$ANGBASE
 50
0.0
  9
$ANGDIR
 70
     0
  9
$PDMODE
 70
     0
  9
$PDSIZE
 40
0.0
  9
$PLINEWID
 40
0.0
  9
$SPLFRAME
 70
     0
  9
$SPLINETYPE
 70
     6
  9
$SPLINESEGS
 70
     8
  9
$HANDSEED
  5
3EF
  9
$SURFTAB1
 70
     6
  9
$SURFTAB2
 70
     6
  9
$SURFTYPE
 70
     6
  9
$SURFU
 70
     6
  9
$SURFV
 70
     6
  9
$UCSBASE
  2

  9
$UCSNAME
  2

  9
$UCSORG
 10
0.0
 20
0.0
 30
0.0
  9
$UCSXDIR
 10
1.0
 20
0.0
 30
0.0
  9
$UCSYDIR
 10
0.0
 20
1.0
 30
0.0
  9
$UCSORTHOREF
  2

  9
$UCSORTHOVIEW
 70
     0
  9
$UCSORGTOP
 10
0.0
 20
0.0
 30
0.0
  9
$UCSORGBOTTOM
 10
0.0
 20
0.0
 30
0.0
  9
$UCSORGLEFT
 10
0.0
 20
0.0
 30
0.0
  9
$UCSORGRIGHT
 10
0.0
 20
0.0
 30
0.0
  9
$UCSORGFRONT
 10
0.0
 20
0.0
 30
0.0
  9
$UCSORGBACK
 10
0.0
 20
0.0
 30
0.0
  9
$PUCSBASE
  2

  9
$PUCSNAME
  2

  9
$PUCSORG
 10
0.0
 20
0.0
 30
0.0
  9
$PUCSXDIR
 10
1.0
 20
0.0
 30
0.0
  9
$PUCSYDIR
 10
0.0
 20
1.0
 30
0.0
  9
$PUCSORTHOREF
  2

  9
$PUCSORTHOVIEW
 70
     0
  9
$PUCSORGTOP
 10
0.0
 20
0.0
 30
0.0
  9
$PUCSORGBOTTOM
 10
0.0
 20
0.0
 30
0.0
  9
$PUCSORGLEFT
 10
0.0
 20
0.0
 30
0.0
  9
$PUCSORGRIGHT
 10
0.0
 20
0.0
 30
0.0
  9
$PUCSORGFRONT
 10
0.0
 20
0.0
 30
0.0
  9
$PUCSORGBACK
 10
0.0
 20
0.0
 30
0.0
  9
$USERI1
 70
     0
  9
$USERI2
 70
     0
  9
$USERI3
 70
     0
  9
$USERI4
 70
     0
  9
$USERI5
 70
     0
  9
$USERR1
 40
0.0
  9
$USERR2
 40
0.0
  9
$USERR3
 40
0.0
  9
$USERR4
 40
0.0
  9
$USERR5
 40
0.0
  9
$WORLDVIEW
 70
     1
  9
$SHADEDGE
 70
     3
  9
$SHADEDIF
 70
    70
  9
$TILEMODE
 70
     1
  9
$MAXACTVP
 70
    64
  9
$PINSBASE
 10
0.0
 20
0.0
 30
0.0
  9
$PLIMCHECK
 70
     0
  9
$PEXTMIN
 10
1.000000000000000E+20
 20
1.000000000000000E+20
 30
1.000000000000000E+20
  9
$PEXTMAX
 10
-1.000000000000000E+20
 20
-1.000000000000000E+20
 30
-1.000000000000000E+20
  9
$PLIMMIN
 10
0.0
 20
0.0
  9
$PLIMMAX
 10
12.0
 20
9.0
  9
$UNITMODE
 70
     0
  9
$VISRETAIN
 70
     1
  9
$PLINEGEN
 70
     0
  9
$PSLTSCALE
 70
     1
  9
$TREEDEPTH
 70
  3020
  9
$CMLSTYLE
  2
Standard
  9
$CMLJUST
 70
     0
  9
$CMLSCALE
 40
1.0
  9
$PROXYGRAPHICS
 70
     1
  9
$MEASUREMENT
 70
     0
  9
$CELWEIGHT
370
    -1
  9
$ENDCAPS
280
     0
  9
$JOINSTYLE
280
     0
  9
$LWDISPLAY
290
     1
  9
$INSUNITS
 70
     0
  9
$HYPERLINKBASE
  1

  9
$STYLESHEET
  1

  9
$XEDIT
290
     1
  9
$CEPSNTYPE
380
     0
  9
$PSTYLEMODE
290
     1
  9
$FINGERPRINTGUID
  2
{707569F1-D320-48DE-B111-F7749ED3FF9C}
  9
$VERSIONGUID
  2
{C246B827-1BAD-4A90-BD97-E95C4B8D974E}
  9
$EXTNAMES
290
     1
  9
$PSVPSCALE
 40
0.0
  9
$OLESTARTUP
290
     0
  9
$SORTENTS
280
   127
  9
$INDEXCTL
280
     0
  9
$HIDETEXT
280
     1
  9
$XCLIPFRAME
280
     0
  9
$HALOGAP
280
     0
  9
$OBSCOLOR
 70
   257
  9
$OBSLTYPE
280
     0
  9
$INTERSECTIONDISPLAY
280
     0
  9
$INTERSECTIONCOLOR
 70
   257
  9
$DIMASSOC
280
     2
  9
$PROJECTNAME
  1

  9
$CAMERADISPLAY
290
     0
  9
$LENSLENGTH
 40
50.0
  9
$CAMERAHEIGHT
 40
0.0
  9
$STEPSPERSEC
 40
2.0
  9
$STEPSIZE
 40
6.0
  9
$3DDWFPREC
 40
2.0
  9
$PSOLWIDTH
 40
0.25
  9
$PSOLHEIGHT
 40
4.0
  9
$LOFTANG1
 40
1.570796326794896
  9
$LOFTANG2
 40
1.570796326794896
  9
$LOFTMAG1
 40
0.0
  9
$LOFTMAG2
 40
0.0
  9
$LOFTPARAM
 70
     7
  9
$LOFTNORMALS
280
     1
  9
$LATITUDE
 40
37.795
  9
$LONGITUDE
 40
-122.394
  9
$NORTHDIRECTION
 40
0.0
  9
$TIMEZONE
 70
 -8000
  9
$LIGHTGLYPHDISPLAY
280
     1
  9
$TILEMODELIGHTSYNCH
280
     1
  9
$CMATERIAL
347
3C
  9
$SOLIDHIST
280
     1
  9
$SHOWHIST
280
     1
  9
$DWFFRAME
280
     2
  9
$DGNFRAME
280
     2
  9
$REALWORLDSCALE
290
     1
  9
$INTERFERECOLOR
 62
   256
  9
$INTERFEREOBJVS
345
33
  9
$INTERFEREVPVS
346
1A6
  9
$CSHADOW
280
     0
  9
$SHADOWPLANELOCATION
 40
0.0
  0
ENDSEC
  0
SECTION
  2
CLASSES
  0
CLASS
  1
ACDBDICTIONARYWDFLT
  2
AcDbDictionaryWithDefault
  3
ObjectDBX Classes
 90
        0
 91
        1
280
     0
281
     0
  0
CLASS
  1
VISUALSTYLE
  2
AcDbVisualStyle
  3
ObjectDBX Classes
 90
     4095
 91
       26
280
     0
281
     0
  0
CLASS
  1
MATERIAL
  2
AcDbMaterial
  3
ObjectDBX Classes
 90
     1153
 91
        3
280
     0
281
     0
  0
CLASS
  1
SCALE
  2
AcDbScale
  3
ObjectDBX Classes
 90
     1153
 91
       33
280
     0
281
     0
  0
CLASS
  1
DICTIONARYVAR
  2
AcDbDictionaryVar
  3
ObjectDBX Classes
 90
        0
 91
       17
280
     0
281
     0
  0
CLASS
  1
TABLESTYLE
  2
AcDbTableStyle
  3
ObjectDBX Classes
 90
     4095
 91
        1
280
     0
281
     0
  0
CLASS
  1
MLEADERSTYLE
  2
AcDbMLeaderStyle
  3
ACDB_MLEADERSTYLE_CLASS
 90
     4095
 91
        1
280
     0
281
     0
  0
CLASS
  1
ACDBSECTIONVIEWSTYLE
  2
AcDbSectionViewStyle
  3
ObjectDBX Classes
 90
     1025
 91
        1
280
     0
281
     0
  0
CLASS
  1
ACDBDETAILVIEWSTYLE
  2
AcDbDetailViewStyle
  3
ObjectDBX Classes
 90
     1025
 91
        1
280
     0
281
     0
  0
CLASS
  1
EXACXREFPANELOBJECT
  2
ExAcXREFPanelObject
  3
EXAC_ESW
 90
     1025
 91
        1
280
     0
281
     0
  0
CLASS
  1
NPOCOLLECTION
  2
AcDbImpNonPersistentObjectsCollection
  3
ObjectDBX Classes
 90
     1153
 91
        1
280
     0
281
     0
  0
CLASS
  1
IMAGE
  2
AcDbRasterImage
  3
ISM
 90
     2175
 91
        2
280
     0
281
     1
  0
CLASS
  1
IMAGEDEF_REACTOR
  2
AcDbRasterImageDefReactor
  3
ISM
 90
        1
 91
        2
280
     0
281
     0
  0
CLASS
  1
SORTENTSTABLE
  2
AcDbSortentsTable
  3
ObjectDBX Classes
 90
        0
 91
        2
280
     0
281
     0
  0
CLASS
  1
IMAGEDEF
  2
AcDbRasterImageDef
  3
ISM
 90
        0
 91
        2
280
     0
281
     0
  0
CLASS
  1
RASTERVARIABLES
  2
AcDbRasterVariables
  3
ISM
 90
        0
 91
        1
280
     0
281
     0
  0
CLASS
  1
ACAD_EVALUATION_GRAPH
  2
AcDbEvalGraph
  3
ObjectDBX Classes
 90
     1153
 91
        0
280
     0
281
     0
  0
CLASS
  1
ACAECUSTOBJ
  2
AcAeEditorObj
  3
AcAeEditorObj
 90
     1024
 91
        0
280
     0
281
     0
  0
CLASS
  1
ACDB_DYNAMICBLOCKPURGEPREVENTER_VERSION
  2
AcDbDynamicBlockPurgePreventer
  3
ObjectDBX Classes
 90
     1153
 91
        0
280
     0
281
     0
  0
CLASS
  1
CELLSTYLEMAP
  2
AcDbCellStyleMap
  3
ObjectDBX Classes
 90
     1152
 91
        2
280
     0
281
     0
  0
ENDSEC
  0
SECTION
  2
TABLES
  0
TABLE
  2
VPORT
  5
8
330
0
100
AcDbSymbolTable
 70
     1
  0
VPORT
  5
29
330
8
100
AcDbSymbolTableRecord
100
AcDbViewportTableRecord
  2
*Active
 70
     0
 10
0.0
 20
0.0
 11
1.0
 21
1.0
 12
10595.06918767928
 22
534.3731853689786
 13
0.0
 23
0.0
 14
0.5
 24
0.5
 15
0.5
 25
0.5
 16
0.0
 26
0.0
 36
1.0
 17
0.0
 27
0.0
 37
0.0
 40
1133.832694452696
 41
1.816348195329086
 42
50.0
 43
0.0
 44
0.0
 50
0.0
 51
0.0
 71
     0
 72
   100
 73
     1
 74
     3
 75
     0
 76
     0
 77
     0
 78
     0
281
     0
 65
     1
110
0.0
120
0.0
130
0.0
111
1.0
121
0.0
131
0.0
112
0.0
122
1.0
132
0.0
 79
     0
146
0.0
348
2F
 60
     3
 61
     5
292
     1
282
     1
141
0.0
142
0.0
 63
   250
1001
ACAD_NAV_VCDISPLAY
1070
     3
  0
ENDTAB
  0
TABLE
  2
LTYPE
  5
5
330
0
100
AcDbSymbolTable
 70
     7
  0
LTYPE
  5
14
330
5
100
AcDbSymbolTableRecord
100
AcDbLinetypeTableRecord
  2
ByBlock
 70
     0
  3

 72
    65
 73
     0
 40
0.0
  0
LTYPE
  5
15
330
5
100
AcDbSymbolTableRecord
100
AcDbLinetypeTableRecord
  2
ByLayer
 70
     0
  3

 72
    65
 73
     0
 40
0.0
  0
LTYPE
  5
16
330
5
100
AcDbSymbolTableRecord
100
AcDbLinetypeTableRecord
  2
Continuous
 70
     0
  3
Solid line
 72
    65
 73
     0
 40
0.0
  0
LTYPE
  5
14B
330
5
100
AcDbSymbolTableRecord
100
AcDbLinetypeTableRecord
  2
Hidden
 70
     0
  3
- - - - - 
 72
    65
 73
     2
 40
4.938889980316162
 49
2.822222709655761
 74
     0
 49
-2.1166672706604
 74
     0
  0
LTYPE
  5
158
330
5
100
AcDbSymbolTableRecord
100
AcDbLinetypeTableRecord
  2
Above
 70
     0
  3
- - - - - 
 72
    65
 73
     2
 40
9.599999999999999
 49
6.0
 74
     0
 49
-3.6
 74
     0
  0
LTYPE
  5
15D
330
5
100
AcDbSymbolTableRecord
100
AcDbLinetypeTableRecord
  2
Sketch
 70
     0
  3
??????????
 72
    65
 73
     3
 40
40.0
 49
0.0
 74
     4
 75
     1
340
15E
 46
0.3174603174603174
 50
0.0
 44
0.0
 45
0.0
 49
-40.0
 74
     0
 49
0.0
 74
     0
  0
LTYPE
  5
1C0
330
5
100
AcDbSymbolTableRecord
100
AcDbLinetypeTableRecord
  2
ZIGZAG
 70
     0
  3
Zig zag /\/\/\/\/\/\/\/\/\/\/\/\/\/\/\/\/\/\/\/
 72
    65
 73
     4
 40
0.8001000000000001
 49
0.0001
 74
     0
 49
-0.2
 74
     4
 75
   131
340
1C5
 46
0.2
 50
0.0
 44
-0.2
 45
0.0
 49
-0.4
 74
     4
 75
   131
340
1C5
 46
0.2
 50
180.0
 44
0.2
 45
0.0
 49
-0.2
 74
     0
  0
LTYPE
  5
1C1
330
5
100
AcDbSymbolTableRecord
100
AcDbLinetypeTableRecord
  2
DASHEDX2
 70
     0
  3
Dashed (2x) ____  ____  ____  ____  ____  ___
 72
    65
 73
     2
 40
1.5
 49
1.0
 74
     0
 49
-0.5
 74
     0
  0
LTYPE
  5
28C
330
5
100
AcDbSymbolTableRecord
100
AcDbLinetypeTableRecord
  2
PLASTER
 70
     0
  3
PLASTER
 72
    65
 73
     2
 40
2.379214999999999
 49
0.000024
 74
     4
 75
     1
340
28D
 46
0.2
 50
0.0
 44
0.0
 45
0.0
 49
-2.379191
 74
     0
  0
ENDTAB
  0
TABLE
  2
LAYER
  5
2
102
{ACAD_XDICTIONARY
360
1CC
102
}
330
0
100
AcDbSymbolTable
 70
     5
  0
LAYER
  5
10
102
{ACAD_XDICTIONARY
360
205
102
}
330
2
100
AcDbSymbolTableRecord
100
AcDbLayerTableRecord
  2
0
 70
     0
 62
     7
  6
Continuous
370
    -3
390
F
347
3E
  0
LAYER
  5
40
102
{ACAD_XDICTIONARY
360
207
102
}
330
2
100
AcDbSymbolTableRecord
100
AcDbLayerTableRecord
  2
Specialized_Fills
 70
     0
 62
     7
  6
Continuous
370
    -3
390
F
347
3E
  0
LAYER
  5
142
102
{ACAD_XDICTIONARY
360
209
102
}
330
2
100
AcDbSymbolTableRecord
100
AcDbLayerTableRecord
  2
Specialized_Lines
 70
     0
 62
     7
  6
Continuous
370
    -3
390
F
347
3E
  0
LAYER
  5
165
102
{ACAD_XDICTIONARY
360
20B
102
}
330
2
100
AcDbSymbolTableRecord
100
AcDbLayerTableRecord
  2
Specialized_Text
 70
     0
 62
     7
  6
Continuous
370
    -3
390
F
347
3E
  0
LAYER
  5
1C2
102
{ACAD_XDICTIONARY
360
1C3
102
}
330
2
100
AcDbSymbolTableRecord
100
AcDbLayerTableRecord
  2
Viewport
 70
     0
 62
     7
  6
Continuous
370
    -3
390
F
347
3E
1001
AcAecLayerStandard
1000

1000

1001
AcCmTransparency
1071
        0
  0
ENDTAB
  0
TABLE
  2
STYLE
  5
3
330
0
100
AcDbSymbolTable
 70
     6
  0
STYLE
  5
11
330
3
100
AcDbSymbolTableRecord
100
AcDbTextStyleTableRecord
  2
Standard
 70
     0
 40
0.0
 41
1.0
 50
0.0
 71
     0
 42
0.2
  3
txt
  4
BIGFONT.SHX
  0
STYLE
  5
15E
330
3
100
AcDbSymbolTableRecord
100
AcDbTextStyleTableRecord
  2

 70
     1
 40
0.2
 41
1.0
 50
0.0
 71
     0
 42
0.2
  3
16D Wall _ Roof_ Raking Soffit (Hidden Flashing)1.Shx
  4

  0
STYLE
  5
163
330
3
100
AcDbSymbolTableRecord
100
AcDbTextStyleTableRecord
  2
GENERATED_STYLE_1
 70
     0
 40
0.0
 41
1.0
 50
0.0
 71
     0
 42
0.2
  3
ARIALUNI.TTF
  4

1001
ACAD
1000
Arial Unicode MS
1071
       34
  0
STYLE
  5
1C4
330
3
100
AcDbSymbolTableRecord
100
AcDbTextStyleTableRecord
  2
GENERATED_STYLE_2
 70
     0
 40
0.0
 41
1.0
 50
0.0
 71
     0
 42
0.2
  3
ARIALUNI.TTF
  4

1001
ACAD
1000
Arial Unicode MS
1071
       34
  0
STYLE
  5
1C5
330
3
100
AcDbSymbolTableRecord
100
AcDbTextStyleTableRecord
  2

 70
     1
 40
0.0
 41
1.0
 50
0.0
 71
     0
 42
0.2
  3
ltypeshp.shx
  4

  0
STYLE
  5
28D
330
3
100
AcDbSymbolTableRecord
100
AcDbTextStyleTableRecord
  2

 70
     1
 40
0.0
 41
1.0
 50
0.0
 71
     0
 42
0.2
  3
P:\VERT-X CONSULTING LTD\2013\10 OCT\1310-015- SPECIALIZED CONSTRUCTION PRODUCTS - CONTRACT DRAUGHTING\DRAWINGS\PLASTER.SHX
  4

  0
ENDTAB
  0
TABLE
  2
VIEW
  5
6
330
0
100
AcDbSymbolTable
 70
     0
  0
ENDTAB
  0
TABLE
  2
UCS
  5
7
330
0
100
AcDbSymbolTable
 70
     0
  0
ENDTAB
  0
TABLE
  2
APPID
  5
9
330
0
100
AcDbSymbolTable
 70
    12
  0
APPID
  5
12
330
9
100
AcDbSymbolTableRecord
100
AcDbRegAppTableRecord
  2
ACAD
 70
     0
  0
APPID
  5
1C6
330
9
100
AcDbSymbolTableRecord
100
AcDbRegAppTableRecord
  2
ACAD_PSEXT
 70
     0
  0
APPID
  5
1C7
330
9
100
AcDbSymbolTableRecord
100
AcDbRegAppTableRecord
  2
ACAD_NAV_VCDISPLAY
 70
     0
  0
APPID
  5
1C8
330
9
100
AcDbSymbolTableRecord
100
AcDbRegAppTableRecord
  2
AcAecLayerStandard
 70
     0
  0
APPID
  5
1C9
330
9
100
AcDbSymbolTableRecord
100
AcDbRegAppTableRecord
  2
AcCmTransparency
 70
     0
  0
APPID
  5
1CA
330
9
100
AcDbSymbolTableRecord
100
AcDbRegAppTableRecord
  2
GradientColor1ACI
 70
     0
  0
APPID
  5
1CB
330
9
100
AcDbSymbolTableRecord
100
AcDbRegAppTableRecord
  2
GradientColor2ACI
 70
     0
  0
APPID
  5
1F8
330
9
100
AcDbSymbolTableRecord
100
AcDbRegAppTableRecord
  2
ACAD_EXEMPT_FROM_CAD_STANDARDS
 70
     0
  0
APPID
  5
228
330
9
100
AcDbSymbolTableRecord
100
AcDbRegAppTableRecord
  2
ACAUTHENVIRON
 70
     0
  0
APPID
  5
237
330
9
100
AcDbSymbolTableRecord
100
AcDbRegAppTableRecord
  2
AcDbDynamicBlockTrueName
 70
     0
  0
APPID
  5
238
330
9
100
AcDbSymbolTableRecord
100
AcDbRegAppTableRecord
  2
AcDbDynamicBlockGUID
 70
     0
  0
APPID
  5
3EE
330
9
100
AcDbSymbolTableRecord
100
AcDbRegAppTableRecord
  2
ACAD_OBJECT_CHANGE_GUID
 70
     0
  0
ENDTAB
  0
TABLE
  2
DIMSTYLE
  5
A
330
0
100
AcDbSymbolTable
 70
     2
100
AcDbDimStyleTable
 71
     1
340
27
  0
DIMSTYLE
105
27
330
A
100
AcDbSymbolTableRecord
100
AcDbDimStyleTableRecord
  2
Standard
 70
     0
340
11
  0
DIMSTYLE
105
167
330
A
100
AcDbSymbolTableRecord
100
AcDbDimStyleTableRecord
  2
GENERATED_STYLE__1
 70
     0
 41
7.295999999999999
172
     1
341
168
  0
ENDTAB
  0
TABLE
  2
BLOCK_RECORD
  5
1
330
0
100
AcDbSymbolTable
 70
     5
  0
BLOCK_RECORD
  5
1F
330
1
100
AcDbSymbolTableRecord
100
AcDbBlockTableRecord
  2
*Model_Space
340
22
 70
     0
280
     1
281
     0
  0
BLOCK_RECORD
  5
1B
330
1
100
AcDbSymbolTableRecord
100
AcDbBlockTableRecord
  2
*Paper_Space
340
1E
 70
     0
280
     1
281
     0
  0
BLOCK_RECORD
  5
23
330
1
100
AcDbSymbolTableRecord
100
AcDbBlockTableRecord
  2
*Paper_Space0
340
26
 70
     0
280
     1
281
     0
  0
BLOCK_RECORD
  5
4A
102
{ACAD_XDICTIONARY
360
229
102
}
330
1
100
AcDbSymbolTableRecord
100
AcDbBlockTableRecord
  2
Fill_1
340
0
102
{BLKREFS
331
140
102
}
 70
     0
280
     1
281
     0
1001
AcDbDynamicBlockGUID
1000
{4964E823-9902-484D-9A38-765C40EEDF2D}
  0
BLOCK_RECORD
  5
168
330
1
100
AcDbSymbolTableRecord
100
AcDbBlockTableRecord
  2
ARROWHEAD_5
340
0
 70
     0
280
     1
281
     0
  0
BLOCK_RECORD
  5
17B
330
1
100
AcDbSymbolTableRecord
100
AcDbBlockTableRecord
  2
16D Wall _ Roof_ Raking Soffit _STORY_MARKER
340
0
 70
     0
280
     1
281
     0
  0
BLOCK_RECORD
  5
30F
102
{ACAD_XDICTIONARY
360
313
102
}
330
1
100
AcDbSymbolTableRecord
100
AcDbBlockTableRecord
  2
A$C742834FE
340
0
 70
     0
280
     1
281
     0
  0
ENDTAB
  0
ENDSEC
  0
SECTION
  2
BLOCKS
  0
BLOCK
  5
20
330
1F
100
AcDbEntity
  8
0
100
AcDbBlockBegin
  2
*Model_Space
 70
     0
 10
0.0
 20
0.0
 30
0.0
  3
*Model_Space
  1

  0
ENDBLK
  5
21
330
1F
100
AcDbEntity
  8
0
100
AcDbBlockEnd
  0
BLOCK
  5
1C
330
1B
100
AcDbEntity
 67
     1
  8
0
100
AcDbBlockBegin
  2
*Paper_Space
 70
     0
 10
0.0
 20
0.0
 30
0.0
  3
*Paper_Space
  1

  0
ENDBLK
  5
1D
330
1B
100
AcDbEntity
 67
     1
  8
0
100
AcDbBlockEnd
  0
BLOCK
  5
24
330
23
100
AcDbEntity
 67
     1
  8
0
100
AcDbBlockBegin
  2
*Paper_Space0
 70
     0
 10
0.0
 20
0.0
 30
0.0
  3
*Paper_Space0
  1

  0
ENDBLK
  5
25
330
23
100
AcDbEntity
 67
     1
  8
0
100
AcDbBlockEnd
  0
BLOCK
  5
4B
330
4A
100
AcDbEntity
  8
0
100
AcDbBlockBegin
  2
Fill_1
 70
     0
 10
0.0
 20
0.0
 30
0.0
  3
Fill_1
  1

  0
LINE
  5
224
102
{ACAD_REACTORS
330
236
102
}
330
4A
100
AcDbEntity
  8
Specialized_Fills
  6
Continuous
100
AcDbLine
 10
10437.61317646381
 20
585.7961468137012
 30
0.0
 11
10437.61317646381
 21
722.8515417499168
 31
0.0
  0
LINE
  5
225
102
{ACAD_REACTORS
330
236
102
}
330
4A
100
AcDbEntity
  8
Specialized_Fills
  6
Continuous
100
AcDbLine
 10
10437.61317646381
 20
722.8515417499168
 30
0.0
 11
10387.61317646382
 21
710.4668400175214
 31
0.0
  0
LINE
  5
226
102
{ACAD_REACTORS
330
236
102
}
330
4A
100
AcDbEntity
  8
Specialized_Fills
  6
Continuous
100
AcDbLine
 10
10387.61317646382
 20
710.4668400175214
 30
0.0
 11
10387.61317646382
 21
585.7961468137012
 31
0.0
  0
LINE
  5
227
102
{ACAD_REACTORS
330
236
102
}
330
4A
100
AcDbEntity
  8
Specialized_Fills
  6
Continuous
100
AcDbLine
 10
10387.61317646382
 20
585.7961468137012
 30
0.0
 11
10437.61317646381
 21
585.7961468137012
 31
0.0
  0
HATCH
  5
236
330
4A
100
AcDbEntity
  8
0
 62
   251
420
  6250335
100
AcDbHatch
 10
0.0
 20
0.0
 30
0.0
210
0.0
220
0.0
230
1.0
  2
HPCRC1E0
 70
     0
 71
     1
 91
        1
 92
        7
 72
     0
 73
     1
 93
        4
 10
10437.61317646381
 20
722.8515417499168
 10
10387.61317646382
 20
710.4668400175214
 10
10387.61317646382
 20
585.7961468137012
 10
10437.61317646381
 20
585.7961468137012
 97
        4
330
225
330
226
330
227
330
224
 75
     1
 76
     2
 52
0.0
 41
0.12
 77
     0
 78
    78
 53
82.8749847
 43
0.0
 44
4.2
 45
-0.0000004961129005
 46
8.399999852931037
 79
     2
 49
0.9674709324
 49
-66.75549316799998
 53
75.96376039999999
 43
0.12
 44
5.16
 45
-0.000000348785556
 46
8.399999709154096
 79
     2
 49
0.4947726600000001
 49
-34.139315184
 53
63.43495179999999
 43
0.24
 44
5.639999999999999
 45
-0.0000000286036308
 46
8.400000041591663
 79
     2
 49
1.073312639999999
 49
-17.70965881199999
 53
45.0
 43
0.72
 44
6.599999999999999
 45
0.0000000000000009
 46
8.400000002875099
 79
     2
 49
1.527350688
 49
-10.352043456
 53
33.6900673
 43
1.799999999999999
 44
7.679999999999999
 45
0.0000001596020127
 46
8.399999824188462
 79
     2
 49
0.4326661440000001
 49
-29.85396423600001
 53
33.6900673
 43
10.2
 44
7.679999999999999
 45
0.0000001596020127
 46
8.399999824188462
 79
     2
 49
0.4326661440000001
 49
-29.85396423600001
 53
33.6900673
 43
18.6
 44
7.679999999999999
 45
0.0000001596020127
 46
8.399999824188462
 79
     2
 49
0.4326661440000001
 49
-29.85396423600001
 53
26.5650501
 43
2.16
 44
7.919999999999999
 45
-0.0000000460215162
 46
8.400000143556356
 79
     2
 49
0.26832816
 49
-18.514643556
 53
26.5650501
 43
10.56
 44
7.919999999999999
 45
-0.0000000460215162
 46
8.400000143556356
 79
     2
 49
0.26832816
 49
-18.514643556
 53
18.434948
 43
2.399999999999999
 44
8.039999999999999
 45
0.0000002686412607
 46
8.399999851558131
 79
     2
 49
0.3794733239999999
 49
-26.183659056
 53
18.434948
 43
10.8
 44
8.039999999999999
 45
0.0000002686412607
 46
8.399999851558131
 79
     2
 49
0.3794733239999999
 49
-26.183659056
 53
18.434948
 43
19.2
 44
8.039999999999999
 45
0.0000002686412607
 46
8.399999851558131
 79
     2
 49
0.3794733239999999
 49
-26.183659056
 53
26.5650501
 43
2.759999999999999
 44
8.16
 45
-0.0000000460215162
 46
8.400000143556356
 79
     2
 49
0.26832816
 49
-18.514643556
 53
26.5650501
 43
11.16
 44
8.16
 45
-0.0000000460215162
 46
8.400000143556356
 79
     2
 49
0.26832816
 49
-18.514643556
 53
11.3099327
 43
3.0
 44
8.279999999999999
 45
-0.0000000543109101
 46
8.400000069389928
 79
     2
 49
0.6118823435999998
 49
-42.21988036799999
 53
11.3099327
 43
11.4
 44
8.279999999999999
 45
-0.0000000543109101
 46
8.400000069389928
 79
     2
 49
0.6118823435999998
 49
-42.21988036799999
 53
11.3099327
 43
19.8
 44
8.279999999999999
 45
-0.0000000543109101
 46
8.400000069389928
 79
     2
 49
0.6118823435999998
 49
-42.21988036799999
 53
11.3099327
 43
28.2
 44
8.279999999999999
 45
-0.0000000543109101
 46
8.400000069389928
 79
     2
 49
0.6118823435999998
 49
-42.21988036799999
 53
11.3099327
 43
36.6
 44
8.279999999999999
 45
-0.0000000543109101
 46
8.400000069389928
 79
     2
 49
0.6118823435999998
 49
-42.21988036799999
 53
0.0
 43
3.599999999999999
 44
8.4
 45
0.0
 46
8.4
 79
     2
 49
1.199999999999999
 49
-7.199999999999999
 53
348.6900673
 43
4.799999999999999
 44
8.4
 45
0.0000000543109101
 46
8.400000069389928
 79
     2
 49
0.6118823435999998
 49
-42.21988036799999
 53
348.6900673
 43
13.2
 44
8.4
 45
0.0000000543109101
 46
8.400000069389928
 79
     2
 49
0.6118823435999998
 49
-42.21988036799999
 53
348.6900673
 43
21.6
 44
8.4
 45
0.0000000543109101
 46
8.400000069389928
 79
     2
 49
0.6118823435999998
 49
-42.21988036799999
 53
348.6900673
 43
30.0
 44
8.4
 45
0.0000000543109101
 46
8.400000069389928
 79
     2
 49
0.6118823435999998
 49
-42.21988036799999
 53
348.6900673
 43
38.4
 44
8.4
 45
0.0000000543109101
 46
8.400000069389928
 79
     2
 49
0.6118823435999998
 49
-42.21988036799999
 53
333.4349499
 43
5.399999999999999
 44
8.279999999999999
 45
0.0000000460215162
 46
8.400000143556356
 79
     2
 49
0.2683281599999999
 49
-18.514643556
 53
333.4349499
 43
13.8
 44
8.279999999999999
 45
0.0000000460215162
 46
8.400000143556356
 79
     2
 49
0.2683281599999999
 49
-18.514643556
 53
341.565052
 43
5.639999999999999
 44
8.16
 45
-0.0000002686412607
 46
8.399999851558131
 79
     2
 49
0.379473324
 49
-26.183659056
 53
341.565052
 43
14.04
 44
8.16
 45
-0.0000002686412607
 46
8.399999851558131
 79
     2
 49
0.379473324
 49
-26.183659056
 53
341.565052
 43
22.44
 44
8.16
 45
-0.0000002686412607
 46
8.399999851558131
 79
     2
 49
0.379473324
 49
-26.183659056
 53
333.4349499
 43
6.0
 44
8.039999999999999
 45
0.0000000460215162
 46
8.400000143556356
 79
     2
 49
0.2683281599999999
 49
-18.514643556
 53
333.4349499
 43
14.4
 44
8.039999999999999
 45
0.0000000460215162
 46
8.400000143556356
 79
     2
 49
0.2683281599999999
 49
-18.514643556
 53
326.3099327
 43
6.24
 44
7.919999999999999
 45
-0.0000001596020127
 46
8.399999824188462
 79
     2
 49
0.4326661440000001
 49
-29.85396423600001
 53
326.3099327
 43
14.64
 44
7.919999999999999
 45
-0.0000001596020127
 46
8.399999824188462
 79
     2
 49
0.4326661440000001
 49
-29.85396423600001
 53
326.3099327
 43
23.04
 44
7.919999999999999
 45
-0.0000001596020127
 46
8.399999824188462
 79
     2
 49
0.4326661440000001
 49
-29.85396423600001
 53
315.0
 43
6.599999999999999
 44
7.679999999999999
 45
-0.0000000000000009
 46
8.400000002875099
 79
     2
 49
1.527350688
 49
-10.352043456
 53
296.5650482
 43
7.679999999999999
 44
6.599999999999999
 45
0.0000000286036308
 46
8.400000041591663
 79
     2
 49
1.073312639999999
 49
-17.70965881199999
 53
284.0362396
 43
8.16
 44
5.639999999999999
 45
0.000000348785556
 46
8.399999709154096
 79
     2
 49
0.4947726600000001
 49
-34.139315184
 53
277.1250153
 43
8.279999999999999
 44
5.16
 45
0.0000004961129005
 46
8.399999852931037
 79
     2
 49
0.9674709324
 49
-66.75549316799998
 53
277.1250153
 43
0.0
 44
4.2
 45
0.0000004961129005
 46
8.399999852931037
 79
     2
 49
0.9674709324
 49
-66.75549316799998
 53
284.0362396
 43
0.12
 44
3.239999999999999
 45
0.000000348785556
 46
8.399999709154096
 79
     2
 49
0.4947726600000001
 49
-34.139315184
 53
296.5650482
 43
0.24
 44
2.759999999999999
 45
0.0000000286036308
 46
8.400000041591663
 79
     2
 49
1.073312639999999
 49
-17.70965881199999
 53
315.0
 43
0.72
 44
1.799999999999999
 45
-0.0000000000000009
 46
8.400000002875099
 79
     2
 49
1.527350688
 49
-10.352043456
 53
326.3099327
 43
1.799999999999999
 44
0.72
 45
-0.0000001596020127
 46
8.399999824188462
 79
     2
 49
0.4326661440000001
 49
-29.85396423600001
 53
326.3099327
 43
10.2
 44
0.72
 45
-0.0000001596020127
 46
8.399999824188462
 79
     2
 49
0.4326661440000001
 49
-29.85396423600001
 53
326.3099327
 43
18.6
 44
0.72
 45
-0.0000001596020127
 46
8.399999824188462
 79
     2
 49
0.4326661440000001
 49
-29.85396423600001
 53
333.4349499
 43
2.16
 44
0.48
 45
0.0000000460215162
 46
8.400000143556356
 79
     2
 49
0.2683281599999999
 49
-18.514643556
 53
333.4349499
 43
10.56
 44
0.48
 45
0.0000000460215162
 46
8.400000143556356
 79
     2
 49
0.2683281599999999
 49
-18.514643556
 53
341.565052
 43
2.399999999999999
 44
0.36
 45
-0.0000002686412607
 46
8.399999851558131
 79
     2
 49
0.379473324
 49
-26.183659056
 53
341.565052
 43
10.8
 44
0.36
 45
-0.0000002686412607
 46
8.399999851558131
 79
     2
 49
0.379473324
 49
-26.183659056
 53
341.565052
 43
19.2
 44
0.36
 45
-0.0000002686412607
 46
8.399999851558131
 79
     2
 49
0.379473324
 49
-26.183659056
 53
333.4349499
 43
2.759999999999999
 44
0.24
 45
0.0000000460215162
 46
8.400000143556356
 79
     2
 49
0.2683281599999999
 49
-18.514643556
 53
333.4349499
 43
11.16
 44
0.24
 45
0.0000000460215162
 46
8.400000143556356
 79
     2
 49
0.2683281599999999
 49
-18.514643556
 53
348.6900673
 43
3.0
 44
0.12
 45
0.0000000543109101
 46
8.400000069389928
 79
     2
 49
0.6118823435999998
 49
-42.21988036799999
 53
348.6900673
 43
11.4
 44
0.12
 45
0.0000000543109101
 46
8.400000069389928
 79
     2
 49
0.6118823435999998
 49
-42.21988036799999
 53
348.6900673
 43
19.8
 44
0.12
 45
0.0000000543109101
 46
8.400000069389928
 79
     2
 49
0.6118823435999998
 49
-42.21988036799999
 53
348.6900673
 43
28.2
 44
0.12
 45
0.0000000543109101
 46
8.400000069389928
 79
     2
 49
0.6118823435999998
 49
-42.21988036799999
 53
348.6900673
 43
36.6
 44
0.12
 45
0.0000000543109101
 46
8.400000069389928
 79
     2
 49
0.6118823435999998
 49
-42.21988036799999
 53
0.0
 43
3.599999999999999
 44
0.0
 45
0.0
 46
8.4
 79
     2
 49
1.199999999999999
 49
-7.199999999999999
 53
11.3099327
 43
4.799999999999999
 44
0.0
 45
-0.0000000543109101
 46
8.400000069389928
 79
     2
 49
0.6118823435999998
 49
-42.21988036799999
 53
11.3099327
 43
13.2
 44
0.0
 45
-0.0000000543109101
 46
8.400000069389928
 79
     2
 49
0.6118823435999998
 49
-42.21988036799999
 53
11.3099327
 43
21.6
 44
0.0
 45
-0.0000000543109101
 46
8.400000069389928
 79
     2
 49
0.6118823435999998
 49
-42.21988036799999
 53
11.3099327
 43
30.0
 44
0.0
 45
-0.0000000543109101
 46
8.400000069389928
 79
     2
 49
0.6118823435999998
 49
-42.21988036799999
 53
11.3099327
 43
38.4
 44
0.0
 45
-0.0000000543109101
 46
8.400000069389928
 79
     2
 49
0.6118823435999998
 49
-42.21988036799999
 53
26.5650501
 43
5.399999999999999
 44
0.12
 45
-0.0000000460215162
 46
8.400000143556356
 79
     2
 49
0.26832816
 49
-18.514643556
 53
26.5650501
 43
13.8
 44
0.12
 45
-0.0000000460215162
 46
8.400000143556356
 79
     2
 49
0.26832816
 49
-18.514643556
 53
18.434948
 43
5.639999999999999
 44
0.24
 45
0.0000002686412607
 46
8.399999851558131
 79
     2
 49
0.3794733239999999
 49
-26.183659056
 53
18.434948
 43
14.04
 44
0.24
 45
0.0000002686412607
 46
8.399999851558131
 79
     2
 49
0.3794733239999999
 49
-26.183659056
 53
18.434948
 43
22.44
 44
0.24
 45
0.0000002686412607
 46
8.399999851558131
 79
     2
 49
0.3794733239999999
 49
-26.183659056
 53
26.5650501
 43
6.0
 44
0.36
 45
-0.0000000460215162
 46
8.400000143556356
 79
     2
 49
0.26832816
 49
-18.514643556
 53
26.5650501
 43
14.4
 44
0.36
 45
-0.0000000460215162
 46
8.400000143556356
 79
     2
 49
0.26832816
 49
-18.514643556
 53
33.6900673
 43
6.24
 44
0.48
 45
0.0000001596020127
 46
8.399999824188462
 79
     2
 49
0.4326661440000001
 49
-29.85396423600001
 53
33.6900673
 43
14.64
 44
0.48
 45
0.0000001596020127
 46
8.399999824188462
 79
     2
 49
0.4326661440000001
 49
-29.85396423600001
 53
33.6900673
 43
23.04
 44
0.48
 45
0.0000001596020127
 46
8.399999824188462
 79
     2
 49
0.4326661440000001
 49
-29.85396423600001
 53
45.0
 43
6.599999999999999
 44
0.72
 45
0.0000000000000009
 46
8.400000002875099
 79
     2
 49
1.527350688
 49
-10.352043456
 53
63.43495179999999
 43
7.679999999999999
 44
1.799999999999999
 45
-0.0000000286036308
 46
8.400000041591663
 79
     2
 49
1.073312639999999
 49
-17.70965881199999
 53
75.96376039999999
 43
8.16
 44
2.759999999999999
 45
-0.000000348785556
 46
8.399999709154096
 79
     2
 49
0.4947726600000001
 49
-34.139315184
 53
82.8749847
 43
8.279999999999999
 44
3.239999999999999
 45
-0.0000004961129005
 46
8.399999852931037
 79
     2
 49
0.9674709324
 49
-66.75549316799998
 47
0.2042143620872026
 98
        1
 10
10403.69960374087
 20
684.853083798723
1001
GradientColor1ACI
1070
     5
1001
GradientColor2ACI
1070
     2
1001
ACAD
1010
0.0
1020
0.0
1030
0.0
  0
ENDBLK
  5
4C
330
4A
100
AcDbEntity
  8
0
100
AcDbBlockEnd
  0
BLOCK
  5
169
330
168
100
AcDbEntity
  8
0
100
AcDbBlockBegin
  2
ARROWHEAD_5
 70
     0
 10
0.0
 20
0.0
 30
0.0
  3
ARROWHEAD_5
  1

  0
SOLID
  5
16B
330
168
100
AcDbEntity
  8
0
  6
Continuous
 62
     0
370
     0
100
AcDbTrace
 10
-1.0
 20
0.2679
 30
0.0
 11
0.0
 21
0.0
 31
0.0
 12
-1.0
 22
-0.2679
 32
0.0
 13
-1.0
 23
0.2679
 33
0.0
  0
LINE
  5
16C
330
168
100
AcDbEntity
  8
0
  6
Continuous
 62
     0
370
     0
100
AcDbLine
 10
0.0
 20
0.0
 30
0.0
 11
-1.0
 21
0.0
 31
0.0
  0
ENDBLK
  5
16A
330
168
100
AcDbEntity
  8
0
100
AcDbBlockEnd
  0
BLOCK
  5
17C
330
17B
100
AcDbEntity
  8
0
100
AcDbBlockBegin
  2
16D Wall _ Roof_ Raking Soffit _STORY_MARKER
 70
     0
 10
0.0
 20
0.0
 30
0.0
  3
16D Wall _ Roof_ Raking Soffit _STORY_MARKER
  1

  0
ENDBLK
  5
17D
330
17B
100
AcDbEntity
  8
0
100
AcDbBlockEnd
  0
BLOCK
  5
315
330
30F
100
AcDbEntity
  8
0
 48
3.0
100
AcDbBlockBegin
  2
A$C742834FE
 70
     0
 10
0.0
 20
0.0
 30
0.0
  3
A$C742834FE
  1

  0
REGION
  5
310
330
30F
100
AcDbEntity
  8
Specialized_Lines
100
AcDbModelerGeometry
 70
     1
  1
mnjoo mlm m mk         
  1
ni ^ *+0;:,4 ^ *+0\^ [ nf ^ LR mnfqoqoqjioo QK o  
  1
mjqlffffffffffffff fqfffffffffffffffj:rooh n:rono 
  1
>,27:>;:- {rn rn _nm mnfqoqoqjioo |
  1
=0;& {rn rn {rn {m {rn {rn |
  1
3*2/ {rn rn {rn {rn {l {n |
  1
,7:33 {rn rn {rn {rn {rn {k {rn {m |
  1
9><: {rn rn {rn {rn {j {l {rn {i 90-(>-; ;0*=3: 0*+ |
  1
300/ {rn rn {rn {rn {h {k |
  1
/3>1:r,*-9><: {rn rn {rn noqoonkkjnfgmlmklm klqghnnjlgfnkmolil o o o n rn o o -:):-,:@) V V V V |
  1
<0:;8: {rn rn {rn {g {f {rn {no -:):-,:; {j {rn |
  1
<0:;8: {rn rn {rn {nn {h {rn {nm -:):-,:; {j {rn |
  1
<0:;8: {rn rn {rn {h {nl {rn {nk -:):-,:; {j {rn |
  1
:;8: {rn rn {rn {nj roqhgjlfgnillffggiff {ni rmqkkhkklkjfoogniif:roog {h {nh 90-(>-; _h *1410(1 |
  1
<0:;8: {rn rn {rn {ng {g {rn {nf -:):-,:; {j {rn |
  1
:;8: {rn rn {rn {mo o {nj nqlfikkiigikkljhil {g {mn 90-(>-; _h *1410(1 |
  1
<0:;8: {rn rn {rn {f {mm {rn {ml -:):-,:; {j {rn |
  1
:;8: {rn rn {rn {ni o {mk oqjmjnmimiolmmookgm {f {mj 90-(>-; _h *1410(1 |
  1
):-+:' {rn rn {rn {no m {mi |
  1
):-+:' {rn rn {rn {no m {mh |
  1
:336/,:r<*-): {rn rn {rn mmqjlmiholngojgogn kmqmhlglkjjggjknoj o ro ro rn rmqoooooooooooooglf o o n V V |
  1
<0:;8: {rn rn {rn {mg {nn {rn {mf -:):-,:; {j {rn |
  1
:;8: {rn rn {rn {lo rlqnknjfmihgohlhjik {mo roqhgjlfgnillffggill {nn {ln 90-(>-; _h *1410(1 |
  1
):-+:' {rn rn {rn {nf m {lm |
  1
,+->687+r<*-): {rn rn {rn mmqnojgflihhmkoion lfqghmngkohkflolhk o roqhohnoihgnnggmhngi oqhohnoihgnngkgmlmf o V V |
  1
<0:;8: {rn rn {rn {nl {ll {rn {lk -:):-,:; {j {rn |
  1
:;8: {rn rn {rn {mk o {lj nqjooooomoohhohfhn {nl {li 90-(>-; _h *1410(1 |
  1
):-+:' {rn rn {rn {nk m {lh |
  1
,+->687+r<*-): {rn rn {rn moqjlmiholngojgogn kmqmhlglkjoffojjjj o rmqkkhkkllffljnignn:roog oqfffffffffffffffhg o V V |
  1
/061+ {rn rn {rn mnqnngkjihjjigglgj koqgjfimoffikhhjgg o |
  1
/061+ {rn rn {rn moqjlmiholngojgogn kmqmhlglkjoffojjjj o |
  1
<0:;8: {rn rn {rn {lg {ng {rn {lf -:):-,:; {j {rn |
  1
:;8: {rn rn {rn {ko jqklijlnhijfkjonmk:romk {lo mqhjoooookmgkifljl {ng {kn 90-(>-; _h *1410(1 |
  1
):-+:' {rn rn {rn {mf m {km |
  1
:336/,:r<*-): {rn rn {rn mmqmgmiholhmjlignl koqokgfiohhommhkfj o ro ro rn roqmjooooooooooooooi o o n V V |
  1
/061+ {rn rn {rn mmqnojgflihhmkoion lfqghmngkohkflolhk o |
  1
<0:;8: {rn rn {rn {mm {kl {rn {kk -:):-,:; {j {rn |
  1
:;8: {rn rn {rn {lj rnqjhohfilmihfkgfin {kj nqjfghmnnjjkiommjk:ronk {mm {ki 90-(>-; _h *1410(1 |
  1
):-+:' {rn rn {rn {ml m {kh |
  1
,+->687+r<*-): {rn rn {rn moqjlmiholojmojnom kmqhfgfiohhommhkfj o rn mqfiojfkllioiikfkn:roni o V V |
  1
/061+ {rn rn {rn moqjlmiholojmojnom kmqhfgfiohhommhkfj o |
  1
<0:;8: {rn rn {rn {kg {mg {rn {kf -:):-,:; {j {rn |
  1
:;8: {rn rn {rn {jo nqjhohfilmihfkgfii {ko lqnknjfmimfnojgloh {mg {jn 90-(>-; _h *1410(1 |
  1
):-+:' {rn rn {rn {lf m {jm |
  1
,+->687+r<*-): {rn rn {rn mmqjlmiholojmojnom kmqhfgfiognfnfjjff o mqkkglfimkljmfhgnf:roog roqfffffffffffffffji o V V |
  1
/061+ {rn rn {rn mmqjlmiholhmjlignl koqokgfiohhilkglfj o |
  1
<0:;8: {rn rn {rn {ll {jl {rn {jk -:):-,:; {j {rn |
  1
:;8: {rn rn {rn {kj o {jj jqiklmhnlmfjinnklm {ll {ji 90-(>-; _h *1410(1 |
  1
):-+:' {rn rn {rn {lk m {jh |
  1
:336/,:r<*-): {rn rn {rn nfqolmihonokklknki kiqmfgfiohhommhkfj o ro ro rn rlqkffffffffffffffi o o n V V |
  1
/061+ {rn rn {rn nfqolmihonokklknki kmqhfgfiohhommhkfj o |
  1
<0:;8: {rn rn {rn {jg {lg {rn {jf -:):-,:; {j {rn |
  1
:;8: {rn rn {rn {io o {jo nqjooooomoohhohfjj {lg {in 90-(>-; _h *1410(1 |
  1
):-+:' {rn rn {rn {kf m {im |
  1
:336/,:r<*-): {rn rn {rn moqjlmiholojmojnom kmqhfgfiohhommhkfj o ro ro rn rnqfffffffffffffffg o o n V V |
  1
/061+ {rn rn {rn mmqjlmiholojmojnom kmqhfgfiognfnfjjff o |
  1
<0:;8: {rn rn {rn {kl {il {rn {ik -:):-,:; {j {rn |
  1
:;8: {rn rn {rn {jj rlqnknjfmijljgfgn {ij rnqhkjlmfmjnffkkhli {kl {ii 90-(>-; _h *1410(1 |
  1
):-+:' {rn rn {rn {kk m {ih |
  1
,+->687+r<*-): {rn rn {rn njqjlmihonokklknki kiqmfgfiohhommhkfj o nqimnoghififjniok:ronk n o V V |
  1
/061+ {rn rn {rn njqjlmihonokklknki kiqmfgfiohhommhkfj o |
  1
<0:;8: {rn rn {rn {ig {kg {rn {if -:):-,:; {j {rn |
  1
:;8: {rn rn {rn {ho o {io nqjhohfilmihfkgfii {kg {hn 90-(>-; _h *1410(1 |
  1
):-+:' {rn rn {rn {jf m {hm |
  1
,+->687+r<*-): {rn rn {rn nfqolmihonokklknki kkqhfgfiohhommhkfj o n o o V V |
  1
/061+ {rn rn {rn moqjlmiholojmojnom kkqhfgfiohhommhkfj o |
  1
<0:;8: {rn rn {rn {jl {hl {rn {hk -:):-,:; {j {rn |
  1
:;8: {rn rn {rn {ij o {hj kqoinhoimojnklfmgj {jl {hi 90-(>-; _h *1410(1 |
  1
):-+:' {rn rn {rn {jk m {hh |
  1
:336/,:r<*-): {rn rn {rn nmqjlmihonokklknki jnqfkmmlmoffhgghmj o o o n rlqooooooooooooofnf o o n V V |
  1
/061+ {rn rn {rn njqjlmihonokkljoji jnqfkmmlmoffhgghmj o |
  1
<0:;8: {rn rn {rn {hg {jg {rn {hf -:):-,:; {j {rn |
  1
:;8: {rn rn {rn {go o {ho kqmoooooooooooooom {jg {gn 90-(>-; _h *1410(1 |
  1
):-+:' {rn rn {rn {if m {gm |
  1
:336/,:r<*-): {rn rn {rn nfqolmihonokklknki kjqmfgfiohhommhkfj o o o n roqkfffffffffffffffk o o n V V |
  1
/061+ {rn rn {rn nfqolmihonokklknki kkqhfgfiohhommhkfj o |
  1
<0:;8: {rn rn {rn {il {gl {rn {gk -:):-,:; {j {rn |
  1
:;8: {rn rn {rn {hj rnqhkjlmfmjnffkkhlm {gj rjqlmfohojngmoofkoh:ronj {il {gi 90-(>-; _h *1410(1 |
  1
):-+:' {rn rn {rn {ik m {gh |
  1
,+->687+r<*-): {rn rn {rn nlqojlinkilhklinnm jkqgfiijjljggmjmmg o roqfgkgohhjlonmnglnj oqnhlikgnhhiihohnii o V V |
  1
/061+ {rn rn {rn nlqojlinkilhklinnm jkqgfiijjljggmjmmg o |
  1
<0:;8: {rn rn {rn {gg {ig {rn {gf -:):-,:; {j {rn |
  1
:;8: {rn rn {rn {fo o {go oqjijigjkmkfkfmlgmk {ig {fn 90-(>-; _h *1410(1 |
  1
):-+:' {rn rn {rn {hf m {fm |
  1
,+->687+r<*-): {rn rn {rn ngqjlmihonokklknki kfqkfgfiohhommhlnl o o rn o V V |
  1
/061+ {rn rn {rn ngqjlmihonokklknki kjqmfgfiohhommhkfj o |
  1
<0:;8: {rn rn {rn {hl {fl {rn {fk -:):-,:; {j {rn |
  1
:;8: {rn rn {rn {gj o {fj nhqmkgjhfonjmjghni {hl {fi 90-(>-; _h *1410(1 |
  1
):-+:' {rn rn {rn {hk m {fh |
  1
:336/,:r<*-): {rn rn {rn gqjlmiholklnjnolfi jmqikhjlffgojlnmfm o o o n rmqffffffffffffgflk o o n V V |
  1
/061+ {rn rn {rn fqojlinkghinjloojg jjqionfilmlfjihhfj o |
  1
<0:;8: {rn rn {rn {fg {hg {rn {ff -:):-,:; {j {rn |
  1
:;8: {rn rn {rn {noo o {fo oqjijigjkmkfkfmlgmk {hg {non 90-(>-; _h *1410(1 |
  1
):-+:' {rn rn {rn {gf m {nom |
  1
,+->687+r<*-): {rn rn {rn ngqnlmihonokklkjn kfqgfgfiohhommhkok o oqhohnoihgnngijkhmk roqhohnoihgnngijkgom o V V |
  1
/061+ {rn rn {rn ngqjlmihonokklknki kfqkfgfiohhommhlnl o |
  1
<0:;8: {rn rn {rn {gl {nol {rn {nok -:):-,:; {j {rn |
  1
:;8: {rn rn {rn {fj o {noj oqjijigjkmkfkfmlgki {gl {noi 90-(>-; _h *1410(1 |
  1
):-+:' {rn rn {rn {gk m {noh |
  1
,+->687+r<*-): {rn rn {rn jqjlmiholklnjnolfi jmqikhjlffgojlnmfm o riqnhfnknkfhlhfjlgk:ronj rn o V V |
  1
/061+ {rn rn {rn jqjlmiholklnjnolfi jmqikhjlffgojlnmfm o |
  1
<0:;8: {rn rn {rn {nog {gg {rn {nof -:):-,:; {j {rn |
  1
:;8: {rn rn {rn {nno o {noo hqlgigjgnjghhiilik {gg {nnn 90-(>-; _h *1410(1 |
  1
):-+:' {rn rn {rn {ff m {nnm |
  1
,+->687+r<*-): {rn rn {rn ngqjlmihonokklknki joqmfgfiohhommhkfj o roqhohnoihgnngijkhmk roqhohnoihgnngijkgom o V V |
  1
/061+ {rn rn {rn ngqnlmihonokklkjn kfqgfgfiohhommhkok o |
  1
<0:;8: {rn rn {rn {fl {nnl {rn {nnk -:):-,:; {j {rn |
  1
:;8: {rn rn {rn {noj o {nnj oqjijigjkmkfkfmlhf {fl {nni 90-(>-; _h *1410(1 |
  1
):-+:' {rn rn {rn {fk m {nnh |
  1
,+->687+r<*-): {rn rn {rn jqjlmiholklnjnolfi ljqlfgfiofijmhmili o roqhohnoihgnngijkhlj roqhohnoihgnngijkhlj o V V |
  1
/061+ {rn rn {rn jqjlmiholklnjnolfi ljqlfgfiofijmhmili o |
  1
<0:;8: {rn rn {rn {nng {fg {rn {nnf -:):-,:; {j {rn |
  1
:;8: {rn rn {rn {nmo roqjmljfghhjjfgnlgnh {nno rlqlnjgiinoomnkohng:ronk {fg {nmn 90-(>-; _h *1410(1 |
  1
):-+:' {rn rn {rn {nof m {nmm |
  1
,+->687+r<*-): {rn rn {rn ngqjlmihonokkljoji jhqigjgngfmfooknff o rlqlmkjhogkfjghhhfj:ronk rn o V V |
  1
/061+ {rn rn {rn ngqjlmihonokklknki joqmfgfiohhommhkfj o |
  1
<0:;8: {rn rn {rn {nol {nml {rn {nmk -:):-,:; {j {rn |
  1
:;8: {rn rn {rn {nnj o {nmj lnqinnlghmnmkhkgkm {nol {nmi 90-(>-; _h *1410(1 |
  1
):-+:' {rn rn {rn {nok m {nmh |
  1
,+->687+r<*-): {rn rn {rn jqnlmiholklnjnkolk lkqffgfiofijmhmjkj o oqhohnoihgnngijkglj roqhohnoihgnngijkiig o V V |
  1
/061+ {rn rn {rn jqnlmiholklnjnkolk lkqffgfiofijmhmjkj o |
  1
<0:;8: {rn rn {rn {nmg {nog {rn {nmf -:):-,:; {j {rn |
  1
:;8: {rn rn {rn {nlo rmqmmokkiokfmjmnklm:roni {nmo iqlfmlojnjmgimkloi {nog {nln 90-(>-; _h *1410(1 |
  1
):-+:' {rn rn {rn {nnf m {nlm |
  1
:336/,:r<*-): {rn rn {rn mnqjlmihonokklknki jhqigjgngfmfooknff o o o n rmqffffffffffffhjkk o o n V V |
  1
/061+ {rn rn {rn ngqjlmihonokkljoji jhqigjgngfmfooknff o |
  1
<0:;8: {rn rn {rn {nnl {nll {rn {nlk -:):-,:; {j {rn |
  1
:;8: {rn rn {rn {nmj rlqnknjfmijljgfhggh {nlj rnqiinglnnokglmlllg {nnl {nli 90-(>-; _h *1410(1 |
  1
):-+:' {rn rn {rn {nnk m {nlh |
  1
,+->687+r<*-): {rn rn {rn jqjlmiholklnjnolfi lkqjfgfiofijmhmkjk o rlqmjfmmhlnjjkikhkl:ronj rn o V V |
  1
/061+ {rn rn {rn jqjlmiholklnjnolfi lkqjfgfiofijmhmkjk o |
  1
<0:;8: {rn rn {rn {nlg {nng {rn {nlf -:):-,:; {j {rn |
  1
:;8: {rn rn {rn {nko rlqnknjfmiklimloifh {nlo rmqinhfflghhffnonhf {nng {nkn 90-(>-; _h *1410(1 |
  1
):-+:' {rn rn {rn {nmf m {nkm |
  1
,+->687+r<*-): {rn rn {rn mmqnlohkikifjnkilk ikqhmnhnhjgonmmfnl o roqjoooooooooooknm roqgiiomjkolhgkmooji o V V |
  1
/061+ {rn rn {rn ngqflkjflgflognfn jfqngjgngfmfoolmf o |
  1
<0:;8: {rn rn {rn {nml {nkl {rn {nkk -:):-,:; {j {rn |
  1
:;8: {rn rn {rn {nlj rnqiinglnnokglmllhl {nkj o {nml {nki 90-(>-; _h *1410(1 |
  1
):-+:' {rn rn {rn {nmk m {nkh |
  1
:336/,:r<*-): {rn rn {rn mqjlmiholklnjnolfi mqfghjhlhjmhfhhklj o ro ro rn rmqffffffffffffgfin o o n V V |
  1
/061+ {rn rn {rn jqjlmiholklnjnolfi mqfghjhlhjmhfhhklj o |
  1
<0:;8: {rn rn {rn {nkg {nmg {rn {nkf -:):-,:; {j {rn |
  1
:;8: {rn rn {rn {njo o {nko gqjmhmklknmjjihmlk {nmg {njn 90-(>-; _h *1410(1 |
  1
):-+:' {rn rn {rn {nlf m {njm |
  1
:336/,:r<*-): {rn rn {rn nfqjlmihomjgnimlfg iiqmmnhnhjgonmkmhh o ro ro rn rlqooooooooooooogjl o o n V V |
  1
/061+ {rn rn {rn mmqnlohkikifjnkilk ikqhmnhnhjgonmmfnl o |
  1
<0:;8: {rn rn {rn {nll {njl {rn {njk -:):-,:; {j {rn |
  1
:;8: {rn rn {rn {nkj o {njj ikqkfikkiiofkoihlm {nll {nji 90-(>-; _h *1410(1 |
  1
):-+:' {rn rn {rn {nlk m {njh |
  1
:336/,:r<*-): {rn rn {rn mqhgmiholklnjnolfi oqmkgfiofijmhmjkkgj o ro ro rn roqmjooooooooooofkok o o n V V |
  1
/061+ {rn rn {rn mqgojlfhinjghgfhlh rlqglljflglhoklhlin:rooi o |
  1
<0:;8: {rn rn {rn {njg {nlg {rn {njf -:):-,:; {j {rn |
  1
:;8: {rn rn {rn {nio nqjhohfilmihfkgfl {njo lqnknjfmiiljjijnfm {nlg {nin 90-(>-; _h *1410(1 |
  1
):-+:' {rn rn {rn {nkf m {nim |
  1
,+->687+r<*-): {rn rn {rn mmqjlmiholklnjnok hkqhkgfiofimhgofgk o rfqfiihmkhnnhjmfkif:roof roqfffffffffffffffji o V V |
  1
/061+ {rn rn {rn mmqjlmihomjgnimlfg iiqmmnhnhjjommkngk o |
  1
<0:;8: {rn rn {rn {nkl {nil {rn {nik -:):-,:; {j {rn |
  1
:;8: {rn rn {rn {njj o {nij mqljinfkkfonfmlgkg {nkl {nii 90-(>-; _h *1410(1 |
  1
):-+:' {rn rn {rn {nkk m {nih |
  1
,+->687+r<*-): {rn rn {rn mqjlmiholklnjnolfi oqmkgfiofijmhmjkkgj o nqjkmlkgmhmklgofog:ronj n o V V |
  1
/061+ {rn rn {rn mqjlmiholklnjnolfi oqmkgfiofijmhmjkkgj o |
  1
<0:;8: {rn rn {rn {nig {nkg {rn {nif -:):-,:; {j {rn |
  1
:;8: {rn rn {rn {nho o {nio fqnkikkiiofkohiiln {nkg {nhn 90-(>-; _h *1410(1 |
  1
):-+:' {rn rn {rn {njf m {nhm |
  1
:336/,:r<*-): {rn rn {rn mmqmgmiholklnjnok hkqhkgfiofijmhmjkj o ro ro rn roqmkffffffffffffffh o o n V V |
  1
/061+ {rn rn {rn mmqjlmiholklnjnok hkqhkgfiofimhgofgk o |
  1
<0:;8: {rn rn {rn {njl {nhl {rn {nhk -:):-,:; {j {rn |
  1
:;8: {rn rn {rn {nij o {nhj nqlfikkiiofkoihjji {njl {nhi 90-(>-; _h *1410(1 |
  1
):-+:' {rn rn {rn {njk m {nhh |
  1
:336/,:r<*-): {rn rn {rn mqhgmiholklnjnolfi ikqhkjkohjhkihfnm o ro ro rn roqmkffffffffffffllh o o n V V |
  1
/061+ {rn rn {rn mqjlmiholklnjnolfi ikqhkjkohjhkihfnm o |
  1
<0:;8: {rn rn {rn {nhg {njg {rn {nhf -:):-,:; {j {rn |
  1
:;8: {rn rn {rn {ngo roqhgjlfgnillfhkogof {nho nqjhohfilmihfkgfl {njg {ngn 90-(>-; _h *1410(1 |
  1
):-+:' {rn rn {rn {nif m {ngm |
  1
,+->687+r<*-): {rn rn {rn nlqnlimmlhllhklkik hkqffgfiofijmhmjkj o n lqnohkokjogkjlijlf:ronj o V V |
  1
/061+ {rn rn {rn mmqmgmiholklnjnok hkqffgfiofijmhmjkj o |
  1
<0:;8: {rn rn {rn {nil {ngl {rn {ngk -:):-,:; {j {rn |
  1
:;8: {rn rn {rn {nhj mqljinfkkfonfmlhgi {ngj lqnknjfmijljgfhiij {nil {ngi 90-(>-; _h *1410(1 |
  1
):-+:' {rn rn {rn {nik m {ngh |
  1
,+->687+r<*-): {rn rn {rn mqfjfkkholgkkgnin ikqfmmngkmiffhjhgh o oqhohnoihgnngijmkh roqhohnoihgnngijhokk o V V |
  1
/061+ {rn rn {rn mqfjfkkholgkkgnin ikqfmmngkmiffhjhgh o |
  1
<0:;8: {rn rn {rn {ngg {nig {rn {ngf -:):-,:; {j {rn |
  1
:;8: {rn rn {rn {nfo o {ngo lqjljjllfojflmhlif {nig {nfn 90-(>-; _h *1410(1 |
  1
):-+:' {rn rn {rn {nhf m {nfm |
  1
:336/,:r<*-): {rn rn {rn nlqnlimmlhllhklkik hkqhkgfiofijmhmjkj o ro ro rn roqmkfffffffffffhmkf o o n V V |
  1
/061+ {rn rn {rn nlqnlimmlhllhklkik hkqffgfiofijmhmjkj o |
  1
<0:;8: {rn rn {rn {nhl {nfl {rn {nfk -:):-,:; {j {rn |
  1
:;8: {rn rn {rn {ngj o {nfj lqohjnmimijgkgnogf {nhl {nfi 90-(>-; _h *1410(1 |
  1
):-+:' {rn rn {rn {nhk m {nfh |
  1
:336/,:r<*-): {rn rn {rn mqjlmiholklnjnolfi imqjmojllgkojmimkn o ro ro rn rnqfffffffffffffngj o o n V V |
  1
/061+ {rn rn {rn lqfkigglfojjmklhlk ilqflkhkhkomgffnm o |
  1
<0:;8: {rn rn {rn {nfg {nhg {rn {nff -:):-,:; {j {rn |
  1
:;8: {rn rn {rn {moo rnqjhohfilmihfjonhk {nfo roqhgjlfgnillfhkojij {nhg {mon 90-(>-; _h *1410(1 |
  1
):-+:' {rn rn {rn {ngf m {mom |
  1
,+->687+r<*-): {rn rn {rn njqkjfkkholgkkhmjm hmqohmngkmiffhjghg o roqhohnoihgnngijmook oqhohnoihgnngijhkii o V V |
  1
/061+ {rn rn {rn nmqfjfkkholgkkhmjm hkqjhmngkmiffhjghg o |
  1
<0:;8: {rn rn {rn {ngl {mol {rn {mok -:):-,:; {j {rn |
  1
:;8: {rn rn {rn {nfj o {moj gqnnhgjmgkooknfnkl {ngl {moi 90-(>-; _h *1410(1 |
  1
):-+:' {rn rn {rn {ngk m {moh |
  1
,+->687+r<*-): {rn rn {rn kqjlmiholklnjnolfi imqjmojllgkojmimkn o mqijhmojngioogokin:ronk rn o V V |
  1
/061+ {rn rn {rn kqjlmiholklnjnolfi imqjmojllgkojmimkn o |
  1
<0:;8: {rn rn {rn {mog {ngg {rn {mof -:):-,:; {j {rn |
  1
:;8: {rn rn {rn {mno o {moo oqgfikkiiofkohmhmmg {ngg {mnn 90-(>-; _h *1410(1 |
  1
):-+:' {rn rn {rn {nff m {mnm |
  1
:336/,:r<*-): {rn rn {rn njqilimmlhllhklkik hmqmkgfiofijmhmjkj o ro ro rn roqmjoooooooooonogl o o n V V |
  1
/061+ {rn rn {rn njqkjfkkholgkkhmjm hmqohmngkmiffhjghg o |
  1
<0:;8: {rn rn {rn {nfl {mnl {rn {mnk -:):-,:; {j {rn |
  1
:;8: {rn rn {rn {moj nqlfimilkonjfjkikh {mnj mqinhfflghhffnkijj {nfl {mni 90-(>-; _h *1410(1 |
  1
):-+:' {rn rn {rn {nfk m {mnh |
  1
,+->687+r<*-): {rn rn {rn kqjlmiholklnjnolfi jfqkkjkohjhkihgkgk o oqfgkgohhjlonmmogki roqnhlikgnhhiiifmglf o V V |
  1
/061+ {rn rn {rn kqjlmiholklnjnolfi jfqkkjkohjhkihgkgk o |
  1
<0:;8: {rn rn {rn {mnl {nfg {rn {mng -:):-,:; {j {rn |
  1
:;8: {rn rn {rn {mnf rlqnknjfmijljgfhim {mno rnqjhohfilmihfkhhim {nfg {mmo 90-(>-; _h *1410(1 |
  1
):-+:' {rn rn {rn {mof m {mmn |
  1
,+->687+r<*-): {rn rn {rn niqjlmiholklnjnok hnqffgfiofijmhmjkj o rn rnqnggflmokgkkojmlg:ronl o V V |
  1
/061+ {rn rn {rn njqilimmlhllhklkik hnqffgfiofijmhmjkj o |
  1
<0:;8: {rn rn {rn {mol {mog {rn {mmm -:):-,:; {j {rn |
  1
:;8: {rn rn {rn {mnj kqkkogfmofgjoogkh:roni {mml iqfifoimnokimhogii {mol {mmk 90-(>-; _h *1410(1 |
  1
):-+:' {rn rn {rn {mok m {mmj |
  1
:336/,:r<*-): {rn rn {rn nlqokgnlfmfoglhhjl ioqffongokgnkhljkk o o o n rlqooooooooooooofj o o n V V |
  1
/061+ {rn rn {rn nmqjmhnfkhjhgliifi jgqoljhjhmmmklijgh o |
  1
:;8: {rn rn {rn {mmi o {mnf nqfhllfjiioikoihik {mog {mmh 90-(>-; _h *1410(1 |
  1
):-+:' {rn rn {rn {mng m {mmg |
  1
:336/,:r<*-): {rn rn {rn niqjlmiholklnjnok igqffgfiofijmhmjkj o o o n rmqfffffffffffffffi o o n V V |
  1
/061+ {rn rn {rn niqjlmiholklnjnok hnqffgfiofijmhmjkj o |
  1
:;8: {rn rn {rn {mml mqinhfflghhffnkiik {mmi lqnknjfmijljgfgmmk {mnl {mmf 90-(>-; _h *1410(1 |
  1
):-+:' {rn rn {rn {mnk m {mlo |
  1
,+->687+r<*-): {rn rn {rn njqikimnjjomnfogfg jfqkfongokgnkhlogf o oqjoooooooooooomkgh oqgiiomjkolhgkkmklf o V V |
  1
/061+ {rn rn {rn njqikimnjjomnfogfg jfqkfongokgnkhlogf o |
  1
):-+:' {rn rn {rn {mmm m {mln |
  1
,+->687+r<*-): {rn rn {rn nfqjlmiholklnjnok ihqomjjijlokilnfgm o rlqoiojngnjgglifink:ronk n o V V |
  1
/061+ {rn rn {rn nfqjlmiholklnjnok igqffgfiofijmhmjkj o |
  1
:336/,:r<*-): {rn rn {rn niqjlmiholklnjnok ihqomjjijlokilnfgm o o o n rlqoooooooooooooi o o n V V |
  1
/061+ {rn rn {rn nfqnlohkijjkjojofj ijqjmjjijlokilnjmh o |
  1
/061+ {rn rn {rn nfqjlmiholklnjnok ihqomjjijlokilnfgm o |
1001
ACAD_OBJECT_CHANGE_GUID
1070
     1
1071
-662377991
1070
 26752
1070
 20297
1070
   157
1070
    50
1070
    59
1070
   168
1070
    68
1070
   156
1070
    79
1070
   252
  0
LWPOLYLINE
  5
311
330
30F
100
AcDbEntity
  8
Specialized_Lines
100
AcDbPolyline
 90
        4
 70
     1
 43
0.0
 10
25.00056231225972
 20
74.99896096527255
 10
-0.0000054874217312
 20
74.99896096527255
 10
-0.0000054874217312
 20
85.94934049979929
 10
25.00056231225972
 20
85.94934049979929
  0
LINE
  5
312
330
30F
100
AcDbEntity
  8
Specialized_Lines
100
AcDbLine
 10
-0.0000054874217312
 20
74.99896096527255
 30
0.0
 11
25.00056231225972
 21
85.94934049979929
 31
0.0
  0
ENDBLK
  5
316
330
30F
100
AcDbEntity
  8
0
 48
3.0
100
AcDbBlockEnd
  0
ENDSEC
  0
SECTION
  2
ENTITIES
  0
HATCH
  5
3F
330
1F
100
AcDbEntity
  8
Specialized_Fills
  6
Continuous
100
AcDbHatch
 10
0.0
 20
0.0
 30
0.0
210
0.0
220
0.0
230
1.0
  2
LINES___VERTICAL
 70
     0
 71
     1
 91
        1
 92
        2
 72
     0
 73
     1
 93
        4
 10
10562.53191857739
 20
750.5892998280327
 10
10444.99473437678
 20
719.0953062408523
 10
10443.70063915126
 20
724.2959548715688
 10
10562.70210059031
 20
755.8112808630185
 97
        1
330
41
 75
     0
 76
     2
 52
0.0
 41
1.0
 77
     0
 78
     1
 53
104.9999999999994
 43
10503.20136987078
 44
737.4532935519352
 45
1.931851652578142
 46
0.5176380902050203
 79
     0
 98
        0
  0
LWPOLYLINE
  5
41
102
{ACAD_REACTORS
330
3F
102
}
330
1F
100
AcDbEntity
  8
Specialized_Fills
  6
Continuous
100
AcDbPolyline
 90
        4
 70
   129
 43
0.0
 10
10562.53191857739
 20
750.5892998280327
 10
10444.99473437678
 20
719.0953062408523
 10
10443.70063915126
 20
724.2959548715688
 10
10562.70210059031
 20
755.8112808630185
  0
HATCH
  5
42
330
1F
100
AcDbEntity
  8
Specialized_Fills
  6
Continuous
 62
   254
420
 14671839
370
    13
100
AcDbHatch
 10
0.0
 20
0.0
 30
0.0
210
0.0
220
0.0
230
1.0
  2
SOLID
 70
     1
 71
     1
 91
        1
 92
        2
 72
     0
 73
     1
 93
        4
 10
10387.05212980998
 20
711.8339828744473
 10
10474.29157911599
 20
733.9536231243263
 10
10465.68949679659
 20
767.8800756322181
 10
10378.45004749058
 20
745.760435382345
 97
        1
330
43
 75
     0
 76
     1
 98
        0
450
        0
451
        0
460
0.0
461
0.0
452
        1
462
0.0
453
        0
470

  0
LWPOLYLINE
  5
43
102
{ACAD_REACTORS
330
42
102
}
330
1F
100
AcDbEntity
  8
Specialized_Fills
  6
Continuous
100
AcDbPolyline
 90
        4
 70
   129
 43
0.0
 10
10387.05212980998
 20
711.8339828744473
 10
10474.29157911599
 20
733.9536231243263
 10
10465.68949679659
 20
767.8800756322181
 10
10378.45004749058
 20
745.760435382345
  0
HATCH
  5
44
330
1F
100
AcDbEntity
  8
Specialized_Fills
  6
Continuous
100
AcDbHatch
 10
0.0
 20
0.0
 30
0.0
210
0.0
220
0.0
230
1.0
  2
LINES___ANGLED
 70
     0
 71
     1
 91
        1
 92
        2
 72
     0
 73
     1
 93
        4
 10
10386.7481111864
 20
707.4867495924806
 10
10367.74811118639
 20
707.4867495924806
 10
10367.74811118639
 20
657.4867495924692
 10
10386.7481111864
 20
657.4867495924692
 97
        1
330
45
 75
     0
 76
     2
 52
0.0
 41
1.0
 77
     0
 78
     1
 53
44.99999999999999
 43
0.0
 44
0.0
 45
-1.838477563650065
 46
1.838477563650065
 79
     0
 98
        0
  0
LWPOLYLINE
  5
45
102
{ACAD_REACTORS
330
44
102
}
330
1F
100
AcDbEntity
  8
Specialized_Fills
  6
Continuous
100
AcDbPolyline
 90
        4
 70
   129
 43
0.0
 10
10386.7481111864
 20
707.4867495924806
 10
10367.74811118639
 20
707.4867495924806
 10
10367.74811118639
 20
657.4867495924692
 10
10386.7481111864
 20
657.4867495924692
  0
HATCH
  5
46
330
1F
100
AcDbEntity
  8
Specialized_Fills
  6
Continuous
 62
   254
420
 14671839
370
    13
100
AcDbHatch
 10
0.0
 20
0.0
 30
0.0
210
0.0
220
0.0
230
1.0
  2
SOLID
 70
     1
 71
     1
 91
        1
 92
        2
 72
     0
 73
     1
 93
        4
 10
10321.28561146996
 20
857.6472814805285
 10
10321.28561146996
 20
732.6472814805285
 10
10366.28561146657
 20
732.6472815063922
 10
10366.28561146995
 20
857.6472814805285
 97
        1
330
47
 75
     0
 76
     1
 98
        0
450
        0
451
        0
460
0.0
461
0.0
452
        1
462
0.0
453
        0
470

  0
LWPOLYLINE
  5
47
102
{ACAD_REACTORS
330
46
102
}
330
1F
100
AcDbEntity
  8
Specialized_Fills
  6
Continuous
100
AcDbPolyline
 90
        4
 70
   129
 43
0.0
 10
10321.28561146996
 20
857.6472814805285
 10
10321.28561146996
 20
732.6472814805285
 10
10366.28561146657
 20
732.6472815063922
 10
10366.28561146995
 20
857.6472814805285
  0
HATCH
  5
48
330
1F
100
AcDbEntity
  8
Specialized_Fills
  6
Continuous
 62
   254
420
 14671839
370
    13
100
AcDbHatch
 10
0.0
 20
0.0
 30
0.0
210
0.0
220
0.0
230
1.0
  2
SOLID
 70
     1
 71
     1
 91
        1
 92
        2
 72
     0
 73
     1
 93
        4
 10
10276.28561146657
 20
732.6472814064047
 10
10366.28561146657
 20
732.6472814064047
 10
10366.28561146657
 20
687.6472814064172
 10
10276.28561146657
 20
687.6472814064172
 97
        1
330
49
 75
     0
 76
     1
 98
        0
450
        0
451
        0
460
0.0
461
0.0
452
        1
462
0.0
453
        0
470

  0
LWPOLYLINE
  5
49
102
{ACAD_REACTORS
330
48
102
}
330
1F
100
AcDbEntity
  8
Specialized_Fills
  6
Continuous
100
AcDbPolyline
 90
        4
 70
   129
 43
0.0
 10
10276.28561146657
 20
732.6472814064047
 10
10366.28561146657
 20
732.6472814064047
 10
10366.28561146657
 20
687.6472814064172
 10
10276.28561146657
 20
687.6472814064172
  0
INSERT
  5
140
330
1F
100
AcDbEntity
  8
Specialized_Fills
  6
Continuous
 62
    30
420
 16742400
370
    20
100
AcDbBlockReference
  2
Fill_1
 10
0.0
 20
0.0
 30
0.0
  0
LINE
  5
141
330
1F
100
AcDbEntity
  8
Specialized_Lines
  6
Continuous
100
AcDbLine
 10
10259.93632637583
 20
841.977326981684
 30
0.0
 11
10562.53191857738
 21
919.2668855164535
 31
0.0
  0
LINE
  5
143
330
1F
100
AcDbEntity
  8
Specialized_Lines
  6
Continuous
100
AcDbLine
 10
10443.70063915126
 20
724.2959548715688
 30
0.0
 11
10444.99473437678
 21
719.0953062408523
 31
0.0
  0
LINE
  5
144
330
1F
100
AcDbEntity
  8
Specialized_Lines
  6
Continuous
100
AcDbLine
 10
10438.64794667362
 20
723.9452612912706
 30
0.0
 11
10438.64794667362
 21
641.3162530146061
 31
0.0
  0
LINE
  5
145
330
1F
100
AcDbEntity
  8
Specialized_Lines
  6
Continuous
100
AcDbLine
 10
10525.26983644763
 20
746.6025464603056
 30
0.0
 11
10438.64794667362
 21
723.9452612912706
 31
0.0
  0
LINE
  5
146
330
1F
100
AcDbEntity
  8
Specialized_Lines
  6
Continuous
100
AcDbLine
 10
10387.05212980995
 20
711.8339828744413
 30
0.0
 11
10465.68949679659
 21
767.8800756322181
 31
0.0
  0
LINE
  5
147
330
1F
100
AcDbEntity
  8
Specialized_Lines
  6
Continuous
100
AcDbLine
 10
10474.29157911599
 20
733.9536231243263
 30
0.0
 11
10378.45004749058
 21
745.7604353823738
 31
0.0
  0
LINE
  5
148
330
1F
100
AcDbEntity
  8
Specialized_Lines
  6
Continuous
100
AcDbLine
 10
10276.28561146657
 20
732.6472814064047
 30
0.0
 11
10276.28561146657
 21
585.8089224704008
 31
0.0
  0
LINE
  5
149
330
1F
100
AcDbEntity
  8
Specialized_Lines
  6
Continuous
100
AcDbLine
 10
10366.28561146998
 20
857.6472814805285
 30
0.0
 11
10366.28561146657
 21
585.8089224704008
 31
0.0
  0
LINE
  5
14A
330
1F
100
AcDbEntity
  8
Specialized_Lines
  6
Continuous
100
AcDbLine
 10
10366.28561146833
 20
744.7049951394919
 30
0.0
 11
10562.53191857739
 21
794.3631319885008
 31
0.0
  0
LINE
  5
14C
330
1F
100
AcDbEntity
  8
Specialized_Lines
  6
DASHEDX2
100
AcDbLine
 10
10441.52983199977
 20
585.8089224704026
 30
0.0
 11
10441.52983199977
 21
720.287358156132
 31
0.0
  0
LINE
  5
14D
330
1F
100
AcDbEntity
  8
Specialized_Lines
  6
Continuous
100
AcDbLine
 10
10321.28561146996
 20
732.6472814805285
 30
0.0
 11
10366.28561146998
 21
857.6472814805285
 31
0.0
  0
LINE
  5
14E
330
1F
100
AcDbEntity
  8
Specialized_Lines
  6
Continuous
100
AcDbLine
 10
10276.28561146657
 20
732.6472814064047
 30
0.0
 11
10366.28561146657
 21
687.6472814064172
 31
0.0
  0
LINE
  5
14F
330
1F
100
AcDbEntity
  8
Specialized_Lines
  6
Continuous
100
AcDbLine
 10
10366.28561146657
 20
732.6472815063922
 30
0.0
 11
10276.28561146657
 21
687.6472815064047
 31
0.0
  0
LINE
  5
150
330
1F
100
AcDbEntity
  8
Specialized_Lines
  6
Continuous
100
AcDbLine
 10
10444.99473437678
 20
719.0953062408523
 30
0.0
 11
10562.53191857739
 21
750.5892998280327
 31
0.0
  0
LINE
  5
151
330
1F
100
AcDbEntity
  8
Specialized_Lines
  6
Continuous
100
AcDbLine
 10
10443.70063915126
 20
724.2959548715688
 30
0.0
 11
10562.70210059031
 21
755.8112808630185
 31
0.0
  0
LINE
  5
152
330
1F
100
AcDbEntity
  8
Specialized_Lines
  6
Continuous
100
AcDbLine
 10
10259.93632637583
 20
716.2087900833214
 30
0.0
 11
10276.28561146657
 21
720.5895678202168
 31
0.0
  0
LWPOLYLINE
  5
153
330
1F
100
AcDbEntity
  8
Specialized_Lines
  6
Continuous
100
AcDbPolyline
 90
        4
 70
   129
 43
0.0
 10
10321.28561146996
 20
732.6472814805285
 10
10321.28561146996
 20
857.6472814805285
 10
10366.28561146998
 20
857.6472814805285
 10
10366.28561146998
 20
732.6472814805285
  0
LWPOLYLINE
  5
154
330
1F
100
AcDbEntity
  8
Specialized_Lines
  6
DASHEDX2
100
AcDbPolyline
 90
        2
 70
   128
 43
0.0
 10
10562.53191857739
 20
792.7195118971886
 10
10366.97325678742
 20
744.2989983647166
  0
LWPOLYLINE
  5
155
330
1F
100
AcDbEntity
  8
Specialized_Lines
  6
Continuous
100
AcDbPolyline
 90
        4
 70
   129
 43
0.0
 10
10367.74811118639
 20
657.4867495924692
 10
10386.7481111864
 20
657.4867495924692
 10
10386.7481111864
 20
707.4867495924806
 10
10367.74811118639
 20
707.4867495924806
  0
LWPOLYLINE
  5
156
330
1F
100
AcDbEntity
  8
Specialized_Lines
  6
Continuous
100
AcDbPolyline
 90
        4
 70
   129
 43
0.0
 10
10276.28561146657
 20
732.6472814064047
 10
10366.28561146657
 20
732.6472814064047
 10
10366.28561146657
 20
687.6472814064172
 10
10276.28561146657
 20
687.6472814064172
  0
LWPOLYLINE
  5
157
330
1F
100
AcDbEntity
  8
Specialized_Lines
  6
DASHEDX2
100
AcDbPolyline
 90
        4
 70
   128
 43
0.0
 10
10367.08703528783
 20
585.8089224704008
 10
10367.08703528783
 20
654.7061247623318
 10
10367.15684377126
 20
661.8318054666232
 10
10366.97325678742
 20
744.2989983647166
  0
LWPOLYLINE
  5
159
330
1F
100
AcDbEntity
  8
Specialized_Fills
  6
DASHEDX2
 62
   253
420
 10461087
370
    20
100
AcDbPolyline
 90
        6
 70
   128
 43
0.0
 10
10277.28067075276
 20
641.9420194996864
 42
-0.6291477549875938
 10
10312.22376551938
 20
658.9801739495307
 10
10330.22376545977
 20
645.4801738701359
 42
1.950528173690745
 10
10330.22376545977
 20
681.4801738701354
 10
10312.22376548119
 20
667.9801738414973
 42
-0.6661132244149616
 10
10277.1315408817
 20
687.6472814064172
  0
LWPOLYLINE
  5
15A
330
1F
100
AcDbEntity
  8
Specialized_Fills
  6
DASHEDX2
 62
   253
420
 10461087
370
    20
100
AcDbPolyline
 90
        6
 70
   128
 43
0.0
 10
10281.25698870276
 20
585.8089224704008
 42
-0.8720486666812622
 10
10312.22376551938
 20
613.9801735436384
 10
10330.22376545977
 20
600.4801734642436
 42
1.935276594128912
 10
10330.22376545977
 20
636.4801734642432
 10
10312.22376548119
 20
622.9801734356051
 42
-0.6604117666054341
 10
10277.28067075276
 20
641.942019499692
  0
LWPOLYLINE
  5
15B
330
1F
100
AcDbEntity
  8
Specialized_Fills
  6
DASHEDX2
 62
   253
420
 10461087
370
    20
100
AcDbPolyline
 90
        3
 70
   128
 43
0.0
 10
10361.48603613771
 20
585.8089224704008
 42
0.4457920430151018
 10
10330.22376545977
 20
591.4801730583509
 10
10322.66209803421
 20
585.8089224704015
  0
LWPOLYLINE
  5
160
330
1F
100
AcDbEntity
  8
0
  6
Continuous
100
AcDbPolyline
 90
        6
 70
   128
 43
0.0
 10
10457.37074411974
 20
585.8089224704008
 10
10330.22376545977
 20
585.8089224704008
 10
10328.22376545978
 20
591.3038773093098
 10
10324.22376545977
 20
580.3139676314919
 10
10322.22376545978
 20
585.8089224704008
 10
10268.17018485176
 20
585.8089224704008
  0
LWPOLYLINE
  5
161
330
1F
100
AcDbEntity
  8
0
  6
Continuous
100
AcDbPolyline
 90
        6
 70
   128
 43
0.0
 10
10562.53191857739
 20
740.1303280230543
 10
10562.53191857739
 20
846.0307772948443
 10
10568.0268734163
 20
848.0307772948396
 10
10557.03696373848
 20
852.0307772948445
 10
10562.53191857739
 20
854.0307772948398
 10
10562.53191857739
 20
934.8002715373741
  0
LWPOLYLINE
  5
162
330
1F
100
AcDbEntity
  8
0
  6
Continuous
100
AcDbPolyline
 90
        6
 70
   128
 43
0.0
 10
10259.93632637583
 20
698.0273632217667
 10
10259.93632637583
 20
773.4798128492696
 10
10265.43128121474
 20
775.4798128492649
 10
10254.44137153692
 20
779.4798128492698
 10
10259.93632637583
 20
781.4798128492651
 10
10259.93632637583
 20
862.2493070917993
  0
MTEXT
  5
164
102
{ACAD_REACTORS
330
166
102
}
330
1F
100
AcDbEntity
  8
Specialized_Text
  6
Continuous
100
AcDbMText
 10
10481.54454017524
 20
609.9627709266245
 30
0.0
 40
5.4
 41
102.8838766167723
 46
0.0
 71
     4
 72
     1
  1
{20mm cavity}
  7
GENERATED_STYLE_1
 73
     1
 44
1.0
  0
LEADER
  5
166
330
1F
100
AcDbEntity
  8
Specialized_Text
  6
Continuous
 62
   251
420
  6250335
370
    13
100
AcDbLeader
  3
GENERATED_STYLE__1
 73
     0
 40
7.00968622100955
 41
42.04706684856753
 76
     2
 10
10376.45896248412
 20
610.587834192466
 30
0.0
 10
10481.45454017524
 20
609.9627709266245
 30
0.0
340
164
  0
MTEXT
  5
16D
102
{ACAD_REACTORS
330
16E
102
}
330
1F
100
AcDbEntity
  8
Specialized_Text
  6
Continuous
100
AcDbMText
 10
10510.594225252
 20
716.9297335067207
 30
0.0
 40
5.4
 41
102.8838766167723
 46
0.0
 71
     4
 72
     1
  1
{soffit lining}
  7
GENERATED_STYLE_1
 73
     1
 44
1.0
  0
LEADER
  5
16E
330
1F
100
AcDbEntity
  8
Specialized_Text
  6
Continuous
 62
   251
420
  6250335
370
    13
100
AcDbLeader
  3
GENERATED_STYLE__1
 73
     0
 40
7.075989085948158
 41
34.91950886766713
 76
     3
 10
10498.88525351721
 20
733.5352273242238
 30
0.0
 10
10503.12769055829
 20
716.9297335067207
 30
0.0
 10
10510.504225252
 20
716.9297335067207
 30
0.0
340
16D
  0
MTEXT
  5
16F
102
{ACAD_REACTORS
330
170
102
}
330
1F
100
AcDbEntity
  8
Specialized_Text
  6
Continuous
100
AcDbMText
 10
10481.54454017524
 20
592.6686252294818
 30
0.0
 40
5.4
 41
141.631563339592
 46
14.75737869634321
 71
     4
 72
     1
  1
{cavity insulation minimum R=0.9}
  7
GENERATED_STYLE_1
 73
     1
 44
1.0
  0
LEADER
  5
170
330
1F
100
AcDbEntity
  8
Specialized_Text
  6
Continuous
 62
   251
420
  6250335
370
    13
100
AcDbLeader
  3
GENERATED_STYLE__1
 73
     0
 40
7.00968622100955
 41
107.7605729877217
 76
     2
 10
10318.05675516767
 20
593.3606344898999
 30
0.0
 10
10481.45454017524
 20
592.6686252294818
 30
0.0
340
16F
  0
MTEXT
  5
171
102
{ACAD_REACTORS
330
172
102
}
330
1F
100
AcDbEntity
  8
Specialized_Text
  6
Continuous
100
AcDbMText
 10
10481.54454017524
 20
700.6372712343647
 30
0.0
 40
5.4
 41
144.4152486319512
 46
24.00070982888341
 71
     4
 72
     1
  1
{continuous non-ventilated horizontal 45mm x 20mm EPS battens}
  7
GENERATED_STYLE_1
 73
     1
 44
1.0
  0
LEADER
  5
172
330
1F
100
AcDbEntity
  8
Specialized_Text
  6
Continuous
 62
   251
420
  6250335
370
    13
100
AcDbLeader
  3
GENERATED_STYLE__1
 73
     0
 40
14.58417462482947
 41
143.0594815825375
 76
     2
 10
10378.35805363458
 20
700.8414967957155
 30
0.0
 10
10481.45454017524
 20
700.6372712343647
 30
0.0
340
171
  0
MTEXT
  5
173
102
{ACAD_REACTORS
330
174
102
}
330
1F
100
AcDbEntity
  8
Specialized_Text
  6
Continuous
100
AcDbMText
 10
10481.53376295398
 20
670.4706378036378
 30
0.0
 40
5.4
 41
144.7089989019027
 46
33.41567487668314
 71
     4
 72
     1
  1
{Protecto EIFS tape must extend minimum 100mm down vertical surface and minimum 100mm under soffit}
  7
GENERATED_STYLE_1
 73
     1
 44
1.0
  0
LEADER
  5
174
330
1F
100
AcDbEntity
  8
Specialized_Text
  6
Continuous
 62
   251
420
  6250335
370
    13
100
AcDbLeader
  3
GENERATED_STYLE__1
 73
     0
 40
23.76834924965894
 41
144.1645293315143
 76
     2
 10
10438.63716945235
 20
670.591299661001
 30
0.0
 10
10481.44376295398
 20
670.4706378036378
 30
0.0
340
173
  0
MTEXT
  5
175
102
{ACAD_REACTORS
330
176
102
}
330
1F
100
AcDbEntity
  8
Specialized_Text
  6
Continuous
100
AcDbMText
 10
10481.54454017524
 20
629.3688931914499
 30
0.0
 40
5.4
 41
143.6729904166482
 46
23.92274729576621
 71
     4
 72
     1
  1
{approved breather type building wrap as installed by the builder}
  7
GENERATED_STYLE_1
 73
     1
 44
1.0
  0
LEADER
  5
176
330
1F
100
AcDbEntity
  8
Specialized_Text
  6
Continuous
 62
   251
420
  6250335
370
    13
100
AcDbLeader
  3
GENERATED_STYLE__1
 73
     0
 40
15.98390177353342
 41
134.0349249658936
 76
     2
 10
10367.08703528783
 20
630.0151097797168
 30
0.0
 10
10481.45454017524
 20
629.3688931914499
 30
0.0
340
175
  0
MTEXT
  5
177
102
{ACAD_REACTORS
330
178
102
}
330
1F
100
AcDbEntity
  8
Specialized_Text
  6
Continuous
100
AcDbMText
 10
10478.88752945044
 20
800.3188034858077
 30
0.0
 40
5.4
 41
102.8838766167723
 46
0.0
 71
     4
 72
     1
  1
{selected rafters}
  7
GENERATED_STYLE_1
 73
     1
 44
1.0
  0
LEADER
  5
178
330
1F
100
AcDbEntity
  8
Specialized_Text
  6
Continuous
 62
   251
420
  6250335
370
    13
100
AcDbLeader
  3
GENERATED_STYLE__1
 73
     0
 40
5.584174624829469
 41
51.04583901773533
 76
     2
 10
10415.38413784732
 20
800.5329317069648
 30
0.0
 10
10478.79752945044
 20
800.3188034858077
 30
0.0
340
177
  0
MTEXT
  5
179
102
{ACAD_REACTORS
330
17A
102
}
330
1F
100
AcDbEntity
  8
Specialized_Text
  6
Continuous
100
AcDbMText
 10
10481.54285368775
 20
647.293195935738
 30
0.0
 40
5.4
 41
142.0315614253681
 46
25.56311551547432
 71
     4
 72
     1
  1
50mm EPS or {\C30;\c30975;75mm Neopor® EPS}
  7
GENERATED_STYLE_1
 73
     1
 44
1.0
  0
LEADER
  5
17A
330
1F
100
AcDbEntity
  8
Specialized_Text
  6
Continuous
 62
   251
420
  6250335
370
    13
100
AcDbLeader
  3
GENERATED_STYLE__1
 73
     0
 40
6.994952251023192
 41
118.8884038199181
 76
     2
 10
10411.92669936186
 20
647.8115788402107
 30
0.0
 10
10481.45285368776
 20
647.293195935738
 30
0.0
340
179
  0
LINE
  5
1E8
330
1F
100
AcDbEntity
  8
Viewport
 62
     7
420
 16777215
100
AcDbLine
 10
10626.39721774782
 20
1021.711577117184
 30
0.0
 11
10626.39721774782
 21
481.6619614783885
 31
0.0
  0
LINE
  5
1E9
330
1F
100
AcDbEntity
  8
Viewport
 62
     7
420
 16777215
100
AcDbLine
 10
10626.39721774782
 20
481.6619614783885
 30
0.0
 11
10253.25549066184
 21
481.6619614783885
 31
0.0
  0
MTEXT
  5
1EC
330
1F
100
AcDbEntity
  8
Specialized_Lines
 62
    30
420
 16742400
100
AcDbMText
 10
10331.55185545232
 20
522.9948288628261
 30
0.0
 40
7.0
 41
63.23088711380842
 46
0.0
 71
     1
 72
     5
  1
CAVITECLAD
  7
GENERATED_STYLE_2
 73
     1
 44
1.0
1001
ACAD
1000
ACAD_MTEXT_COLUMN_INFO_BEGIN
1070
    75
1070
     2
1070
    79
1070
     0
1070
    76
1070
     1
1070
    78
1070
     0
1070
    48
1040
63.23088711380842
1070
    49
1040
12.5
1070
    50
1070
     1
1040
0.0
1000
ACAD_MTEXT_COLUMN_INFO_END
  0
LINE
  5
1ED
330
1F
100
AcDbEntity
  8
Viewport
 62
     7
420
 16777215
100
AcDbLine
 10
10253.25549066184
 20
481.6619614783885
 30
0.0
 11
10253.25549066184
 21
1021.711577117184
 31
0.0
  0
LINE
  5
1EE
330
1F
100
AcDbEntity
  8
Viewport
 62
     7
420
 16777215
100
AcDbLine
 10
10626.39721774782
 20
1021.711577117184
 30
0.0
 11
10253.25549066184
 21
1021.711577117184
 31
0.0
  0
MTEXT
  5
1EF
330
1F
100
AcDbEntity
  8
Specialized_Lines
100
AcDbMText
 10
10330.08489046677
 20
538.590115841997
 30
0.0
 40
10.0
 41
292.9317440552022
 46
0.0
 71
     1
 72
     5
  1
{\fArial|b1|i0|c0|p34;Wall / Roof: Raking Soffit (Hidden Flashing)}
 73
     1
 44
1.0
1001
ACAD
1000
ACAD_MTEXT_COLUMN_INFO_BEGIN
1070
    75
1070
     2
1070
    79
1070
     0
1070
    76
1070
     1
1070
    78
1070
     0
1070
    48
1040
292.9317440552022
1070
    49
1040
12.5
1070
    50
1070
     1
1040
0.0
1000
ACAD_MTEXT_COLUMN_INFO_END
  0
MTEXT
  5
1F0
330
1F
100
AcDbEntity
  8
Specialized_Lines
 62
    30
420
 16742400
100
AcDbMText
 10
10301.3000349854
 20
519.0471443223418
 30
0.0
 40
4.0
 41
34.37092666967328
 46
0.0
 71
     5
 72
     5
  1
SCALE: 1:2
  7
GENERATED_STYLE_2
 73
     1
 44
1.0
1001
ACAD
1000
ACAD_MTEXT_COLUMN_INFO_BEGIN
1070
    75
1070
     2
1070
    79
1070
     0
1070
    76
1070
     1
1070
    78
1070
     0
1070
    48
1040
34.37092666967328
1070
    49
1040
12.5
1070
    50
1070
     1
1040
0.0
1000
ACAD_MTEXT_COLUMN_INFO_END
  0
HATCH
  5
1F1
330
1F
100
AcDbEntity
  8
0
 62
    30
420
 16742400
370
     5
100
AcDbHatch
 10
0.0
 20
0.0
 30
0.0
210
0.0
220
0.0
230
1.0
  2
SOLID
 70
     1
 71
     0
 91
        1
 92
        1
 93
        4
 72
     1
 10
10324.45402036691
 20
524.070103822733
 11
10324.45402036691
 21
544.070103822733
 72
     1
 10
10324.45402036691
 20
544.070103822733
 11
10279.45402036692
 21
544.070103822733
 72
     1
 10
10279.45402036692
 20
544.070103822733
 11
10279.45402036692
 21
524.070103822733
 72
     1
 10
10279.45402036692
 20
524.070103822733
 11
10324.45402036691
 21
524.070103822733
 97
        0
 75
     1
 76
     1
 98
        1
 10
10309.86919355644
 20
530.2037843258572
450
        0
451
        0
460
0.0
461
0.0
452
        0
462
1.0
453
        2
463
0.0
 63
     5
421
      255
463
1.0
 63
     2
421
 16776960
470
LINEAR
1001
GradientColor1ACI
1070
     5
1001
GradientColor2ACI
1070
     2
1001
ACAD
1010
0.0
1020
0.0
1030
0.0
  0
LWPOLYLINE
  5
1F2
330
1F
100
AcDbEntity
  8
0
370
     5
100
AcDbPolyline
 90
        5
 70
     0
 43
0.0
 10
10279.45402036692
 20
544.070103822733
 10
10279.45402036692
 20
524.070103822733
 10
10324.45402036691
 20
524.070103822733
 10
10324.45402036691
 20
544.070103822733
 10
10279.45402036692
 20
544.070103822733
  0
MTEXT
  5
1F3
330
1F
100
AcDbEntity
  8
Specialized_Lines
100
AcDbMText
 10
10302.1588354558
 20
533.8752591763445
 30
0.0
 40
10.0
 41
90.34063603881987
 46
0.0
 71
     5
 72
     5
  1
{\fArial|b1|i0|c0|p34;16D}
 73
     1
 44
1.0
1001
ACAD
1000
ACAD_MTEXT_COLUMN_INFO_BEGIN
1070
    75
1070
     2
1070
    79
1070
     0
1070
    76
1070
     1
1070
    78
1070
     0
1070
    48
1040
90.34063603881987
1070
    49
1040
12.5
1070
    50
1070
     1
1040
0.0
1000
ACAD_MTEXT_COLUMN_INFO_END
  0
LWPOLYLINE
  5
1F4
330
1F
100
AcDbEntity
  8
0
370
     5
100
AcDbPolyline
 90
        4
 70
     0
 43
0.0
 10
10279.45402036692
 20
524.070103822733
 10
10279.45402036692
 20
514.070103822733
 10
10324.45402036691
 20
514.070103822733
 10
10324.45402036691
 20
524.070103822733
  0
MTEXT
  5
2C8
330
1F
100
AcDbEntity
  8
Specialized_Text
  6
Continuous
100
AcDbMText
 10
10282.28515896941
 20
970.6362528397821
 30
0.0
 40
3.0
 41
48.87340123734884
 46
0.0
 71
     4
 72
     1
  1
Appraisal No.510 [2013]
  7
GENERATED_STYLE_2
 73
     1
 44
1.0
  0
IMAGE
  5
2C9
330
1F
100
AcDbEntity
  8
0
 62
     7
420
 16777215
160
               140
310
8C00000001000000840000000600000005000000D1E1561DBA13C440903892277D6F8E400000000000000000D1E1561DBA13C44017F7574FB1ED8F4000000000000000005FC6D7620D2DC44017F7574FB1ED8F4000000000000000005FC6D7620D2DC440903892277D6F8E400000000000000000D1E1561DBA13C440903892
310
277D6F8E400000000000000000
100
AcDbRasterImage
 90
        0
 10
10279.45402036692
 20
973.9361106322776
 30
0.0
 11
0.0611721721957824
 21
0.0
 31
0.0
 12
0.0
 22
0.0611721721957824
 32
0.0
 13
828.0
 23
781.0
340
2AB
 70
     7
280
     0
281
    50
282
    50
283
     0
290
     0
360
2CA
 71
     1
 91
        2
 14
-0.5
 24
-0.5
 14
827.5
 24
780.5
  0
IMAGE
  5
2CB
330
1F
100
AcDbEntity
  8
0
 62
     7
420
 16777215
160
               140
310
8C0000000100000084000000060000000500000062E92705638AC440C04C34BD389F8E40000000000000000062E92705638AC440D708C9D6A7D88F40000000000000000027FA07D832C1C440D708C9D6A7D88F40000000000000000027FA07D832C1C440C04C34BD389F8E40000000000000000062E92705638AC440C04C34
310
BD389F8E400000000000000000
100
AcDbRasterImage
 90
        0
 10
10516.77359484573
 20
979.9027046285555
 30
0.0
 11
0.0434841820317712
 21
0.0
 31
0.0
 12
0.0
 22
0.0434841820317712
 32
0.0
 13
2521.0
 23
901.0
340
2AC
 70
     7
280
     0
281
    50
282
    50
283
     0
290
     0
360
2CC
 71
     1
 91
        2
 14
-0.5
 24
-0.5
 14
2520.5
 24
900.5
  0
HATCH
  5
2CD
330
1F
100
AcDbEntity
  8
0
 62
    30
420
 16742400
100
AcDbHatch
 10
0.0
 20
0.0
 30
0.0
210
0.0
220
0.0
230
1.0
  2
SOLID
 70
     1
 71
     1
 91
        1
 92
        7
 72
     0
 73
     1
 93
        4
 10
10279.37509732676
 20
500.2485019707551
 10
10279.37509732676
 20
495.2485019707551
 10
10284.37509732676
 20
495.2485019707555
 10
10284.37509732676
 20
500.2485019707555
 97
        1
330
2CE
 75
     1
 76
     1
 47
0.0321901215665183
 98
        1
 10
10281.16454545546
 20
498.8255213805119
450
        0
451
        0
460
0.0
461
0.0
452
        0
462
1.0
453
        2
463
0.0
 63
     5
421
      255
463
1.0
 63
     2
421
 16776960
470
LINEAR
1001
GradientColor1ACI
1070
     5
1001
GradientColor2ACI
1070
     2
1001
ACAD
1010
0.0
1020
0.0
1030
0.0
  0
LWPOLYLINE
  5
2CE
102
{ACAD_REACTORS
330
2CD
102
}
330
1F
100
AcDbEntity
  8
0
 62
    30
420
 16742400
100
AcDbPolyline
 90
        4
 70
     1
 43
0.0
 10
10279.37509732676
 20
500.2485019707551
 10
10284.37509732676
 20
500.2485019707555
 10
10284.37509732676
 20
495.2485019707555
 10
10279.37509732676
 20
495.2485019707551
  0
LINE
  5
2CF
330
1F
100
AcDbEntity
  8
0
 62
    30
420
 16742400
100
AcDbLine
 10
10279.37509732676
 20
500.2485019707551
 30
0.0
 11
10284.37509732676
 21
500.2485019707551
 31
0.0
  0
LWPOLYLINE
  5
2D0
330
1F
100
AcDbEntity
  8
0
370
     5
100
AcDbPolyline
 90
        2
 70
     0
 43
0.0
 10
10284.37509732676
 20
497.748501970755
 10
10605.52915525044
 20
497.748501970755
  0
MTEXT
  5
2D1
330
1F
100
AcDbEntity
  8
Specialized_Text
  6
Continuous
100
AcDbMText
 10
10287.93877664189
 20
500.274969004347
 30
0.0
 40
3.0
 41
163.0041735515597
 46
0.0
 71
     4
 72
     1
  1
© copyright 2013 Specialized Building Products Ltd
  7
GENERATED_STYLE_2
 73
     1
 44
1.0
  0
MTEXT
  5
2D2
330
1F
100
AcDbEntity
  8
Specialized_Text
  6
Continuous
100
AcDbMText
 10
10465.83977731557
 20
500.274969004347
 30
0.0
 40
3.0
 41
163.0041735515597
 46
0.0
 71
     4
 72
     1
  1
All Dimensions to be site checked before construction & installation
  7
GENERATED_STYLE_2
 73
     1
 44
1.0
  0
MTEXT
  5
2D3
330
1F
100
AcDbEntity
  8
Specialized_Text
  6
Continuous
 62
    30
420
 16742400
370
    20
100
AcDbMText
 10
10504.39515110479
 20
487.1510651842336
 30
0.0
 40
5.5
 41
111.9228601720179
 46
0.0
 71
     7
 72
     1
  1
{\fArial Unicode MS|b1|i0|c0|p34;web \fArial Unicode MS|b0|i0|c0|p34;\C256;www.specialized.co.nz}
  7
GENERATED_STYLE_2
 73
     1
 44
1.12662050634974
  0
LWPOLYLINE
  5
2D4
330
1F
100
AcDbEntity
  8
Specialized_Lines
  6
PLASTER
 48
3.0
100
AcDbPolyline
 90
        4
 70
     0
 43
0.0
 10
10443.82995330753
 20
585.8089224704008
 10
10443.82995330753
 20
722.7173492280967
 10
10441.82855973987
 20
723.8275516759907
 10
10438.64794667362
 20
723.8275516759907
  0
ENDSEC
  0
SECTION
  2
OBJECTS
  0
DICTIONARY
  5
C
330
0
100
AcDbDictionary
281
     1
  3
ACAD_CIP_PREVIOUS_PRODUCT_INFO
350
1BC
  3
ACAD_COLOR
350
1B0
  3
ACAD_DETAILVIEWSTYLE
350
1B5
  3
ACAD_GROUP
350
D
  3
ACAD_IMAGE_DICT
350
1E2
  3
ACAD_IMAGE_VARS
350
1E7
  3
ACAD_LAYOUT
350
1A
  3
ACAD_MATERIAL
350
3B
  3
ACAD_MLEADERSTYLE
350
1A3
  3
ACAD_MLINESTYLE
350
17
  3
ACAD_PLOTSETTINGS
350
19
  3
ACAD_PLOTSTYLENAME
350
E
  3
ACAD_SCALELIST
350
11A
  3
ACAD_SECTIONVIEWSTYLE
350
1B3
  3
ACAD_TABLESTYLE
350
1A2
  3
ACAD_VISUALSTYLE
350
2A
  3
ACDB_RECOMPOSE_DATA
350
3AC
  3
AcDbVariableDictionary
350
180
  3
AcDsDecomposeData
350
3B3
  3
WATERMARKS
350
17E
  0
DICTIONARY
  5
1CC
330
2
100
AcDbDictionary
280
     1
281
     1
  3
ACAD_LAYERSTATES
360
1CD
  0
DICTIONARY
  5
205
330
10
100
AcDbDictionary
280
     1
281
     1
  3
ADSK_XREC_LAYER_RECONCILED
360
206
  0
DICTIONARY
  5
207
330
40
100
AcDbDictionary
280
     1
281
     1
  3
ADSK_XREC_LAYER_RECONCILED
360
208
  0
DICTIONARY
  5
209
330
142
100
AcDbDictionary
280
     1
281
     1
  3
ADSK_XREC_LAYER_RECONCILED
360
20A
  0
DICTIONARY
  5
20B
330
165
100
AcDbDictionary
280
     1
281
     1
  3
ADSK_XREC_LAYER_RECONCILED
360
20C
  0
DICTIONARY
  5
1C3
330
1C2
100
AcDbDictionary
280
     1
281
     1
  3
ADSK_XREC_LAYER_RECONCILED
360
20D
  0
DICTIONARY
  5
229
330
4A
100
AcDbDictionary
280
     1
281
     1
  3
ACAD_SORTENTS
360
234
  0
DICTIONARY
  5
313
330
30F
100
AcDbDictionary
280
     1
281
     1
  3
ACAD_SORTENTS
360
314
  0
IMAGEDEF_REACTOR
  5
2CA
330
2C9
100
AcDbRasterImageDefReactor
 90
        2
330
2C9
  0
IMAGEDEF_REACTOR
  5
2CC
330
2CB
100
AcDbRasterImageDefReactor
 90
        2
330
2CB
  0
XRECORD
  5
1BC
102
{ACAD_REACTORS
330
C
102
}
330
C
100
AcDbXrecord
280
     1
300
ACD
300
2014
300
BDSPRM_F_S
  0
DICTIONARY
  5
1B0
102
{ACAD_REACTORS
330
C
102
}
330
C
100
AcDbDictionary
281
     1
  0
DICTIONARY
  5
1B5
102
{ACAD_REACTORS
330
C
102
}
330
C
100
AcDbDictionary
281
     1
  3
Imperial24
350
1B6
  0
DICTIONARY
  5
D
102
{ACAD_REACTORS
330
C
102
}
330
C
100
AcDbDictionary
281
     1
  0
DICTIONARY
  5
1E2
102
{ACAD_REACTORS
330
C
102
}
330
C
100
AcDbDictionary
281
     1
  3
BRANZ logo. Do not place on drawing without number 510-
350
2AB
  3
logo sharp
350
2AC
  0
RASTERVARIABLES
  5
1E7
102
{ACAD_REACTORS
330
C
102
}
330
C
100
AcDbRasterVariables
 90
        0
 70
     1
 71
     1
 72
     0
  0
DICTIONARY
  5
1A
102
{ACAD_REACTORS
330
C
102
}
330
C
100
AcDbDictionary
281
     1
  3
Layout1
350
1E
  3
Layout2
350
26
  3
Model
350
22
  0
DICTIONARY
  5
3B
102
{ACAD_REACTORS
330
C
102
}
330
C
100
AcDbDictionary
281
     1
  3
ByBlock
350
3D
  3
ByLayer
350
3C
  3
Global
350
3E
  0
DICTIONARY
  5
1A3
102
{ACAD_REACTORS
330
C
102
}
330
C
100
AcDbDictionary
281
     1
  3
Standard
350
1B2
  0
DICTIONARY
  5
17
102
{ACAD_REACTORS
330
C
102
}
330
C
100
AcDbDictionary
281
     1
  3
Standard
350
18
  0
DICTIONARY
  5
19
102
{ACAD_REACTORS
330
C
102
}
330
C
100
AcDbDictionary
281
     1
  0
ACDBDICTIONARYWDFLT
  5
E
102
{ACAD_REACTORS
330
C
102
}
330
C
100
AcDbDictionary
281
     1
  3
Normal
350
F
100
AcDbDictionaryWithDefault
340
F
  0
DICTIONARY
  5
11A
102
{ACAD_REACTORS
330
C
102
}
330
C
100
AcDbDictionary
281
     1
  3
A0
350
11B
  3
A1
350
11C
  3
A2
350
11D
  3
A3
350
11E
  3
A4
350
11F
  3
A5
350
120
  3
A6
350
121
  3
A7
350
122
  3
A8
350
123
  3
A9
350
124
  3
B0
350
125
  3
B1
350
126
  3
B2
350
127
  3
B3
350
128
  3
B4
350
129
  3
B5
350
12A
  3
B6
350
12B
  3
B7
350
12C
  3
B8
350
12D
  3
B9
350
12E
  3
C0
350
12F
  3
C1
350
130
  3
C2
350
131
  3
C3
350
132
  3
C4
350
133
  3
C5
350
134
  3
C6
350
135
  3
C7
350
136
  3
C8
350
137
  3
C9
350
138
  3
D0
350
139
  3
D1
350
13A
  3
D2
350
13B
  0
DICTIONARY
  5
1B3
102
{ACAD_REACTORS
330
C
102
}
330
C
100
AcDbDictionary
281
     1
  3
Imperial24
350
1B4
  0
DICTIONARY
  5
1A2
102
{ACAD_REACTORS
330
C
102
}
330
C
100
AcDbDictionary
281
     1
  3
Standard
350
1B1
  0
DICTIONARY
  5
2A
102
{ACAD_REACTORS
330
C
102
}
330
C
100
AcDbDictionary
281
     1
  3
2dWireframe
350
2F
  3
3D Hidden
350
31
  3
3dWireframe
350
30
  3
Basic
350
32
  3
Brighten
350
36
  3
ColorChange
350
3A
  3
Conceptual
350
34
  3
Dim
350
35
  3
EdgeColorOff
350
1AF
  3
Facepattern
350
39
  3
Flat
350
2B
  3
FlatWithEdges
350
2C
  3
Gouraud
350
2D
  3
GouraudWithEdges
350
2E
  3
Hidden
350
1A7
  3
JitterOff
350
1AD
  3
Linepattern
350
38
  3
OverhangOff
350
1AE
  3
Realistic
350
33
  3
Shaded
350
1AC
  3
Shaded with edges
350
1AB
  3
Shades of Gray
350
1A8
  3
Sketchy
350
1A9
  3
Thicken
350
37
  3
Wireframe
350
1A6
  3
X-Ray
350
1AA
  0
XRECORD
  5
3AC
102
{ACAD_REACTORS
330
C
102
}
330
C
100
AcDbXrecord
280
     1
 90
        1
330
1B1
330
1EC
330
1EF
330
1F0
330
1F3
  0
DICTIONARY
  5
180
102
{ACAD_REACTORS
330
C
102
}
330
C
100
AcDbDictionary
281
     1
  3
CANNOSCALE
350
181
  3
CMLEADERSTYLE
350
247
  3
CTABLESTYLE
350
246
  3
CVIEWDETAILSTYLE
350
248
  3
CVIEWSECTIONSTYLE
350
249
  3
HPCOLOR
350
22F
  3
LAYEREVAL
350
24A
  3
LAYERNOTIFY
350
24B
  0
DICTIONARY
  5
3B3
102
{ACAD_REACTORS
330
C
102
}
330
C
100
AcDbDictionary
281
     1
  3
AcDsRecords
350
3B5
  3
AcDsSchemas
350
3B4
1001
ACAD
1070
     2
  0
DICTIONARY
  5
17E
102
{ACAD_REACTORS
330
C
102
}
330
C
100
AcDbDictionary
281
     1
  3
AC_WATERMARK
350
17F
  0
DICTIONARY
  5
1CD
102
{ACAD_REACTORS
330
1CC
102
}
330
1CC
100
AcDbDictionary
281
     1
  0
XRECORD
  5
206
102
{ACAD_REACTORS
330
205
102
}
330
205
100
AcDbXrecord
280
     1
290
     1
  0
XRECORD
  5
208
102
{ACAD_REACTORS
330
207
102
}
330
207
100
AcDbXrecord
280
     1
290
     1
  0
XRECORD
  5
20A
102
{ACAD_REACTORS
330
209
102
}
330
209
100
AcDbXrecord
280
     1
290
     1
  0
XRECORD
  5
20C
102
{ACAD_REACTORS
330
20B
102
}
330
20B
100
AcDbXrecord
280
     1
290
     1
  0
XRECORD
  5
20D
102
{ACAD_REACTORS
330
1C3
102
}
330
1C3
100
AcDbXrecord
280
     1
290
     1
  0
SORTENTSTABLE
  5
234
102
{ACAD_REACTORS
330
229
102
}
330
229
100
AcDbSortentsTable
330
4A
331
225
  5
227
331
236
  5
225
331
226
  5
22D
331
224
  5
226
331
227
  5
230
  0
SORTENTSTABLE
  5
314
102
{ACAD_REACTORS
330
313
102
}
330
313
100
AcDbSortentsTable
330
30F
  0
ACDBDETAILVIEWSTYLE
  5
1B6
102
{ACAD_XDICTIONARY
360
243
102
}
102
{ACAD_REACTORS
330
1B5
102
}
330
1B5
100
AcDbModelDocViewStyle
 70
     0
  3
Imperial24
290
     0
100
AcDbDetailViewStyle
 70
     0
 71
     0
 90
        3
 71
     1
340
11
 62
   256
 40
0.24
340
0
 62
   256
 40
0.24
300

 40
0.36
280
     3
 71
     2
340
16
 90
       25
 62
   256
 71
     3
340
11
 62
   256
 40
0.24
 90
        1
 40
0.75
 90
        1
300
%<\AcVar ViewType \f "%tc1">% %<\AcVar ViewDetailId>%\PSCALE %<\AcVar ViewScale \f "%sn">%
 71
     4
340
16
 90
       25
 62
   256
340
16
 90
       25
 62
   256
280
     0
  0
IMAGEDEF
  5
2AB
102
{ACAD_REACTORS
330
1E2
330
2CA
102
}
330
1E2
100
AcDbRasterImageDef
 90
        0
  1
P:\VERT-X CONSULTING LTD\2013\10 Oct\1310-015- Specialized Construction Products - Contract draughting\Drawings\BRANZ logo. Do not place on drawing without number 510-.jpg
 10
828.0
 20
781.0
 11
0.0846666666666667
 21
0.0846666666666667
280
     1
281
     5
  0
IMAGEDEF
  5
2AC
102
{ACAD_REACTORS
330
1E2
330
2CC
102
}
330
1E2
100
AcDbRasterImageDef
 90
        0
  1
P:\VERT-X CONSULTING LTD\2013\10 Oct\1310-015- Specialized Construction Products - Contract draughting\Drawings\logo sharp.JPG
 10
2521.0
 20
901.0
 11
0.2645833333333333
 21
0.2645833333333333
280
     1
281
     5
  0
LAYOUT
  5
1E
102
{ACAD_REACTORS
330
1A
102
}
330
1A
100
AcDbPlotSettings
  1

  2
none_device
  4

  6

 40
0.0
 41
0.0
 42
0.0
 43
0.0
 44
0.0
 45
0.0
 46
0.0
 47
0.0
 48
0.0
 49
0.0
140
0.0
141
0.0
142
1.0
143
1.0
 70
   688
 72
     0
 73
     0
 74
     5
  7

 75
    16
147
1.0
 76
     0
 77
     2
 78
   300
148
0.0
149
0.0
100
AcDbLayout
  1
Layout1
 70
     1
 71
     1
 10
0.0
 20
0.0
 11
12.0
 21
9.0
 12
0.0
 22
0.0
 32
0.0
 14
1.000000000000000E+20
 24
1.000000000000000E+20
 34
1.000000000000000E+20
 15
-1.000000000000000E+20
 25
-1.000000000000000E+20
 35
-1.000000000000000E+20
146
0.0
 13
0.0
 23
0.0
 33
0.0
 16
1.0
 26
0.0
 36
0.0
 17
0.0
 27
1.0
 37
0.0
 76
     0
330
1B
  0
LAYOUT
  5
26
102
{ACAD_REACTORS
330
1A
102
}
330
1A
100
AcDbPlotSettings
  1

  2
none_device
  4

  6

 40
0.0
 41
0.0
 42
0.0
 43
0.0
 44
0.0
 45
0.0
 46
0.0
 47
0.0
 48
0.0
 49
0.0
140
0.0
141
0.0
142
1.0
143
1.0
 70
   688
 72
     0
 73
     0
 74
     5
  7

 75
    16
147
1.0
 76
     0
 77
     2
 78
   300
148
0.0
149
0.0
100
AcDbLayout
  1
Layout2
 70
     1
 71
     2
 10
0.0
 20
0.0
 11
0.0
 21
0.0
 12
0.0
 22
0.0
 32
0.0
 14
0.0
 24
0.0
 34
0.0
 15
0.0
 25
0.0
 35
0.0
146
0.0
 13
0.0
 23
0.0
 33
0.0
 16
1.0
 26
0.0
 36
0.0
 17
0.0
 27
1.0
 37
0.0
 76
     0
330
23
  0
LAYOUT
  5
22
102
{ACAD_REACTORS
330
1A
102
}
330
1A
100
AcDbPlotSettings
  1

  2
none_device
  4

  6

 40
0.0
 41
0.0
 42
0.0
 43
0.0
 44
0.0
 45
0.0
 46
0.0
 47
0.0
 48
0.0
 49
0.0
140
0.0
141
0.0
142
1.0
143
1.0
 70
  1712
 72
     0
 73
     0
 74
     0
  7

 75
     0
147
1.0
 76
     0
 77
     2
 78
   300
148
0.0
149
0.0
100
AcDbLayout
  1
Model
 70
     1
 71
     0
 10
0.0
 20
0.0
 11
12.0
 21
9.0
 12
0.0
 22
0.0
 32
0.0
 14
1.000000000000000E+20
 24
1.000000000000000E+20
 34
1.000000000000000E+20
 15
-1.000000000000000E+20
 25
-1.000000000000000E+20
 35
-1.000000000000000E+20
146
0.0
 13
0.0
 23
0.0
 33
0.0
 16
1.0
 26
0.0
 36
0.0
 17
0.0
 27
1.0
 37
0.0
 76
     0
330
1F
331
29
  0
MATERIAL
  5
3D
102
{ACAD_REACTORS
330
3B
102
}
330
3B
100
AcDbMaterial
  1
ByBlock
 73
     1
 78
     1
172
     1
176
     1
270
     1
274
     1
  0
MATERIAL
  5
3C
102
{ACAD_REACTORS
330
3B
102
}
330
3B
100
AcDbMaterial
  1
ByLayer
 73
     1
 78
     1
172
     1
176
     1
270
     1
274
     1
  0
MATERIAL
  5
3E
102
{ACAD_REACTORS
330
3B
102
}
330
3B
100
AcDbMaterial
  1
Global
 73
     1
 78
     1
172
     1
176
     1
270
     1
274
     1
  0
MLEADERSTYLE
  5
1B2
102
{ACAD_XDICTIONARY
360
3EA
102
}
102
{ACAD_REACTORS
330
1A3
102
}
330
1A3
100
AcDbMLeaderStyle
179
     2
170
     2
171
     1
172
     0
 90
        2
 40
0.0
 41
0.0
173
     1
 91
-1056964608
340
14
 92
       -2
290
     1
 42
0.09
291
     1
 43
0.36
  3
Standard
 44
0.18
300

342
11
174
     1
178
     6
175
     1
176
     0
 93
-1056964608
 45
0.18
292
     0
297
     0
 46
0.18
 94
-1056964608
 47
1.0
 49
1.0
140
1.0
293
     1
141
0.0
294
     1
177
     0
142
1.0
295
     0
296
     0
143
0.125
271
     0
272
     9
273
     9
  0
MLINESTYLE
  5
18
102
{ACAD_REACTORS
330
17
102
}
330
17
100
AcDbMlineStyle
  2
STANDARD
 70
     0
  3

 62
   256
 51
90.0
 52
90.0
 71
     2
 49
0.5
 62
   256
  6
BYLAYER
 49
-0.5
 62
   256
  6
BYLAYER
  0
ACDBPLACEHOLDER
  5
F
102
{ACAD_REACTORS
330
E
102
}
330
E
  0
SCALE
  5
11B
102
{ACAD_REACTORS
330
11A
102
}
330
11A
100
AcDbScale
 70
     0
300
1:1
140
1.0
141
1.0
290
     1
  0
SCALE
  5
11C
102
{ACAD_REACTORS
330
11A
102
}
330
11A
100
AcDbScale
 70
     0
300
1:2
140
1.0
141
2.0
290
     0
  0
SCALE
  5
11D
102
{ACAD_REACTORS
330
11A
102
}
330
11A
100
AcDbScale
 70
     0
300
1:4
140
1.0
141
4.0
290
     0
  0
SCALE
  5
11E
102
{ACAD_REACTORS
330
11A
102
}
330
11A
100
AcDbScale
 70
     0
300
1:5
140
1.0
141
5.0
290
     0
  0
SCALE
  5
11F
102
{ACAD_REACTORS
330
11A
102
}
330
11A
100
AcDbScale
 70
     0
300
1:8
140
1.0
141
8.0
290
     0
  0
SCALE
  5
120
102
{ACAD_REACTORS
330
11A
102
}
330
11A
100
AcDbScale
 70
     0
300
1:10
140
1.0
141
10.0
290
     0
  0
SCALE
  5
121
102
{ACAD_REACTORS
330
11A
102
}
330
11A
100
AcDbScale
 70
     0
300
1:16
140
1.0
141
16.0
290
     0
  0
SCALE
  5
122
102
{ACAD_REACTORS
330
11A
102
}
330
11A
100
AcDbScale
 70
     0
300
1:20
140
1.0
141
20.0
290
     0
  0
SCALE
  5
123
102
{ACAD_REACTORS
330
11A
102
}
330
11A
100
AcDbScale
 70
     0
300
1:30
140
1.0
141
30.0
290
     0
  0
SCALE
  5
124
102
{ACAD_REACTORS
330
11A
102
}
330
11A
100
AcDbScale
 70
     0
300
1:40
140
1.0
141
40.0
290
     0
  0
SCALE
  5
125
102
{ACAD_REACTORS
330
11A
102
}
330
11A
100
AcDbScale
 70
     0
300
1:50
140
1.0
141
50.0
290
     0
  0
SCALE
  5
126
102
{ACAD_REACTORS
330
11A
102
}
330
11A
100
AcDbScale
 70
     0
300
1:100
140
1.0
141
100.0
290
     0
  0
SCALE
  5
127
102
{ACAD_REACTORS
330
11A
102
}
330
11A
100
AcDbScale
 70
     0
300
2:1
140
2.0
141
1.0
290
     0
  0
SCALE
  5
128
102
{ACAD_REACTORS
330
11A
102
}
330
11A
100
AcDbScale
 70
     0
300
4:1
140
4.0
141
1.0
290
     0
  0
SCALE
  5
129
102
{ACAD_REACTORS
330
11A
102
}
330
11A
100
AcDbScale
 70
     0
300
8:1
140
8.0
141
1.0
290
     0
  0
SCALE
  5
12A
102
{ACAD_REACTORS
330
11A
102
}
330
11A
100
AcDbScale
 70
     0
300
10:1
140
10.0
141
1.0
290
     0
  0
SCALE
  5
12B
102
{ACAD_REACTORS
330
11A
102
}
330
11A
100
AcDbScale
 70
     0
300
100:1
140
100.0
141
1.0
290
     0
  0
SCALE
  5
12C
102
{ACAD_REACTORS
330
11A
102
}
330
11A
100
AcDbScale
 70
     0
300
1/128" = 1'-0"
140
0.0078125
141
12.0
290
     0
  0
SCALE
  5
12D
102
{ACAD_REACTORS
330
11A
102
}
330
11A
100
AcDbScale
 70
     0
300
1/64" = 1'-0"
140
0.015625
141
12.0
290
     0
  0
SCALE
  5
12E
102
{ACAD_REACTORS
330
11A
102
}
330
11A
100
AcDbScale
 70
     0
300
1/32" = 1'-0"
140
0.03125
141
12.0
290
     0
  0
SCALE
  5
12F
102
{ACAD_REACTORS
330
11A
102
}
330
11A
100
AcDbScale
 70
     0
300
1/16" = 1'-0"
140
0.0625
141
12.0
290
     0
  0
SCALE
  5
130
102
{ACAD_REACTORS
330
11A
102
}
330
11A
100
AcDbScale
 70
     0
300
3/32" = 1'-0"
140
0.09375
141
12.0
290
     0
  0
SCALE
  5
131
102
{ACAD_REACTORS
330
11A
102
}
330
11A
100
AcDbScale
 70
     0
300
1/8" = 1'-0"
140
0.125
141
12.0
290
     0
  0
SCALE
  5
132
102
{ACAD_REACTORS
330
11A
102
}
330
11A
100
AcDbScale
 70
     0
300
3/16" = 1'-0"
140
0.1875
141
12.0
290
     0
  0
SCALE
  5
133
102
{ACAD_REACTORS
330
11A
102
}
330
11A
100
AcDbScale
 70
     0
300
1/4" = 1'-0"
140
0.25
141
12.0
290
     0
  0
SCALE
  5
134
102
{ACAD_REACTORS
330
11A
102
}
330
11A
100
AcDbScale
 70
     0
300
3/8" = 1'-0"
140
0.375
141
12.0
290
     0
  0
SCALE
  5
135
102
{ACAD_REACTORS
330
11A
102
}
330
11A
100
AcDbScale
 70
     0
300
1/2" = 1'-0"
140
0.5
141
12.0
290
     0
  0
SCALE
  5
136
102
{ACAD_REACTORS
330
11A
102
}
330
11A
100
AcDbScale
 70
     0
300
3/4" = 1'-0"
140
0.75
141
12.0
290
     0
  0
SCALE
  5
137
102
{ACAD_REACTORS
330
11A
102
}
330
11A
100
AcDbScale
 70
     0
300
1" = 1'-0"
140
1.0
141
12.0
290
     0
  0
SCALE
  5
138
102
{ACAD_REACTORS
330
11A
102
}
330
11A
100
AcDbScale
 70
     0
300
1-1/2" = 1'-0"
140
1.5
141
12.0
290
     0
  0
SCALE
  5
139
102
{ACAD_REACTORS
330
11A
102
}
330
11A
100
AcDbScale
 70
     0
300
3" = 1'-0"
140
3.0
141
12.0
290
     0
  0
SCALE
  5
13A
102
{ACAD_REACTORS
330
11A
102
}
330
11A
100
AcDbScale
 70
     0
300
6" = 1'-0"
140
6.0
141
12.0
290
     0
  0
SCALE
  5
13B
102
{ACAD_REACTORS
330
11A
102
}
330
11A
100
AcDbScale
 70
     0
300
1'-0" = 1'-0"
140
12.0
141
12.0
290
     0
  0
ACDBSECTIONVIEWSTYLE
  5
1B4
102
{ACAD_XDICTIONARY
360
241
102
}
102
{ACAD_REACTORS
330
1B3
102
}
330
1B3
100
AcDbModelDocViewStyle
 70
     0
  3
Imperial24
290
     0
100
AcDbSectionViewStyle
 70
     0
 71
     0
 90
       78
 71
     1
340
11
 62
   256
 40
0.24
340
0
340
0
 62
   256
 40
0.24
300
I, O, Q, S, X, Z
 40
0.48
 90
        3
 40
0.18
 90
        1
 71
     2
340
16
 90
       25
 62
   256
340
16
 90
       50
 62
   256
 40
0.24
 40
0.0
 40
0.24
 71
     3
340
11
 62
   256
 40
0.24
 90
        1
 40
0.75
 90
        1
300
%<\AcVar ViewType \f "%tc1">% %<\AcVar ViewSectionStartId>%-%<\AcVar ViewSectionEndId>%\PSCALE %<\AcVar ViewScale \f "%sn">%
 71
     4
 62
   256
 62
   257
300
ANSI31
 40
1.0
 90
        0
290
     0
290
     0
 90
        6
 40
0.0
 40
1.570796326794896
 40
0.2617993877991494
 40
1.308996938995747
 40
-0.2617993877991494
 40
1.832595714594046
  0
TABLESTYLE
  5
1B1
102
{ACAD_XDICTIONARY
360
3AA
102
}
102
{ACAD_REACTORS
330
1A2
102
}
330
1A2
100
AcDbTableStyle
280
     0
  3
Standard
 70
     0
 71
     0
 40
0.06
 41
0.06
280
     0
281
     0
  7
Standard
140
0.18
170
     2
 62
     0
 63
     7
283
     0
 90
      512
 91
        0
  1

274
    -2
284
     1
 64
     0
275
    -2
285
     1
 65
     0
276
    -2
286
     1
 66
     0
277
    -2
287
     1
 67
     0
278
    -2
288
     1
 68
     0
279
    -2
289
     1
 69
     0
  7
Standard
140
0.25
170
     5
 62
     0
 63
     7
283
     0
 90
      512
 91
        0
  1

274
    -2
284
     1
 64
     0
275
    -2
285
     1
 65
     0
276
    -2
286
     1
 66
     0
277
    -2
287
     1
 67
     0
278
    -2
288
     1
 68
     0
279
    -2
289
     1
 69
     0
  7
Standard
140
0.18
170
     5
 62
     0
 63
     7
283
     0
 90
      512
 91
        0
  1

274
    -2
284
     1
 64
     0
275
    -2
285
     1
 65
     0
276
    -2
286
     1
 66
     0
277
    -2
287
     1
 67
     0
278
    -2
288
     1
 68
     0
279
    -2
289
     1
 69
     0
  0
VISUALSTYLE
  5
2F
102
{ACAD_XDICTIONARY
360
3BE
102
}
102
{ACAD_REACTORS
330
2A
102
}
330
2A
100
AcDbVisualStyle
  2
2dWireframe
 70
     4
177
     2
291
     0
 71
     0
176
     1
 72
     2
176
     1
 73
     0
176
     1
 90
        0
176
     1
 40
0.6
176
     1
 41
30.0
176
     1
 63
     7
421
 16777215
176
     1
 74
     1
176
     1
 91
        4
176
     1
 64
     7
176
     1
 65
   257
176
     1
 75
     1
176
     1
175
     1
176
     1
 42
1.0
176
     1
 92
        0
176
     1
 66
   257
176
     1
 43
1.0
176
     1
 76
     1
176
     1
 77
     6
176
     1
 78
     2
176
     1
 67
     7
176
     1
 79
     5
176
     1
170
     0
176
     1
171
     0
176
     1
290
     0
176
     1
 93
        1
176
     1
 44
0.0
176
     1
173
     0
176
     1
1001
ACAD
1000
AcDbSavedByObjectVersion
1070
     0
  0
VISUALSTYLE
  5
31
102
{ACAD_XDICTIONARY
360
3C2
102
}
102
{ACAD_REACTORS
330
2A
102
}
330
2A
100
AcDbVisualStyle
  2
3D Hidden
 70
     6
177
     2
291
     0
 71
     1
176
     1
 72
     2
176
     1
 73
     2
176
     1
 90
        0
176
     1
 40
0.6
176
     1
 41
30.0
176
     1
 63
     7
421
 16777215
176
     1
 74
     2
176
     1
 91
        2
176
     1
 64
     7
176
     1
 65
   257
176
     1
 75
     2
176
     1
175
     1
176
     1
 42
40.0
176
     1
 92
        0
176
     1
 66
   257
176
     1
 43
1.0
176
     1
 76
     1
176
     1
 77
     6
176
     1
 78
     2
176
     1
 67
     7
176
     1
 79
     3
176
     1
170
     0
176
     1
171
     0
176
     1
290
     0
176
     1
 93
        1
176
     1
 44
0.0
176
     1
173
     0
176
     1
1001
ACAD
1000
AcDbSavedByObjectVersion
1070
     0
  0
VISUALSTYLE
  5
30
102
{ACAD_XDICTIONARY
360
3C0
102
}
102
{ACAD_REACTORS
330
2A
102
}
330
2A
100
AcDbVisualStyle
  2
3dWireframe
 70
     5
177
     2
291
     0
 71
     0
176
     1
 72
     2
176
     1
 73
     0
176
     1
 90
        0
176
     1
 40
0.6
176
     1
 41
30.0
176
     1
 63
     7
421
 16777215
176
     1
 74
     1
176
     1
 91
        4
176
     1
 64
     7
176
     1
 65
   257
176
     1
 75
     1
176
     1
175
     1
176
     1
 42
1.0
176
     1
 92
        0
176
     1
 66
   257
176
     1
 43
1.0
176
     1
 76
     1
176
     1
 77
     6
176
     1
 78
     2
176
     1
 67
     7
176
     1
 79
     5
176
     1
170
     0
176
     1
171
     0
176
     1
290
     0
176
     1
 93
        1
176
     1
 44
0.0
176
     1
173
     0
176
     1
1001
ACAD
1000
AcDbSavedByObjectVersion
1070
     0
  0
VISUALSTYLE
  5
32
102
{ACAD_XDICTIONARY
360
3C4
102
}
102
{ACAD_REACTORS
330
2A
102
}
330
2A
100
AcDbVisualStyle
  2
Basic
 70
     7
177
     2
291
     1
 71
     1
176
     1
 72
     0
176
     1
 73
     1
176
     1
 90
        0
176
     1
 40
0.6
176
     1
 41
30.0
176
     1
 63
     7
421
 16777215
176
     1
 74
     0
176
     1
 91
        4
176
     1
 64
     7
176
     1
 65
   257
176
     1
 75
     1
176
     1
175
     1
176
     1
 42
1.0
176
     1
 92
        8
176
     1
 66
     7
176
     1
 43
1.0
176
     1
 76
     1
176
     1
 77
     6
176
     1
 78
     2
176
     1
 67
     7
176
     1
 79
     5
176
     1
170
     0
176
     1
171
     0
176
     1
290
     0
176
     1
 93
        1
176
     1
 44
0.0
176
     1
173
     0
176
     1
1001
ACAD
1000
AcDbSavedByObjectVersion
1070
     0
  0
VISUALSTYLE
  5
36
102
{ACAD_XDICTIONARY
360
3CC
102
}
102
{ACAD_REACTORS
330
2A
102
}
330
2A
100
AcDbVisualStyle
  2
Brighten
 70
    12
177
     2
291
     1
 71
     2
176
     1
 72
     2
176
     1
 73
     0
176
     1
 90
        0
176
     1
 40
0.6
176
     1
 41
30.0
176
     1
 63
     7
421
 16777215
176
     1
 74
     1
176
     1
 91
        4
176
     1
 64
     7
176
     1
 65
   257
176
     1
 75
     1
176
     1
175
     1
176
     1
 42
1.0
176
     1
 92
        8
176
     1
 66
     7
176
     1
 43
1.0
176
     1
 76
     1
176
     1
 77
     6
176
     1
 78
     2
176
     1
 67
     7
176
     1
 79
     5
176
     1
170
     0
176
     1
171
     0
176
     1
290
     0
176
     1
 93
        1
176
     1
 44
50.0
176
     1
173
     0
176
     1
1001
ACAD
1000
AcDbSavedByObjectVersion
1070
     0
  0
VISUALSTYLE
  5
3A
102
{ACAD_XDICTIONARY
360
3D4
102
}
102
{ACAD_REACTORS
330
2A
102
}
330
2A
100
AcDbVisualStyle
  2
ColorChange
 70
    16
177
     2
291
     1
 71
     2
176
     1
 72
     2
176
     1
 73
     3
176
     1
 90
        0
176
     1
 40
0.6
176
     1
 41
30.0
176
     1
 63
     8
421
  8421504
176
     1
 74
     1
176
     1
 91
        4
176
     1
 64
     7
176
     1
 65
   257
176
     1
 75
     1
176
     1
175
     1
176
     1
 42
1.0
176
     1
 92
        8
176
     1
 66
     8
424
  8421504
176
     1
 43
1.0
176
     1
 76
     1
176
     1
 77
     6
176
     1
 78
     2
176
     1
 67
     7
176
     1
 79
     5
176
     1
170
     0
176
     1
171
     0
176
     1
290
     0
176
     1
 93
        1
176
     1
 44
0.0
176
     1
173
     0
176
     1
1001
ACAD
1000
AcDbSavedByObjectVersion
1070
     0
  0
VISUALSTYLE
  5
34
102
{ACAD_XDICTIONARY
360
3C8
102
}
102
{ACAD_REACTORS
330
2A
102
}
330
2A
100
AcDbVisualStyle
  2
Conceptual
 70
     9
177
     2
291
     0
 71
     3
176
     1
 72
     2
176
     1
 73
     0
176
     1
 90
        0
176
     1
 40
0.6
176
     1
 41
30.0
176
     1
 63
     7
421
 16777215
176
     1
 74
     2
176
     1
 91
        2
176
     1
 64
     7
176
     1
 65
   257
176
     1
 75
     1
176
     1
175
     1
176
     1
 42
40.0
176
     1
 92
        8
176
     1
 66
     7
176
     1
 43
1.0
176
     1
 76
     1
176
     1
 77
     6
176
     1
 78
     2
176
     1
 67
     7
176
     1
 79
     3
176
     1
170
     0
176
     1
171
     0
176
     1
290
     0
176
     1
 93
        1
176
     1
 44
0.0
176
     1
173
     0
176
     1
1001
ACAD
1000
AcDbSavedByObjectVersion
1070
     0
  0
VISUALSTYLE
  5
35
102
{ACAD_XDICTIONARY
360
3CA
102
}
102
{ACAD_REACTORS
330
2A
102
}
330
2A
100
AcDbVisualStyle
  2
Dim
 70
    11
177
     2
291
     1
 71
     2
176
     1
 72
     2
176
     1
 73
     0
176
     1
 90
        0
176
     1
 40
0.6
176
     1
 41
30.0
176
     1
 63
     7
421
 16777215
176
     1
 74
     1
176
     1
 91
        4
176
     1
 64
     7
176
     1
 65
   257
176
     1
 75
     1
176
     1
175
     1
176
     1
 42
1.0
176
     1
 92
        8
176
     1
 66
     7
176
     1
 43
1.0
176
     1
 76
     1
176
     1
 77
     6
176
     1
 78
     2
176
     1
 67
     7
176
     1
 79
     5
176
     1
170
     0
176
     1
171
     0
176
     1
290
     0
176
     1
 93
        1
176
     1
 44
-50.0
176
     1
173
     0
176
     1
1001
ACAD
1000
AcDbSavedByObjectVersion
1070
     0
  0
VISUALSTYLE
  5
1AF
102
{ACAD_XDICTIONARY
360
3E8
102
}
102
{ACAD_REACTORS
330
2A
102
}
330
2A
100
AcDbVisualStyle
  2
EdgeColorOff
 70
    22
177
     2
291
     1
 71
     2
176
     0
 72
     2
176
     0
 73
     0
176
     0
 90
        0
176
     0
 40
0.6
176
     0
 41
30.0
176
     0
 63
     7
421
 16777215
176
     0
 74
     1
176
     0
 91
        4
176
     0
 64
     7
176
     0
 65
   257
176
     0
 75
     1
176
     0
175
     1
176
     0
 42
1.0
176
     0
 92
        8
176
     2
 66
     7
176
     0
 43
1.0
176
     0
 76
     1
176
     0
 77
     6
176
     0
 78
     2
176
     0
 67
     7
176
     0
 79
     5
176
     0
170
     0
176
     0
171
     0
176
     0
290
     0
176
     0
 93
        1
176
     0
 44
0.0
176
     0
173
     0
176
     0
1001
ACAD
1000
AcDbSavedByObjectVersion
1070
     0
  0
VISUALSTYLE
  5
39
102
{ACAD_XDICTIONARY
360
3D2
102
}
102
{ACAD_REACTORS
330
2A
102
}
330
2A
100
AcDbVisualStyle
  2
Facepattern
 70
    15
177
     2
291
     1
 71
     2
176
     1
 72
     2
176
     1
 73
     0
176
     1
 90
        0
176
     1
 40
0.6
176
     1
 41
30.0
176
     1
 63
     7
421
 16777215
176
     1
 74
     1
176
     1
 91
        4
176
     1
 64
     7
176
     1
 65
   257
176
     1
 75
     1
176
     1
175
     1
176
     1
 42
1.0
176
     1
 92
        8
176
     1
 66
     7
176
     1
 43
1.0
176
     1
 76
     1
176
     1
 77
     6
176
     1
 78
     2
176
     1
 67
     7
176
     1
 79
     5
176
     1
170
     0
176
     1
171
     0
176
     1
290
     0
176
     1
 93
        1
176
     1
 44
0.0
176
     1
173
     0
176
     1
1001
ACAD
1000
AcDbSavedByObjectVersion
1070
     0
  0
VISUALSTYLE
  5
2B
102
{ACAD_XDICTIONARY
360
3B6
102
}
102
{ACAD_REACTORS
330
2A
102
}
330
2A
100
AcDbVisualStyle
  2
Flat
 70
     0
177
     2
291
     1
 71
     2
176
     1
 72
     1
176
     1
 73
     1
176
     1
 90
        2
176
     1
 40
0.6
176
     1
 41
30.0
176
     1
 63
     7
421
 16777215
176
     1
 74
     0
176
     1
 91
        4
176
     1
 64
     7
176
     1
 65
   257
176
     1
 75
     1
176
     1
175
     1
176
     1
 42
1.0
176
     1
 92
        8
176
     1
 66
     7
176
     1
 43
1.0
176
     1
 76
     1
176
     1
 77
     6
176
     1
 78
     2
176
     1
 67
     7
176
     1
 79
     5
176
     1
170
     0
176
     1
171
     0
176
     1
290
     0
176
     1
 93
       13
176
     1
 44
0.0
176
     1
173
     0
176
     1
1001
ACAD
1000
AcDbSavedByObjectVersion
1070
     0
  0
VISUALSTYLE
  5
2C
102
{ACAD_XDICTIONARY
360
3B8
102
}
102
{ACAD_REACTORS
330
2A
102
}
330
2A
100
AcDbVisualStyle
  2
FlatWithEdges
 70
     1
177
     2
291
     1
 71
     2
176
     1
 72
     1
176
     1
 73
     1
176
     1
 90
        2
176
     1
 40
0.6
176
     1
 41
30.0
176
     1
 63
     7
421
 16777215
176
     1
 74
     1
176
     1
 91
        4
176
     1
 64
     7
176
     1
 65
   257
176
     1
 75
     1
176
     1
175
     1
176
     1
 42
1.0
176
     1
 92
        0
176
     1
 66
   257
176
     1
 43
1.0
176
     1
 76
     1
176
     1
 77
     6
176
     1
 78
     2
176
     1
 67
     7
176
     1
 79
     5
176
     1
170
     0
176
     1
171
     0
176
     1
290
     0
176
     1
 93
       13
176
     1
 44
0.0
176
     1
173
     0
176
     1
1001
ACAD
1000
AcDbSavedByObjectVersion
1070
     0
  0
VISUALSTYLE
  5
2D
102
{ACAD_XDICTIONARY
360
3BA
102
}
102
{ACAD_REACTORS
330
2A
102
}
330
2A
100
AcDbVisualStyle
  2
Gouraud
 70
     2
177
     2
291
     1
 71
     2
176
     1
 72
     2
176
     1
 73
     1
176
     1
 90
        2
176
     1
 40
0.6
176
     1
 41
30.0
176
     1
 63
     7
421
 16777215
176
     1
 74
     0
176
     1
 91
        4
176
     1
 64
     7
176
     1
 65
   257
176
     1
 75
     1
176
     1
175
     1
176
     1
 42
1.0
176
     1
 92
        0
176
     1
 66
     7
176
     1
 43
1.0
176
     1
 76
     1
176
     1
 77
     6
176
     1
 78
     2
176
     1
 67
     7
176
     1
 79
     5
176
     1
170
     0
176
     1
171
     0
176
     1
290
     0
176
     1
 93
       13
176
     1
 44
0.0
176
     1
173
     0
176
     1
1001
ACAD
1000
AcDbSavedByObjectVersion
1070
     0
  0
VISUALSTYLE
  5
2E
102
{ACAD_XDICTIONARY
360
3BC
102
}
102
{ACAD_REACTORS
330
2A
102
}
330
2A
100
AcDbVisualStyle
  2
GouraudWithEdges
 70
     3
177
     2
291
     1
 71
     2
176
     1
 72
     2
176
     1
 73
     1
176
     1
 90
        2
176
     1
 40
0.6
176
     1
 41
30.0
176
     1
 63
     7
421
 16777215
176
     1
 74
     1
176
     1
 91
        4
176
     1
 64
     7
176
     1
 65
   257
176
     1
 75
     1
176
     1
175
     1
176
     1
 42
1.0
176
     1
 92
        0
176
     1
 66
   257
176
     1
 43
1.0
176
     1
 76
     1
176
     1
 77
     6
176
     1
 78
     2
176
     1
 67
     7
176
     1
 79
     5
176
     1
170
     0
176
     1
171
     0
176
     1
290
     0
176
     1
 93
       13
176
     1
 44
0.0
176
     1
173
     0
176
     1
1001
ACAD
1000
AcDbSavedByObjectVersion
1070
     0
  0
VISUALSTYLE
  5
1A7
102
{ACAD_XDICTIONARY
360
3D8
102
}
102
{ACAD_REACTORS
330
2A
102
}
330
2A
100
AcDbVisualStyle
  2
Hidden
 70
     6
177
     2
291
     0
 71
     1
176
     1
 72
     2
176
     1
 73
     2
176
     1
 90
        0
176
     1
 40
0.6
176
     1
 41
30.0
176
     1
 63
     7
421
 16777215
176
     1
 74
     2
176
     1
 91
        2
176
     1
 64
     7
176
     1
 65
   257
176
     1
 75
     2
176
     1
175
     1
176
     1
 42
40.0
176
     1
 92
        0
176
     1
 66
   257
176
     1
 43
1.0
176
     1
 76
     1
176
     1
 77
     6
176
     1
 78
     2
176
     1
 67
     7
176
     1
 79
     3
176
     1
170
     0
176
     1
171
     0
176
     1
290
     0
176
     1
 93
        1
176
     1
 44
0.0
176
     1
173
     0
176
     1
1001
ACAD
1000
AcDbSavedByObjectVersion
1070
     0
  0
VISUALSTYLE
  5
1AD
102
{ACAD_XDICTIONARY
360
3E4
102
}
102
{ACAD_REACTORS
330
2A
102
}
330
2A
100
AcDbVisualStyle
  2
JitterOff
 70
    20
177
     2
291
     1
 71
     2
176
     0
 72
     2
176
     0
 73
     0
176
     0
 90
        0
176
     0
 40
0.6
176
     0
 41
30.0
176
     0
 63
     7
421
 16777215
176
     0
 74
     1
176
     0
 91
        4
176
     0
 64
     7
176
     0
 65
   257
176
     0
 75
     1
176
     0
175
     1
176
     0
 42
1.0
176
     0
 92
       10
176
     2
 66
     7
176
     0
 43
1.0
176
     0
 76
     1
176
     0
 77
     6
176
     0
 78
     2
176
     0
 67
     7
176
     0
 79
     5
176
     0
170
     0
176
     0
171
     0
176
     0
290
     0
176
     0
 93
        1
176
     0
 44
0.0
176
     0
173
     0
176
     0
1001
ACAD
1000
AcDbSavedByObjectVersion
1070
     0
  0
VISUALSTYLE
  5
38
102
{ACAD_XDICTIONARY
360
3D0
102
}
102
{ACAD_REACTORS
330
2A
102
}
330
2A
100
AcDbVisualStyle
  2
Linepattern
 70
    14
177
     2
291
     1
 71
     2
176
     1
 72
     2
176
     1
 73
     0
176
     1
 90
        0
176
     1
 40
0.6
176
     1
 41
30.0
176
     1
 63
     7
421
 16777215
176
     1
 74
     1
176
     1
 91
        4
176
     1
 64
     7
176
     1
 65
   257
176
     1
 75
     7
176
     1
175
     7
176
     1
 42
1.0
176
     1
 92
        8
176
     1
 66
     7
176
     1
 43
1.0
176
     1
 76
     1
176
     1
 77
     6
176
     1
 78
     2
176
     1
 67
     7
176
     1
 79
     5
176
     1
170
     0
176
     1
171
     0
176
     1
290
     0
176
     1
 93
        1
176
     1
 44
0.0
176
     1
173
     0
176
     1
1001
ACAD
1000
AcDbSavedByObjectVersion
1070
     0
  0
VISUALSTYLE
  5
1AE
102
{ACAD_XDICTIONARY
360
3E6
102
}
102
{ACAD_REACTORS
330
2A
102
}
330
2A
100
AcDbVisualStyle
  2
OverhangOff
 70
    21
177
     2
291
     1
 71
     2
176
     0
 72
     2
176
     0
 73
     0
176
     0
 90
        0
176
     0
 40
0.6
176
     0
 41
30.0
176
     0
 63
     7
421
 16777215
176
     0
 74
     1
176
     0
 91
        4
176
     0
 64
     7
176
     0
 65
   257
176
     0
 75
     1
176
     0
175
     1
176
     0
 42
1.0
176
     0
 92
        9
176
     2
 66
     7
176
     0
 43
1.0
176
     0
 76
     1
176
     0
 77
     6
176
     0
 78
     2
176
     0
 67
     7
176
     0
 79
     5
176
     0
170
     0
176
     0
171
     0
176
     0
290
     0
176
     0
 93
        1
176
     0
 44
0.0
176
     0
173
     0
176
     0
1001
ACAD
1000
AcDbSavedByObjectVersion
1070
     0
  0
VISUALSTYLE
  5
33
102
{ACAD_XDICTIONARY
360
3C6
102
}
102
{ACAD_REACTORS
330
2A
102
}
330
2A
100
AcDbVisualStyle
  2
Realistic
 70
     8
177
     2
291
     0
 71
     2
176
     1
 72
     2
176
     1
 73
     0
176
     1
 90
        0
176
     1
 40
0.6
176
     1
 41
30.0
176
     1
 63
     7
421
 16777215
176
     1
 74
     1
176
     1
 91
        0
176
     1
 64
     7
176
     1
 65
   257
176
     1
 75
     1
176
     1
175
     1
176
     1
 42
1.0
176
     1
 92
        8
176
     1
 66
     8
424
  7895160
176
     1
 43
1.0
176
     1
 76
     1
176
     1
 77
     6
176
     1
 78
     2
176
     1
 67
     7
176
     1
 79
     5
176
     1
170
     0
176
     1
171
     0
176
     1
290
     0
176
     1
 93
       13
176
     1
 44
0.0
176
     1
173
     0
176
     1
1001
ACAD
1000
AcDbSavedByObjectVersion
1070
     0
  0
VISUALSTYLE
  5
1AC
102
{ACAD_XDICTIONARY
360
3E2
102
}
102
{ACAD_REACTORS
330
2A
102
}
330
2A
100
AcDbVisualStyle
  2
Shaded
 70
    27
177
     2
291
     0
 71
     2
176
     1
 72
     2
176
     1
 73
     1
176
     1
 90
        2
176
     1
 40
0.6
176
     1
 41
30.0
176
     1
 63
     7
421
 16777215
176
     1
 74
     0
176
     1
 91
        4
176
     1
 64
     7
176
     1
 65
   257
176
     1
 75
     1
176
     1
175
     1
176
     1
 42
1.0
176
     1
 92
        8
176
     1
 66
   257
176
     1
 43
1.0
176
     1
 76
     1
176
     1
 77
     6
176
     1
 78
     2
176
     1
 67
     8
425
  7895160
176
     1
 79
     3
176
     1
170
     0
176
     1
171
     0
176
     1
290
     0
176
     1
 93
        5
176
     1
 44
0.0
176
     1
173
     0
176
     1
1001
ACAD
1000
AcDbSavedByObjectVersion
1070
     0
  0
VISUALSTYLE
  5
1AB
102
{ACAD_XDICTIONARY
360
3E0
102
}
102
{ACAD_REACTORS
330
2A
102
}
330
2A
100
AcDbVisualStyle
  2
Shaded with edges
 70
    26
177
     2
291
     0
 71
     2
176
     1
 72
     2
176
     1
 73
     1
176
     1
 90
        2
176
     1
 40
0.6
176
     1
 41
30.0
176
     1
 63
     7
421
 16777215
176
     1
 74
     1
176
     1
 91
       10
176
     1
 64
     7
176
     1
 65
   257
176
     1
 75
     2
176
     1
175
     1
176
     1
 42
1.0
176
     1
 92
        8
176
     1
 66
   257
176
     1
 43
1.0
176
     1
 76
     1
176
     1
 77
     6
176
     1
 78
     2
176
     1
 67
     7
176
     1
 79
     3
176
     1
170
     0
176
     1
171
     0
176
     1
290
     0
176
     1
 93
        5
176
     1
 44
0.0
176
     1
173
     0
176
     1
1001
ACAD
1000
AcDbSavedByObjectVersion
1070
     0
  0
VISUALSTYLE
  5
1A8
102
{ACAD_XDICTIONARY
360
3DA
102
}
102
{ACAD_REACTORS
330
2A
102
}
330
2A
100
AcDbVisualStyle
  2
Shades of Gray
 70
    23
177
     2
291
     0
 71
     2
176
     1
 72
     2
176
     1
 73
     3
176
     1
 90
        0
176
     1
 40
0.6
176
     1
 41
30.0
176
     1
 63
     7
421
 16777215
176
     1
 74
     2
176
     1
 91
        2
176
     1
 64
     7
176
     1
 65
     7
176
     1
 75
     1
176
     1
175
     1
176
     1
 42
40.0
176
     1
 92
        8
176
     1
 66
     7
176
     1
 43
1.0
176
     1
 76
     1
176
     1
 77
     6
176
     1
 78
     2
176
     1
 67
     7
176
     1
 79
     3
176
     1
170
     0
176
     1
171
     0
176
     1
290
     0
176
     1
 93
        1
176
     1
 44
0.0
176
     1
173
     0
176
     1
1001
ACAD
1000
AcDbSavedByObjectVersion
1070
     0
  0
VISUALSTYLE
  5
1A9
102
{ACAD_XDICTIONARY
360
3DC
102
}
102
{ACAD_REACTORS
330
2A
102
}
330
2A
100
AcDbVisualStyle
  2
Sketchy
 70
    24
177
     2
291
     0
 71
     1
176
     1
 72
     2
176
     1
 73
     2
176
     1
 90
        0
176
     1
 40
0.6
176
     1
 41
30.0
176
     1
 63
     7
421
 16777215
176
     1
 74
     2
176
     1
 91
        2
176
     1
 64
     7
176
     1
 65
     7
176
     1
 75
     1
176
     1
175
     1
176
     1
 42
40.0
176
     1
 92
       11
176
     1
 66
     7
176
     1
 43
1.0
176
     1
 76
     1
176
     1
 77
     6
176
     1
 78
     2
176
     1
 67
     7
176
     1
 79
     6
176
     1
170
     0
176
     1
171
     0
176
     1
290
     0
176
     1
 93
        1
176
     1
 44
0.0
176
     1
173
     0
176
     1
1001
ACAD
1000
AcDbSavedByObjectVersion
1070
     0
  0
VISUALSTYLE
  5
37
102
{ACAD_XDICTIONARY
360
3CE
102
}
102
{ACAD_REACTORS
330
2A
102
}
330
2A
100
AcDbVisualStyle
  2
Thicken
 70
    13
177
     2
291
     1
 71
     2
176
     1
 72
     2
176
     1
 73
     0
176
     1
 90
        0
176
     1
 40
0.6
176
     1
 41
30.0
176
     1
 63
     7
421
 16777215
176
     1
 74
     1
176
     1
 91
        4
176
     1
 64
     7
176
     1
 65
   257
176
     1
 75
     1
176
     1
175
     1
176
     1
 42
1.0
176
     1
 92
       12
176
     1
 66
     7
176
     1
 43
1.0
176
     1
 76
     1
176
     1
 77
     6
176
     1
 78
     2
176
     1
 67
     7
176
     1
 79
     5
176
     1
170
     0
176
     1
171
     0
176
     1
290
     0
176
     1
 93
        1
176
     1
 44
0.0
176
     1
173
     0
176
     1
1001
ACAD
1000
AcDbSavedByObjectVersion
1070
     0
  0
VISUALSTYLE
  5
1A6
102
{ACAD_XDICTIONARY
360
3D6
102
}
102
{ACAD_REACTORS
330
2A
102
}
330
2A
100
AcDbVisualStyle
  2
Wireframe
 70
     5
177
     2
291
     0
 71
     0
176
     1
 72
     2
176
     1
 73
     0
176
     1
 90
        0
176
     1
 40
0.6
176
     1
 41
30.0
176
     1
 63
     7
421
 16777215
176
     1
 74
     1
176
     1
 91
        4
176
     1
 64
     7
176
     1
 65
   257
176
     1
 75
     1
176
     1
175
     1
176
     1
 42
1.0
176
     1
 92
        0
176
     1
 66
   257
176
     1
 43
1.0
176
     1
 76
     1
176
     1
 77
     6
176
     1
 78
     2
176
     1
 67
     7
176
     1
 79
     3
176
     1
170
     0
176
     1
171
     0
176
     1
290
     0
176
     1
 93
        1
176
     1
 44
0.0
176
     1
173
     0
176
     1
1001
ACAD
1000
AcDbSavedByObjectVersion
1070
     0
  0
VISUALSTYLE
  5
1AA
102
{ACAD_XDICTIONARY
360
3DE
102
}
102
{ACAD_REACTORS
330
2A
102
}
330
2A
100
AcDbVisualStyle
  2
X-Ray
 70
    25
177
     2
291
     0
 71
     2
176
     1
 72
     2
176
     1
 73
     1
176
     1
 90
        1
176
     1
 40
0.5
176
     1
 41
30.0
176
     1
 63
     7
421
 16777215
176
     1
 74
     1
176
     1
 91
        0
176
     1
 64
     7
176
     1
 65
   257
176
     1
 75
     1
176
     1
175
     1
176
     1
 42
1.0
176
     1
 92
        8
176
     1
 66
     7
176
     1
 43
1.0
176
     1
 76
     1
176
     1
 77
     6
176
     1
 78
     2
176
     1
 67
     7
176
     1
 79
     3
176
     1
170
     0
176
     1
171
     0
176
     1
290
     0
176
     1
 93
       13
176
     1
 44
0.0
176
     1
173
     0
176
     1
1001
ACAD
1000
AcDbSavedByObjectVersion
1070
     0
  0
DICTIONARYVAR
  5
181
102
{ACAD_REACTORS
330
180
102
}
330
180
100
DictionaryVariables
280
     0
  1
1:1
  0
DICTIONARYVAR
  5
247
102
{ACAD_REACTORS
330
180
102
}
330
180
100
DictionaryVariables
280
     0
  1
STANDARD
  0
DICTIONARYVAR
  5
246
102
{ACAD_REACTORS
330
180
102
}
330
180
100
DictionaryVariables
280
     0
  1
STANDARD
  0
DICTIONARYVAR
  5
248
102
{ACAD_REACTORS
330
180
102
}
330
180
100
DictionaryVariables
280
     0
  1
Imperial24
  0
DICTIONARYVAR
  5
249
102
{ACAD_REACTORS
330
180
102
}
330
180
100
DictionaryVariables
280
     0
  1
Imperial24
  0
DICTIONARYVAR
  5
22F
102
{ACAD_REACTORS
330
180
102
}
330
180
100
DictionaryVariables
280
     0
  1
RGB:95,95,95
  0
DICTIONARYVAR
  5
24A
102
{ACAD_REACTORS
330
180
102
}
330
180
100
DictionaryVariables
280
     0
  1
1
  0
DICTIONARYVAR
  5
24B
102
{ACAD_REACTORS
330
180
102
}
330
180
100
DictionaryVariables
280
     0
  1
15
  0
DICTIONARY
  5
3B5
102
{ACAD_REACTORS
330
3B3
102
}
330
3B3
100
AcDbDictionary
281
     1
  0
DICTIONARY
  5
3B4
102
{ACAD_REACTORS
330
3B3
102
}
330
3B3
100
AcDbDictionary
281
     1
  3
2127760616
350
3AD
  3
2127760624
350
3AE
  3
2127760632
350
3AF
  3
2127760640
350
3B0
  3
2127760648
350
3B1
  3
2127760656
350
3B2
  0
XRECORD
  5
17F
102
{ACAD_REACTORS
330
17E
102
}
330
17E
100
AcDbXrecord
280
     1
1000
This DWG file was created in ArchiCAD(TM)®
  0
DICTIONARY
  5
243
330
1B6
100
AcDbDictionary
280
     1
281
     1
  3
ACAD_XREC_ROUNDTRIP
360
3ED
  0
DICTIONARY
  5
3EA
330
1B2
100
AcDbDictionary
280
     1
281
     1
  3
ACAD_XREC_ROUNDTRIP
360
3EB
  0
DICTIONARY
  5
241
330
1B4
100
AcDbDictionary
280
     1
281
     1
  3
ACAD_XREC_ROUNDTRIP
360
3EC
  0
DICTIONARY
  5
3AA
330
1B1
100
AcDbDictionary
280
     1
281
     1
  3
ACAD_ROUNDTRIP_2008_TABLESTYLE_CELLSTYLEMAP
360
3AB
  0
DICTIONARY
  5
3BE
330
2F
100
AcDbDictionary
280
     1
281
     1
  3
ACAD_XREC_ROUNDTRIP
360
3BF
  0
DICTIONARY
  5
3C2
330
31
100
AcDbDictionary
280
     1
281
     1
  3
ACAD_XREC_ROUNDTRIP
360
3C3
  0
DICTIONARY
  5
3C0
330
30
100
AcDbDictionary
280
     1
281
     1
  3
ACAD_XREC_ROUNDTRIP
360
3C1
  0
DICTIONARY
  5
3C4
330
32
100
AcDbDictionary
280
     1
281
     1
  3
ACAD_XREC_ROUNDTRIP
360
3C5
  0
DICTIONARY
  5
3CC
330
36
100
AcDbDictionary
280
     1
281
     1
  3
ACAD_XREC_ROUNDTRIP
360
3CD
  0
DICTIONARY
  5
3D4
330
3A
100
AcDbDictionary
280
     1
281
     1
  3
ACAD_XREC_ROUNDTRIP
360
3D5
  0
DICTIONARY
  5
3C8
330
34
100
AcDbDictionary
280
     1
281
     1
  3
ACAD_XREC_ROUNDTRIP
360
3C9
  0
DICTIONARY
  5
3CA
330
35
100
AcDbDictionary
280
     1
281
     1
  3
ACAD_XREC_ROUNDTRIP
360
3CB
  0
DICTIONARY
  5
3E8
330
1AF
100
AcDbDictionary
280
     1
281
     1
  3
ACAD_XREC_ROUNDTRIP
360
3E9
  0
DICTIONARY
  5
3D2
330
39
100
AcDbDictionary
280
     1
281
     1
  3
ACAD_XREC_ROUNDTRIP
360
3D3
  0
DICTIONARY
  5
3B6
330
2B
100
AcDbDictionary
280
     1
281
     1
  3
ACAD_XREC_ROUNDTRIP
360
3B7
  0
DICTIONARY
  5
3B8
330
2C
100
AcDbDictionary
280
     1
281
     1
  3
ACAD_XREC_ROUNDTRIP
360
3B9
  0
DICTIONARY
  5
3BA
330
2D
100
AcDbDictionary
280
     1
281
     1
  3
ACAD_XREC_ROUNDTRIP
360
3BB
  0
DICTIONARY
  5
3BC
330
2E
100
AcDbDictionary
280
     1
281
     1
  3
ACAD_XREC_ROUNDTRIP
360
3BD
  0
DICTIONARY
  5
3D8
330
1A7
100
AcDbDictionary
280
     1
281
     1
  3
ACAD_XREC_ROUNDTRIP
360
3D9
  0
DICTIONARY
  5
3E4
330
1AD
100
AcDbDictionary
280
     1
281
     1
  3
ACAD_XREC_ROUNDTRIP
360
3E5
  0
DICTIONARY
  5
3D0
330
38
100
AcDbDictionary
280
     1
281
     1
  3
ACAD_XREC_ROUNDTRIP
360
3D1
  0
DICTIONARY
  5
3E6
330
1AE
100
AcDbDictionary
280
     1
281
     1
  3
ACAD_XREC_ROUNDTRIP
360
3E7
  0
DICTIONARY
  5
3C6
330
33
100
AcDbDictionary
280
     1
281
     1
  3
ACAD_XREC_ROUNDTRIP
360
3C7
  0
DICTIONARY
  5
3E2
330
1AC
100
AcDbDictionary
280
     1
281
     1
  3
ACAD_XREC_ROUNDTRIP
360
3E3
  0
DICTIONARY
  5
3E0
330
1AB
100
AcDbDictionary
280
     1
281
     1
  3
ACAD_XREC_ROUNDTRIP
360
3E1
  0
DICTIONARY
  5
3DA
330
1A8
100
AcDbDictionary
280
     1
281
     1
  3
ACAD_XREC_ROUNDTRIP
360
3DB
  0
DICTIONARY
  5
3DC
330
1A9
100
AcDbDictionary
280
     1
281
     1
  3
ACAD_XREC_ROUNDTRIP
360
3DD
  0
DICTIONARY
  5
3CE
330
37
100
AcDbDictionary
280
     1
281
     1
  3
ACAD_XREC_ROUNDTRIP
360
3CF
  0
DICTIONARY
  5
3D6
330
1A6
100
AcDbDictionary
280
     1
281
     1
  3
ACAD_XREC_ROUNDTRIP
360
3D7
  0
DICTIONARY
  5
3DE
330
1AA
100
AcDbDictionary
280
     1
281
     1
  3
ACAD_XREC_ROUNDTRIP
360
3DF
  0
XRECORD
  5
3AD
102
{ACAD_REACTORS
330
3B4
102
}
330
3B4
100
AcDbXrecord
280
     1
  1
AcDb_Thumbnail_Schema
102
{ATTRRECORD
341
3AE
  2
AcDbDs::TreatedAsObjectData
280
     1
291
     1
102
ATTRRECORD}
102
{ATTRRECORD
341
3AF
  2
AcDbDs::Legacy
280
     1
291
     1
102
ATTRRECORD}
  2
AcDbDs::ID
280
    10
 91
        8
102
{ATTRRECORD
341
3B0
  2
AcDs:Indexable
280
     1
291
     1
102
ATTRRECORD}
102
{ATTRRECORD
341
3B1
  2
AcDbDs::HandleAttribute
280
     7
282
     1
102
ATTRRECORD}
  2
Thumbnail_Data
280
    15
 91
        0
  0
XRECORD
  5
3AE
102
{ACAD_REACTORS
330
3B4
102
}
330
3B4
100
AcDbXrecord
280
     1
  1
AcDbDs::TreatedAsObjectDataSchema
  2
AcDbDs::TreatedAsObjectData
280
     1
 91
        0
  0
XRECORD
  5
3AF
102
{ACAD_REACTORS
330
3B4
102
}
330
3B4
100
AcDbXrecord
280
     1
  1
AcDbDs::LegacySchema
  2
AcDbDs::Legacy
280
     1
 91
        0
  0
XRECORD
  5
3B0
102
{ACAD_REACTORS
330
3B4
102
}
330
3B4
100
AcDbXrecord
280
     1
  1
AcDbDs::IndexedPropertySchema
  2
AcDs:Indexable
280
     1
 91
        0
  0
XRECORD
  5
3B1
102
{ACAD_REACTORS
330
3B4
102
}
330
3B4
100
AcDbXrecord
280
     1
  1
AcDbDs::HandleAttributeSchema
  2
AcDbDs::HandleAttribute
280
     7
 91
        1
284
     1
  0
XRECORD
  5
3B2
102
{ACAD_REACTORS
330
3B4
102
}
330
3B4
100
AcDbXrecord
280
     1
  1
AcDb3DSolid_ASM_Data
102
{ATTRRECORD
341
3AE
  2
AcDbDs::TreatedAsObjectData
280
     1
291
     1
102
ATTRRECORD}
102
{ATTRRECORD
341
3AF
  2
AcDbDs::Legacy
280
     1
291
     1
102
ATTRRECORD}
  2
AcDbDs::ID
280
    10
 91
        8
102
{ATTRRECORD
341
3B0
  2
AcDs:Indexable
280
     1
291
     1
102
ATTRRECORD}
102
{ATTRRECORD
341
3B1
  2
AcDbDs::HandleAttribute
280
     7
282
     1
102
ATTRRECORD}
  2
ASM_Data
280
    15
 91
        0
  0
XRECORD
  5
3ED
102
{ACAD_REACTORS
330
243
102
}
330
243
100
AcDbXrecord
280
     1
102
DISPLAYNAME
  1
Imperial24
102
FLAGS
 90
        0
  0
XRECORD
  5
3EB
102
{ACAD_REACTORS
330
3EA
102
}
330
3EA
100
AcDbXrecord
280
     1
102
ACAD_ROUNDTRIP_2012_MLEADER_STYLE
298
     1
  0
XRECORD
  5
3EC
102
{ACAD_REACTORS
330
241
102
}
330
241
100
AcDbXrecord
280
     1
102
DISPLAYNAME
  1
Imperial24
102
FLAGS
 90
        0
  0
CELLSTYLEMAP
  5
3AB
102
{ACAD_REACTORS
330
3AA
102
}
330
3AA
100
AcDbCellStyleMap
 90
        3
300
CELLSTYLE
  1
TABLEFORMAT_BEGIN
 90
        5
170
     1
 91
        0
 92
    32768
 62
   257
 93
        1
300
CONTENTFORMAT
  1
CONTENTFORMAT_BEGIN
 90
        0
 91
        0
 92
      512
 93
        0
300

 40
0.0
140
1.0
 94
        5
 62
     0
340
11
144
0.25
309
CONTENTFORMAT_END
171
     0
 94
        0
309
TABLEFORMAT_END
  1
CELLSTYLE_BEGIN
 90
        1
 91
        1
300
_TITLE
309
CELLSTYLE_END
300
CELLSTYLE
  1
TABLEFORMAT_BEGIN
 90
        5
170
     1
 91
        0
 92
        0
 62
   257
 93
        1
300
CONTENTFORMAT
  1
CONTENTFORMAT_BEGIN
 90
        0
 91
        0
 92
      512
 93
        0
300

 40
0.0
140
1.0
 94
        5
 62
     0
340
11
144
0.18
309
CONTENTFORMAT_END
171
     0
 94
        0
309
TABLEFORMAT_END
  1
CELLSTYLE_BEGIN
 90
        2
 91
        1
300
_HEADER
309
CELLSTYLE_END
300
CELLSTYLE
  1
TABLEFORMAT_BEGIN
 90
        5
170
     1
 91
        0
 92
        0
 62
   257
 93
        1
300
CONTENTFORMAT
  1
CONTENTFORMAT_BEGIN
 90
        0
 91
        0
 92
      512
 93
        0
300

 40
0.0
140
1.0
 94
        2
 62
     0
340
11
144
0.18
309
CONTENTFORMAT_END
171
     0
 94
        0
309
TABLEFORMAT_END
  1
CELLSTYLE_BEGIN
 90
        3
 91
        2
300
_DATA
309
CELLSTYLE_END
  0
XRECORD
  5
3BF
102
{ACAD_REACTORS
330
3BE
102
}
330
3BE
100
AcDbXrecord
280
     1
102
RTVSPost2010Prop28
280
     1
102
RTVSPost2010PropOp28
 70
     1
102
RTVSPost2010Prop29
280
     1
102
RTVSPost2010PropOp29
 70
     1
102
RTVSPost2010Prop30
280
     0
102
RTVSPost2010PropOp30
 70
     1
102
RTVSPost2010Prop31
280
     0
102
RTVSPost2010PropOp31
 70
     1
102
RTVSPost2010Prop32
280
     0
102
RTVSPost2010PropOp32
 70
     1
102
RTVSPost2010Prop33
280
     0
102
RTVSPost2010PropOp33
 70
     1
102
RTVSPost2010Prop34
280
     0
102
RTVSPost2010PropOp34
 70
     1
102
RTVSPost2010Prop35
280
     0
102
RTVSPost2010PropOp35
 70
     1
102
RTVSPost2010Prop36
280
     0
102
RTVSPost2010PropOp36
 70
     1
102
RTVSPost2010Prop37
 90
       50
102
RTVSPost2010PropOp37
 70
     1
102
RTVSPost2010Prop38
140
0.0
102
RTVSPost2010PropOp38
 70
     1
102
RTVSPost2010Prop39
140
1.0
102
RTVSPost2010PropOp39
 70
     1
102
RTVSPost2010Prop40
 90
        0
102
RTVSPost2010PropOp40
 70
     1
102
RTVSPost2010Prop41ColorIndex
 90
       18
102
RTVSPost2010Prop41ColorRGB
 90
        0
102
RTVSPost2010PropOp41
 70
     1
102
RTVSPost2010Prop42
 90
       50
102
RTVSPost2010PropOp42
 70
     1
102
RTVSPost2010Prop43
 90
        3
102
RTVSPost2010PropOp43
 70
     1
102
RTVSPost2010Prop44ColorIndex
 90
        5
102
RTVSPost2010Prop44ColorRGB
 90
      255
102
RTVSPost2010PropOp44
 70
     1
102
RTVSPost2010Prop45
280
     0
102
RTVSPost2010PropOp45
 70
     1
102
RTVSPost2010Prop46
 90
       50
102
RTVSPost2010PropOp46
 70
     1
102
RTVSPost2010Prop47
 90
       50
102
RTVSPost2010PropOp47
 70
     1
102
RTVSPost2010Prop48
 90
       50
102
RTVSPost2010PropOp48
 70
     1
102
RTVSPost2010Prop49
280
     0
102
RTVSPost2010PropOp49
 70
     1
102
RTVSPost2010Prop50
 90
       50
102
RTVSPost2010PropOp50
 70
     1
102
RTVSPost2010Prop51ColorIndex
 90
      256
102
RTVSPost2010Prop51ColorRGB
 90
-16777216
102
RTVSPost2010PropOp51
 70
     0
102
RTVSPost2010Prop52
140
1.0
102
RTVSPost2010PropOp52
 70
     0
102
RTVSPost2010Prop53
 90
        2
102
RTVSPost2010PropOp53
 70
     1
102
RTVSPost2010Prop54
  1
strokes_ogs.tif
102
RTVSPost2010PropOp54
 70
     1
102
RTVSPost2010Prop55
280
     0
102
RTVSPost2010PropOp55
 70
     1
102
RTVSPost2010Prop56
140
1.0
102
RTVSPost2010PropOp56
 70
     1
102
RTVSPost2010Prop57
140
1.0
102
RTVSPost2010PropOp57
 70
     1
  0
XRECORD
  5
3C3
102
{ACAD_REACTORS
330
3C2
102
}
330
3C2
100
AcDbXrecord
280
     1
102
RTVSPost2010Prop28
280
     0
102
RTVSPost2010PropOp28
 70
     1
102
RTVSPost2010Prop29
280
     1
102
RTVSPost2010PropOp29
 70
     1
102
RTVSPost2010Prop30
280
     1
102
RTVSPost2010PropOp30
 70
     1
102
RTVSPost2010Prop31
280
     0
102
RTVSPost2010PropOp31
 70
     1
102
RTVSPost2010Prop32
280
     0
102
RTVSPost2010PropOp32
 70
     1
102
RTVSPost2010Prop33
280
     0
102
RTVSPost2010PropOp33
 70
     1
102
RTVSPost2010Prop34
280
     0
102
RTVSPost2010PropOp34
 70
     1
102
RTVSPost2010Prop35
280
     0
102
RTVSPost2010PropOp35
 70
     1
102
RTVSPost2010Prop36
280
     0
102
RTVSPost2010PropOp36
 70
     1
102
RTVSPost2010Prop37
 90
       50
102
RTVSPost2010PropOp37
 70
     1
102
RTVSPost2010Prop38
140
0.0
102
RTVSPost2010PropOp38
 70
     1
102
RTVSPost2010Prop39
140
1.0
102
RTVSPost2010PropOp39
 70
     1
102
RTVSPost2010Prop40
 90
        0
102
RTVSPost2010PropOp40
 70
     1
102
RTVSPost2010Prop41ColorIndex
 90
       18
102
RTVSPost2010Prop41ColorRGB
 90
        0
102
RTVSPost2010PropOp41
 70
     1
102
RTVSPost2010Prop42
 90
       50
102
RTVSPost2010PropOp42
 70
     1
102
RTVSPost2010Prop43
 90
        3
102
RTVSPost2010PropOp43
 70
     1
102
RTVSPost2010Prop44ColorIndex
 90
        5
102
RTVSPost2010Prop44ColorRGB
 90
      255
102
RTVSPost2010PropOp44
 70
     1
102
RTVSPost2010Prop45
280
     0
102
RTVSPost2010PropOp45
 70
     1
102
RTVSPost2010Prop46
 90
       50
102
RTVSPost2010PropOp46
 70
     1
102
RTVSPost2010Prop47
 90
       50
102
RTVSPost2010PropOp47
 70
     1
102
RTVSPost2010Prop48
 90
       50
102
RTVSPost2010PropOp48
 70
     1
102
RTVSPost2010Prop49
280
     0
102
RTVSPost2010PropOp49
 70
     1
102
RTVSPost2010Prop50
 90
       50
102
RTVSPost2010PropOp50
 70
     1
102
RTVSPost2010Prop51ColorIndex
 90
      256
102
RTVSPost2010Prop51ColorRGB
 90
-16777216
102
RTVSPost2010PropOp51
 70
     0
102
RTVSPost2010Prop52
140
1.0
102
RTVSPost2010PropOp52
 70
     0
102
RTVSPost2010Prop53
 90
        2
102
RTVSPost2010PropOp53
 70
     1
102
RTVSPost2010Prop54
  1
strokes_ogs.tif
102
RTVSPost2010PropOp54
 70
     1
102
RTVSPost2010Prop55
280
     0
102
RTVSPost2010PropOp55
 70
     1
102
RTVSPost2010Prop56
140
1.0
102
RTVSPost2010PropOp56
 70
     1
102
RTVSPost2010Prop57
140
1.0
102
RTVSPost2010PropOp57
 70
     1
  0
XRECORD
  5
3C1
102
{ACAD_REACTORS
330
3C0
102
}
330
3C0
100
AcDbXrecord
280
     1
102
RTVSPost2010Prop28
280
     0
102
RTVSPost2010PropOp28
 70
     1
102
RTVSPost2010Prop29
280
     1
102
RTVSPost2010PropOp29
 70
     1
102
RTVSPost2010Prop30
280
     1
102
RTVSPost2010PropOp30
 70
     1
102
RTVSPost2010Prop31
280
     0
102
RTVSPost2010PropOp31
 70
     1
102
RTVSPost2010Prop32
280
     0
102
RTVSPost2010PropOp32
 70
     1
102
RTVSPost2010Prop33
280
     0
102
RTVSPost2010PropOp33
 70
     1
102
RTVSPost2010Prop34
280
     0
102
RTVSPost2010PropOp34
 70
     1
102
RTVSPost2010Prop35
280
     0
102
RTVSPost2010PropOp35
 70
     1
102
RTVSPost2010Prop36
280
     0
102
RTVSPost2010PropOp36
 70
     1
102
RTVSPost2010Prop37
 90
       50
102
RTVSPost2010PropOp37
 70
     1
102
RTVSPost2010Prop38
140
0.0
102
RTVSPost2010PropOp38
 70
     1
102
RTVSPost2010Prop39
140
1.0
102
RTVSPost2010PropOp39
 70
     1
102
RTVSPost2010Prop40
 90
        0
102
RTVSPost2010PropOp40
 70
     1
102
RTVSPost2010Prop41ColorIndex
 90
       18
102
RTVSPost2010Prop41ColorRGB
 90
        0
102
RTVSPost2010PropOp41
 70
     1
102
RTVSPost2010Prop42
 90
       50
102
RTVSPost2010PropOp42
 70
     1
102
RTVSPost2010Prop43
 90
        3
102
RTVSPost2010PropOp43
 70
     1
102
RTVSPost2010Prop44ColorIndex
 90
        5
102
RTVSPost2010Prop44ColorRGB
 90
      255
102
RTVSPost2010PropOp44
 70
     1
102
RTVSPost2010Prop45
280
     0
102
RTVSPost2010PropOp45
 70
     1
102
RTVSPost2010Prop46
 90
       50
102
RTVSPost2010PropOp46
 70
     1
102
RTVSPost2010Prop47
 90
       50
102
RTVSPost2010PropOp47
 70
     1
102
RTVSPost2010Prop48
 90
       50
102
RTVSPost2010PropOp48
 70
     1
102
RTVSPost2010Prop49
280
     0
102
RTVSPost2010PropOp49
 70
     1
102
RTVSPost2010Prop50
 90
       50
102
RTVSPost2010PropOp50
 70
     1
102
RTVSPost2010Prop51ColorIndex
 90
      256
102
RTVSPost2010Prop51ColorRGB
 90
-16777216
102
RTVSPost2010PropOp51
 70
     0
102
RTVSPost2010Prop52
140
1.0
102
RTVSPost2010PropOp52
 70
     0
102
RTVSPost2010Prop53
 90
        2
102
RTVSPost2010PropOp53
 70
     1
102
RTVSPost2010Prop54
  1
strokes_ogs.tif
102
RTVSPost2010PropOp54
 70
     1
102
RTVSPost2010Prop55
280
     0
102
RTVSPost2010PropOp55
 70
     1
102
RTVSPost2010Prop56
140
1.0
102
RTVSPost2010PropOp56
 70
     1
102
RTVSPost2010Prop57
140
1.0
102
RTVSPost2010PropOp57
 70
     1
  0
XRECORD
  5
3C5
102
{ACAD_REACTORS
330
3C4
102
}
330
3C4
100
AcDbXrecord
280
     1
102
RTVSPost2010Prop28
280
     0
102
RTVSPost2010PropOp28
 70
     1
102
RTVSPost2010Prop29
280
     1
102
RTVSPost2010PropOp29
 70
     1
102
RTVSPost2010Prop30
280
     1
102
RTVSPost2010PropOp30
 70
     1
102
RTVSPost2010Prop31
280
     0
102
RTVSPost2010PropOp31
 70
     1
102
RTVSPost2010Prop32
280
     0
102
RTVSPost2010PropOp32
 70
     1
102
RTVSPost2010Prop33
280
     0
102
RTVSPost2010PropOp33
 70
     1
102
RTVSPost2010Prop34
280
     0
102
RTVSPost2010PropOp34
 70
     1
102
RTVSPost2010Prop35
280
     0
102
RTVSPost2010PropOp35
 70
     1
102
RTVSPost2010Prop36
280
     0
102
RTVSPost2010PropOp36
 70
     1
102
RTVSPost2010Prop37
 90
       50
102
RTVSPost2010PropOp37
 70
     1
102
RTVSPost2010Prop38
140
0.0
102
RTVSPost2010PropOp38
 70
     1
102
RTVSPost2010Prop39
140
1.0
102
RTVSPost2010PropOp39
 70
     1
102
RTVSPost2010Prop40
 90
        0
102
RTVSPost2010PropOp40
 70
     1
102
RTVSPost2010Prop41ColorIndex
 90
       18
102
RTVSPost2010Prop41ColorRGB
 90
        0
102
RTVSPost2010PropOp41
 70
     1
102
RTVSPost2010Prop42
 90
       50
102
RTVSPost2010PropOp42
 70
     1
102
RTVSPost2010Prop43
 90
        3
102
RTVSPost2010PropOp43
 70
     1
102
RTVSPost2010Prop44ColorIndex
 90
        5
102
RTVSPost2010Prop44ColorRGB
 90
      255
102
RTVSPost2010PropOp44
 70
     1
102
RTVSPost2010Prop45
280
     0
102
RTVSPost2010PropOp45
 70
     1
102
RTVSPost2010Prop46
 90
       50
102
RTVSPost2010PropOp46
 70
     1
102
RTVSPost2010Prop47
 90
       50
102
RTVSPost2010PropOp47
 70
     1
102
RTVSPost2010Prop48
 90
       50
102
RTVSPost2010PropOp48
 70
     1
102
RTVSPost2010Prop49
280
     0
102
RTVSPost2010PropOp49
 70
     1
102
RTVSPost2010Prop50
 90
       50
102
RTVSPost2010PropOp50
 70
     1
102
RTVSPost2010Prop51ColorIndex
 90
      256
102
RTVSPost2010Prop51ColorRGB
 90
-16777216
102
RTVSPost2010PropOp51
 70
     0
102
RTVSPost2010Prop52
140
1.0
102
RTVSPost2010PropOp52
 70
     0
102
RTVSPost2010Prop53
 90
        2
102
RTVSPost2010PropOp53
 70
     1
102
RTVSPost2010Prop54
  1
strokes_ogs.tif
102
RTVSPost2010PropOp54
 70
     1
102
RTVSPost2010Prop55
280
     0
102
RTVSPost2010PropOp55
 70
     1
102
RTVSPost2010Prop56
140
1.0
102
RTVSPost2010PropOp56
 70
     1
102
RTVSPost2010Prop57
140
1.0
102
RTVSPost2010PropOp57
 70
     1
  0
XRECORD
  5
3CD
102
{ACAD_REACTORS
330
3CC
102
}
330
3CC
100
AcDbXrecord
280
     1
102
RTVSPost2010Prop28
280
     0
102
RTVSPost2010PropOp28
 70
     1
102
RTVSPost2010Prop29
280
     1
102
RTVSPost2010PropOp29
 70
     1
102
RTVSPost2010Prop30
280
     1
102
RTVSPost2010PropOp30
 70
     1
102
RTVSPost2010Prop31
280
     0
102
RTVSPost2010PropOp31
 70
     1
102
RTVSPost2010Prop32
280
     0
102
RTVSPost2010PropOp32
 70
     1
102
RTVSPost2010Prop33
280
     0
102
RTVSPost2010PropOp33
 70
     1
102
RTVSPost2010Prop34
280
     0
102
RTVSPost2010PropOp34
 70
     1
102
RTVSPost2010Prop35
280
     0
102
RTVSPost2010PropOp35
 70
     1
102
RTVSPost2010Prop36
280
     0
102
RTVSPost2010PropOp36
 70
     1
102
RTVSPost2010Prop37
 90
       50
102
RTVSPost2010PropOp37
 70
     1
102
RTVSPost2010Prop38
140
0.0
102
RTVSPost2010PropOp38
 70
     1
102
RTVSPost2010Prop39
140
1.0
102
RTVSPost2010PropOp39
 70
     1
102
RTVSPost2010Prop40
 90
        0
102
RTVSPost2010PropOp40
 70
     1
102
RTVSPost2010Prop41ColorIndex
 90
       18
102
RTVSPost2010Prop41ColorRGB
 90
        0
102
RTVSPost2010PropOp41
 70
     1
102
RTVSPost2010Prop42
 90
       50
102
RTVSPost2010PropOp42
 70
     1
102
RTVSPost2010Prop43
 90
        3
102
RTVSPost2010PropOp43
 70
     1
102
RTVSPost2010Prop44ColorIndex
 90
        5
102
RTVSPost2010Prop44ColorRGB
 90
      255
102
RTVSPost2010PropOp44
 70
     1
102
RTVSPost2010Prop45
280
     0
102
RTVSPost2010PropOp45
 70
     1
102
RTVSPost2010Prop46
 90
       50
102
RTVSPost2010PropOp46
 70
     1
102
RTVSPost2010Prop47
 90
       50
102
RTVSPost2010PropOp47
 70
     1
102
RTVSPost2010Prop48
 90
       50
102
RTVSPost2010PropOp48
 70
     1
102
RTVSPost2010Prop49
280
     0
102
RTVSPost2010PropOp49
 70
     1
102
RTVSPost2010Prop50
 90
       50
102
RTVSPost2010PropOp50
 70
     1
102
RTVSPost2010Prop51ColorIndex
 90
      256
102
RTVSPost2010Prop51ColorRGB
 90
-16777216
102
RTVSPost2010PropOp51
 70
     0
102
RTVSPost2010Prop52
140
1.0
102
RTVSPost2010PropOp52
 70
     0
102
RTVSPost2010Prop53
 90
        2
102
RTVSPost2010PropOp53
 70
     1
102
RTVSPost2010Prop54
  1
strokes_ogs.tif
102
RTVSPost2010PropOp54
 70
     1
102
RTVSPost2010Prop55
280
     0
102
RTVSPost2010PropOp55
 70
     1
102
RTVSPost2010Prop56
140
1.0
102
RTVSPost2010PropOp56
 70
     1
102
RTVSPost2010Prop57
140
1.0
102
RTVSPost2010PropOp57
 70
     1
  0
XRECORD
  5
3D5
102
{ACAD_REACTORS
330
3D4
102
}
330
3D4
100
AcDbXrecord
280
     1
102
RTVSPost2010Prop28
280
     0
102
RTVSPost2010PropOp28
 70
     1
102
RTVSPost2010Prop29
280
     1
102
RTVSPost2010PropOp29
 70
     1
102
RTVSPost2010Prop30
280
     1
102
RTVSPost2010PropOp30
 70
     1
102
RTVSPost2010Prop31
280
     0
102
RTVSPost2010PropOp31
 70
     1
102
RTVSPost2010Prop32
280
     0
102
RTVSPost2010PropOp32
 70
     1
102
RTVSPost2010Prop33
280
     0
102
RTVSPost2010PropOp33
 70
     1
102
RTVSPost2010Prop34
280
     0
102
RTVSPost2010PropOp34
 70
     1
102
RTVSPost2010Prop35
280
     0
102
RTVSPost2010PropOp35
 70
     1
102
RTVSPost2010Prop36
280
     0
102
RTVSPost2010PropOp36
 70
     1
102
RTVSPost2010Prop37
 90
       50
102
RTVSPost2010PropOp37
 70
     1
102
RTVSPost2010Prop38
140
0.0
102
RTVSPost2010PropOp38
 70
     1
102
RTVSPost2010Prop39
140
1.0
102
RTVSPost2010PropOp39
 70
     1
102
RTVSPost2010Prop40
 90
        0
102
RTVSPost2010PropOp40
 70
     1
102
RTVSPost2010Prop41ColorIndex
 90
       18
102
RTVSPost2010Prop41ColorRGB
 90
        0
102
RTVSPost2010PropOp41
 70
     1
102
RTVSPost2010Prop42
 90
       50
102
RTVSPost2010PropOp42
 70
     1
102
RTVSPost2010Prop43
 90
        3
102
RTVSPost2010PropOp43
 70
     1
102
RTVSPost2010Prop44ColorIndex
 90
        5
102
RTVSPost2010Prop44ColorRGB
 90
      255
102
RTVSPost2010PropOp44
 70
     1
102
RTVSPost2010Prop45
280
     0
102
RTVSPost2010PropOp45
 70
     1
102
RTVSPost2010Prop46
 90
       50
102
RTVSPost2010PropOp46
 70
     1
102
RTVSPost2010Prop47
 90
       50
102
RTVSPost2010PropOp47
 70
     1
102
RTVSPost2010Prop48
 90
       50
102
RTVSPost2010PropOp48
 70
     1
102
RTVSPost2010Prop49
280
     0
102
RTVSPost2010PropOp49
 70
     1
102
RTVSPost2010Prop50
 90
       50
102
RTVSPost2010PropOp50
 70
     1
102
RTVSPost2010Prop51ColorIndex
 90
      256
102
RTVSPost2010Prop51ColorRGB
 90
-16777216
102
RTVSPost2010PropOp51
 70
     0
102
RTVSPost2010Prop52
140
1.0
102
RTVSPost2010PropOp52
 70
     0
102
RTVSPost2010Prop53
 90
        2
102
RTVSPost2010PropOp53
 70
     1
102
RTVSPost2010Prop54
  1
strokes_ogs.tif
102
RTVSPost2010PropOp54
 70
     1
102
RTVSPost2010Prop55
280
     0
102
RTVSPost2010PropOp55
 70
     1
102
RTVSPost2010Prop56
140
1.0
102
RTVSPost2010PropOp56
 70
     1
102
RTVSPost2010Prop57
140
1.0
102
RTVSPost2010PropOp57
 70
     1
  0
XRECORD
  5
3C9
102
{ACAD_REACTORS
330
3C8
102
}
330
3C8
100
AcDbXrecord
280
     1
102
RTVSPost2010Prop28
280
     0
102
RTVSPost2010PropOp28
 70
     1
102
RTVSPost2010Prop29
280
     1
102
RTVSPost2010PropOp29
 70
     1
102
RTVSPost2010Prop30
280
     1
102
RTVSPost2010PropOp30
 70
     1
102
RTVSPost2010Prop31
280
     0
102
RTVSPost2010PropOp31
 70
     1
102
RTVSPost2010Prop32
280
     0
102
RTVSPost2010PropOp32
 70
     1
102
RTVSPost2010Prop33
280
     0
102
RTVSPost2010PropOp33
 70
     1
102
RTVSPost2010Prop34
280
     0
102
RTVSPost2010PropOp34
 70
     1
102
RTVSPost2010Prop35
280
     0
102
RTVSPost2010PropOp35
 70
     1
102
RTVSPost2010Prop36
280
     0
102
RTVSPost2010PropOp36
 70
     1
102
RTVSPost2010Prop37
 90
       50
102
RTVSPost2010PropOp37
 70
     1
102
RTVSPost2010Prop38
140
0.0
102
RTVSPost2010PropOp38
 70
     1
102
RTVSPost2010Prop39
140
1.0
102
RTVSPost2010PropOp39
 70
     1
102
RTVSPost2010Prop40
 90
        0
102
RTVSPost2010PropOp40
 70
     1
102
RTVSPost2010Prop41ColorIndex
 90
       18
102
RTVSPost2010Prop41ColorRGB
 90
        0
102
RTVSPost2010PropOp41
 70
     1
102
RTVSPost2010Prop42
 90
       50
102
RTVSPost2010PropOp42
 70
     1
102
RTVSPost2010Prop43
 90
        3
102
RTVSPost2010PropOp43
 70
     1
102
RTVSPost2010Prop44ColorIndex
 90
        5
102
RTVSPost2010Prop44ColorRGB
 90
      255
102
RTVSPost2010PropOp44
 70
     1
102
RTVSPost2010Prop45
280
     0
102
RTVSPost2010PropOp45
 70
     1
102
RTVSPost2010Prop46
 90
       50
102
RTVSPost2010PropOp46
 70
     1
102
RTVSPost2010Prop47
 90
       50
102
RTVSPost2010PropOp47
 70
     1
102
RTVSPost2010Prop48
 90
       50
102
RTVSPost2010PropOp48
 70
     1
102
RTVSPost2010Prop49
280
     0
102
RTVSPost2010PropOp49
 70
     1
102
RTVSPost2010Prop50
 90
       50
102
RTVSPost2010PropOp50
 70
     1
102
RTVSPost2010Prop51ColorIndex
 90
      256
102
RTVSPost2010Prop51ColorRGB
 90
-16777216
102
RTVSPost2010PropOp51
 70
     0
102
RTVSPost2010Prop52
140
1.0
102
RTVSPost2010PropOp52
 70
     0
102
RTVSPost2010Prop53
 90
        2
102
RTVSPost2010PropOp53
 70
     1
102
RTVSPost2010Prop54
  1
strokes_ogs.tif
102
RTVSPost2010PropOp54
 70
     1
102
RTVSPost2010Prop55
280
     0
102
RTVSPost2010PropOp55
 70
     1
102
RTVSPost2010Prop56
140
1.0
102
RTVSPost2010PropOp56
 70
     1
102
RTVSPost2010Prop57
140
1.0
102
RTVSPost2010PropOp57
 70
     1
  0
XRECORD
  5
3CB
102
{ACAD_REACTORS
330
3CA
102
}
330
3CA
100
AcDbXrecord
280
     1
102
RTVSPost2010Prop28
280
     0
102
RTVSPost2010PropOp28
 70
     1
102
RTVSPost2010Prop29
280
     1
102
RTVSPost2010PropOp29
 70
     1
102
RTVSPost2010Prop30
280
     1
102
RTVSPost2010PropOp30
 70
     1
102
RTVSPost2010Prop31
280
     0
102
RTVSPost2010PropOp31
 70
     1
102
RTVSPost2010Prop32
280
     0
102
RTVSPost2010PropOp32
 70
     1
102
RTVSPost2010Prop33
280
     0
102
RTVSPost2010PropOp33
 70
     1
102
RTVSPost2010Prop34
280
     0
102
RTVSPost2010PropOp34
 70
     1
102
RTVSPost2010Prop35
280
     0
102
RTVSPost2010PropOp35
 70
     1
102
RTVSPost2010Prop36
280
     0
102
RTVSPost2010PropOp36
 70
     1
102
RTVSPost2010Prop37
 90
       50
102
RTVSPost2010PropOp37
 70
     1
102
RTVSPost2010Prop38
140
0.0
102
RTVSPost2010PropOp38
 70
     1
102
RTVSPost2010Prop39
140
1.0
102
RTVSPost2010PropOp39
 70
     1
102
RTVSPost2010Prop40
 90
        0
102
RTVSPost2010PropOp40
 70
     1
102
RTVSPost2010Prop41ColorIndex
 90
       18
102
RTVSPost2010Prop41ColorRGB
 90
        0
102
RTVSPost2010PropOp41
 70
     1
102
RTVSPost2010Prop42
 90
       50
102
RTVSPost2010PropOp42
 70
     1
102
RTVSPost2010Prop43
 90
        3
102
RTVSPost2010PropOp43
 70
     1
102
RTVSPost2010Prop44ColorIndex
 90
        5
102
RTVSPost2010Prop44ColorRGB
 90
      255
102
RTVSPost2010PropOp44
 70
     1
102
RTVSPost2010Prop45
280
     0
102
RTVSPost2010PropOp45
 70
     1
102
RTVSPost2010Prop46
 90
       50
102
RTVSPost2010PropOp46
 70
     1
102
RTVSPost2010Prop47
 90
       50
102
RTVSPost2010PropOp47
 70
     1
102
RTVSPost2010Prop48
 90
       50
102
RTVSPost2010PropOp48
 70
     1
102
RTVSPost2010Prop49
280
     0
102
RTVSPost2010PropOp49
 70
     1
102
RTVSPost2010Prop50
 90
       50
102
RTVSPost2010PropOp50
 70
     1
102
RTVSPost2010Prop51ColorIndex
 90
      256
102
RTVSPost2010Prop51ColorRGB
 90
-16777216
102
RTVSPost2010PropOp51
 70
     0
102
RTVSPost2010Prop52
140
1.0
102
RTVSPost2010PropOp52
 70
     0
102
RTVSPost2010Prop53
 90
        2
102
RTVSPost2010PropOp53
 70
     1
102
RTVSPost2010Prop54
  1
strokes_ogs.tif
102
RTVSPost2010PropOp54
 70
     1
102
RTVSPost2010Prop55
280
     0
102
RTVSPost2010PropOp55
 70
     1
102
RTVSPost2010Prop56
140
1.0
102
RTVSPost2010PropOp56
 70
     1
102
RTVSPost2010Prop57
140
1.0
102
RTVSPost2010PropOp57
 70
     1
  0
XRECORD
  5
3E9
102
{ACAD_REACTORS
330
3E8
102
}
330
3E8
100
AcDbXrecord
280
     1
102
RTVSPost2010Prop28
280
     0
102
RTVSPost2010PropOp28
 70
     0
102
RTVSPost2010Prop29
280
     1
102
RTVSPost2010PropOp29
 70
     0
102
RTVSPost2010Prop30
280
     1
102
RTVSPost2010PropOp30
 70
     0
102
RTVSPost2010Prop31
280
     0
102
RTVSPost2010PropOp31
 70
     0
102
RTVSPost2010Prop32
280
     0
102
RTVSPost2010PropOp32
 70
     0
102
RTVSPost2010Prop33
280
     0
102
RTVSPost2010PropOp33
 70
     0
102
RTVSPost2010Prop34
280
     0
102
RTVSPost2010PropOp34
 70
     0
102
RTVSPost2010Prop35
280
     0
102
RTVSPost2010PropOp35
 70
     0
102
RTVSPost2010Prop36
280
     0
102
RTVSPost2010PropOp36
 70
     0
102
RTVSPost2010Prop37
 90
       50
102
RTVSPost2010PropOp37
 70
     0
102
RTVSPost2010Prop38
140
0.0
102
RTVSPost2010PropOp38
 70
     0
102
RTVSPost2010Prop39
140
1.0
102
RTVSPost2010PropOp39
 70
     0
102
RTVSPost2010Prop40
 90
        0
102
RTVSPost2010PropOp40
 70
     0
102
RTVSPost2010Prop41ColorIndex
 90
       18
102
RTVSPost2010Prop41ColorRGB
 90
        0
102
RTVSPost2010PropOp41
 70
     0
102
RTVSPost2010Prop42
 90
       50
102
RTVSPost2010PropOp42
 70
     0
102
RTVSPost2010Prop43
 90
        3
102
RTVSPost2010PropOp43
 70
     0
102
RTVSPost2010Prop44ColorIndex
 90
        5
102
RTVSPost2010Prop44ColorRGB
 90
      255
102
RTVSPost2010PropOp44
 70
     0
102
RTVSPost2010Prop45
280
     0
102
RTVSPost2010PropOp45
 70
     0
102
RTVSPost2010Prop46
 90
       50
102
RTVSPost2010PropOp46
 70
     0
102
RTVSPost2010Prop47
 90
       50
102
RTVSPost2010PropOp47
 70
     0
102
RTVSPost2010Prop48
 90
       50
102
RTVSPost2010PropOp48
 70
     0
102
RTVSPost2010Prop49
280
     0
102
RTVSPost2010PropOp49
 70
     0
102
RTVSPost2010Prop50
 90
       50
102
RTVSPost2010PropOp50
 70
     0
102
RTVSPost2010Prop51ColorIndex
 90
      256
102
RTVSPost2010Prop51ColorRGB
 90
-16777216
102
RTVSPost2010PropOp51
 70
     0
102
RTVSPost2010Prop52
140
1.0
102
RTVSPost2010PropOp52
 70
     0
102
RTVSPost2010Prop53
 90
        2
102
RTVSPost2010PropOp53
 70
     0
102
RTVSPost2010Prop54
  1
strokes_ogs.tif
102
RTVSPost2010PropOp54
 70
     0
102
RTVSPost2010Prop55
280
     0
102
RTVSPost2010PropOp55
 70
     0
102
RTVSPost2010Prop56
140
1.0
102
RTVSPost2010PropOp56
 70
     0
102
RTVSPost2010Prop57
140
1.0
102
RTVSPost2010PropOp57
 70
     0
  0
XRECORD
  5
3D3
102
{ACAD_REACTORS
330
3D2
102
}
330
3D2
100
AcDbXrecord
280
     1
102
RTVSPost2010Prop28
280
     0
102
RTVSPost2010PropOp28
 70
     1
102
RTVSPost2010Prop29
280
     1
102
RTVSPost2010PropOp29
 70
     1
102
RTVSPost2010Prop30
280
     1
102
RTVSPost2010PropOp30
 70
     1
102
RTVSPost2010Prop31
280
     0
102
RTVSPost2010PropOp31
 70
     1
102
RTVSPost2010Prop32
280
     0
102
RTVSPost2010PropOp32
 70
     1
102
RTVSPost2010Prop33
280
     0
102
RTVSPost2010PropOp33
 70
     1
102
RTVSPost2010Prop34
280
     0
102
RTVSPost2010PropOp34
 70
     1
102
RTVSPost2010Prop35
280
     0
102
RTVSPost2010PropOp35
 70
     1
102
RTVSPost2010Prop36
280
     0
102
RTVSPost2010PropOp36
 70
     1
102
RTVSPost2010Prop37
 90
       50
102
RTVSPost2010PropOp37
 70
     1
102
RTVSPost2010Prop38
140
0.0
102
RTVSPost2010PropOp38
 70
     1
102
RTVSPost2010Prop39
140
1.0
102
RTVSPost2010PropOp39
 70
     1
102
RTVSPost2010Prop40
 90
        0
102
RTVSPost2010PropOp40
 70
     1
102
RTVSPost2010Prop41ColorIndex
 90
       18
102
RTVSPost2010Prop41ColorRGB
 90
        0
102
RTVSPost2010PropOp41
 70
     1
102
RTVSPost2010Prop42
 90
       50
102
RTVSPost2010PropOp42
 70
     1
102
RTVSPost2010Prop43
 90
        3
102
RTVSPost2010PropOp43
 70
     1
102
RTVSPost2010Prop44ColorIndex
 90
        5
102
RTVSPost2010Prop44ColorRGB
 90
      255
102
RTVSPost2010PropOp44
 70
     1
102
RTVSPost2010Prop45
280
     0
102
RTVSPost2010PropOp45
 70
     1
102
RTVSPost2010Prop46
 90
       50
102
RTVSPost2010PropOp46
 70
     1
102
RTVSPost2010Prop47
 90
       50
102
RTVSPost2010PropOp47
 70
     1
102
RTVSPost2010Prop48
 90
       50
102
RTVSPost2010PropOp48
 70
     1
102
RTVSPost2010Prop49
280
     0
102
RTVSPost2010PropOp49
 70
     1
102
RTVSPost2010Prop50
 90
       50
102
RTVSPost2010PropOp50
 70
     1
102
RTVSPost2010Prop51ColorIndex
 90
      256
102
RTVSPost2010Prop51ColorRGB
 90
-16777216
102
RTVSPost2010PropOp51
 70
     0
102
RTVSPost2010Prop52
140
1.0
102
RTVSPost2010PropOp52
 70
     0
102
RTVSPost2010Prop53
 90
        2
102
RTVSPost2010PropOp53
 70
     1
102
RTVSPost2010Prop54
  1
strokes_ogs.tif
102
RTVSPost2010PropOp54
 70
     1
102
RTVSPost2010Prop55
280
     0
102
RTVSPost2010PropOp55
 70
     1
102
RTVSPost2010Prop56
140
1.0
102
RTVSPost2010PropOp56
 70
     1
102
RTVSPost2010Prop57
140
1.0
102
RTVSPost2010PropOp57
 70
     1
  0
XRECORD
  5
3B7
102
{ACAD_REACTORS
330
3B6
102
}
330
3B6
100
AcDbXrecord
280
     1
102
RTVSPost2010Prop28
280
     0
102
RTVSPost2010PropOp28
 70
     1
102
RTVSPost2010Prop29
280
     1
102
RTVSPost2010PropOp29
 70
     1
102
RTVSPost2010Prop30
280
     1
102
RTVSPost2010PropOp30
 70
     1
102
RTVSPost2010Prop31
280
     0
102
RTVSPost2010PropOp31
 70
     1
102
RTVSPost2010Prop32
280
     0
102
RTVSPost2010PropOp32
 70
     1
102
RTVSPost2010Prop33
280
     0
102
RTVSPost2010PropOp33
 70
     1
102
RTVSPost2010Prop34
280
     0
102
RTVSPost2010PropOp34
 70
     1
102
RTVSPost2010Prop35
280
     0
102
RTVSPost2010PropOp35
 70
     1
102
RTVSPost2010Prop36
280
     0
102
RTVSPost2010PropOp36
 70
     1
102
RTVSPost2010Prop37
 90
       50
102
RTVSPost2010PropOp37
 70
     1
102
RTVSPost2010Prop38
140
0.0
102
RTVSPost2010PropOp38
 70
     1
102
RTVSPost2010Prop39
140
1.0
102
RTVSPost2010PropOp39
 70
     1
102
RTVSPost2010Prop40
 90
        0
102
RTVSPost2010PropOp40
 70
     1
102
RTVSPost2010Prop41ColorIndex
 90
       18
102
RTVSPost2010Prop41ColorRGB
 90
        0
102
RTVSPost2010PropOp41
 70
     1
102
RTVSPost2010Prop42
 90
       50
102
RTVSPost2010PropOp42
 70
     1
102
RTVSPost2010Prop43
 90
        3
102
RTVSPost2010PropOp43
 70
     1
102
RTVSPost2010Prop44ColorIndex
 90
        5
102
RTVSPost2010Prop44ColorRGB
 90
      255
102
RTVSPost2010PropOp44
 70
     1
102
RTVSPost2010Prop45
280
     0
102
RTVSPost2010PropOp45
 70
     1
102
RTVSPost2010Prop46
 90
       50
102
RTVSPost2010PropOp46
 70
     1
102
RTVSPost2010Prop47
 90
       50
102
RTVSPost2010PropOp47
 70
     1
102
RTVSPost2010Prop48
 90
       50
102
RTVSPost2010PropOp48
 70
     1
102
RTVSPost2010Prop49
280
     0
102
RTVSPost2010PropOp49
 70
     1
102
RTVSPost2010Prop50
 90
       50
102
RTVSPost2010PropOp50
 70
     1
102
RTVSPost2010Prop51ColorIndex
 90
      256
102
RTVSPost2010Prop51ColorRGB
 90
-16777216
102
RTVSPost2010PropOp51
 70
     0
102
RTVSPost2010Prop52
140
1.0
102
RTVSPost2010PropOp52
 70
     0
102
RTVSPost2010Prop53
 90
        2
102
RTVSPost2010PropOp53
 70
     1
102
RTVSPost2010Prop54
  1
strokes_ogs.tif
102
RTVSPost2010PropOp54
 70
     1
102
RTVSPost2010Prop55
280
     0
102
RTVSPost2010PropOp55
 70
     1
102
RTVSPost2010Prop56
140
1.0
102
RTVSPost2010PropOp56
 70
     1
102
RTVSPost2010Prop57
140
1.0
102
RTVSPost2010PropOp57
 70
     1
  0
XRECORD
  5
3B9
102
{ACAD_REACTORS
330
3B8
102
}
330
3B8
100
AcDbXrecord
280
     1
102
RTVSPost2010Prop28
280
     0
102
RTVSPost2010PropOp28
 70
     1
102
RTVSPost2010Prop29
280
     1
102
RTVSPost2010PropOp29
 70
     1
102
RTVSPost2010Prop30
280
     1
102
RTVSPost2010PropOp30
 70
     1
102
RTVSPost2010Prop31
280
     0
102
RTVSPost2010PropOp31
 70
     1
102
RTVSPost2010Prop32
280
     0
102
RTVSPost2010PropOp32
 70
     1
102
RTVSPost2010Prop33
280
     0
102
RTVSPost2010PropOp33
 70
     1
102
RTVSPost2010Prop34
280
     0
102
RTVSPost2010PropOp34
 70
     1
102
RTVSPost2010Prop35
280
     0
102
RTVSPost2010PropOp35
 70
     1
102
RTVSPost2010Prop36
280
     0
102
RTVSPost2010PropOp36
 70
     1
102
RTVSPost2010Prop37
 90
       50
102
RTVSPost2010PropOp37
 70
     1
102
RTVSPost2010Prop38
140
0.0
102
RTVSPost2010PropOp38
 70
     1
102
RTVSPost2010Prop39
140
1.0
102
RTVSPost2010PropOp39
 70
     1
102
RTVSPost2010Prop40
 90
        0
102
RTVSPost2010PropOp40
 70
     1
102
RTVSPost2010Prop41ColorIndex
 90
       18
102
RTVSPost2010Prop41ColorRGB
 90
        0
102
RTVSPost2010PropOp41
 70
     1
102
RTVSPost2010Prop42
 90
       50
102
RTVSPost2010PropOp42
 70
     1
102
RTVSPost2010Prop43
 90
        3
102
RTVSPost2010PropOp43
 70
     1
102
RTVSPost2010Prop44ColorIndex
 90
        5
102
RTVSPost2010Prop44ColorRGB
 90
      255
102
RTVSPost2010PropOp44
 70
     1
102
RTVSPost2010Prop45
280
     0
102
RTVSPost2010PropOp45
 70
     1
102
RTVSPost2010Prop46
 90
       50
102
RTVSPost2010PropOp46
 70
     1
102
RTVSPost2010Prop47
 90
       50
102
RTVSPost2010PropOp47
 70
     1
102
RTVSPost2010Prop48
 90
       50
102
RTVSPost2010PropOp48
 70
     1
102
RTVSPost2010Prop49
280
     0
102
RTVSPost2010PropOp49
 70
     1
102
RTVSPost2010Prop50
 90
       50
102
RTVSPost2010PropOp50
 70
     1
102
RTVSPost2010Prop51ColorIndex
 90
      256
102
RTVSPost2010Prop51ColorRGB
 90
-16777216
102
RTVSPost2010PropOp51
 70
     0
102
RTVSPost2010Prop52
140
1.0
102
RTVSPost2010PropOp52
 70
     0
102
RTVSPost2010Prop53
 90
        2
102
RTVSPost2010PropOp53
 70
     1
102
RTVSPost2010Prop54
  1
strokes_ogs.tif
102
RTVSPost2010PropOp54
 70
     1
102
RTVSPost2010Prop55
280
     0
102
RTVSPost2010PropOp55
 70
     1
102
RTVSPost2010Prop56
140
1.0
102
RTVSPost2010PropOp56
 70
     1
102
RTVSPost2010Prop57
140
1.0
102
RTVSPost2010PropOp57
 70
     1
  0
XRECORD
  5
3BB
102
{ACAD_REACTORS
330
3BA
102
}
330
3BA
100
AcDbXrecord
280
     1
102
RTVSPost2010Prop28
280
     0
102
RTVSPost2010PropOp28
 70
     1
102
RTVSPost2010Prop29
280
     1
102
RTVSPost2010PropOp29
 70
     1
102
RTVSPost2010Prop30
280
     1
102
RTVSPost2010PropOp30
 70
     1
102
RTVSPost2010Prop31
280
     0
102
RTVSPost2010PropOp31
 70
     1
102
RTVSPost2010Prop32
280
     0
102
RTVSPost2010PropOp32
 70
     1
102
RTVSPost2010Prop33
280
     0
102
RTVSPost2010PropOp33
 70
     1
102
RTVSPost2010Prop34
280
     0
102
RTVSPost2010PropOp34
 70
     1
102
RTVSPost2010Prop35
280
     0
102
RTVSPost2010PropOp35
 70
     1
102
RTVSPost2010Prop36
280
     0
102
RTVSPost2010PropOp36
 70
     1
102
RTVSPost2010Prop37
 90
       50
102
RTVSPost2010PropOp37
 70
     1
102
RTVSPost2010Prop38
140
0.0
102
RTVSPost2010PropOp38
 70
     1
102
RTVSPost2010Prop39
140
1.0
102
RTVSPost2010PropOp39
 70
     1
102
RTVSPost2010Prop40
 90
        0
102
RTVSPost2010PropOp40
 70
     1
102
RTVSPost2010Prop41ColorIndex
 90
       18
102
RTVSPost2010Prop41ColorRGB
 90
        0
102
RTVSPost2010PropOp41
 70
     1
102
RTVSPost2010Prop42
 90
       50
102
RTVSPost2010PropOp42
 70
     1
102
RTVSPost2010Prop43
 90
        3
102
RTVSPost2010PropOp43
 70
     1
102
RTVSPost2010Prop44ColorIndex
 90
        5
102
RTVSPost2010Prop44ColorRGB
 90
      255
102
RTVSPost2010PropOp44
 70
     1
102
RTVSPost2010Prop45
280
     0
102
RTVSPost2010PropOp45
 70
     1
102
RTVSPost2010Prop46
 90
       50
102
RTVSPost2010PropOp46
 70
     1
102
RTVSPost2010Prop47
 90
       50
102
RTVSPost2010PropOp47
 70
     1
102
RTVSPost2010Prop48
 90
       50
102
RTVSPost2010PropOp48
 70
     1
102
RTVSPost2010Prop49
280
     0
102
RTVSPost2010PropOp49
 70
     1
102
RTVSPost2010Prop50
 90
       50
102
RTVSPost2010PropOp50
 70
     1
102
RTVSPost2010Prop51ColorIndex
 90
      256
102
RTVSPost2010Prop51ColorRGB
 90
-16777216
102
RTVSPost2010PropOp51
 70
     0
102
RTVSPost2010Prop52
140
1.0
102
RTVSPost2010PropOp52
 70
     0
102
RTVSPost2010Prop53
 90
        2
102
RTVSPost2010PropOp53
 70
     1
102
RTVSPost2010Prop54
  1
strokes_ogs.tif
102
RTVSPost2010PropOp54
 70
     1
102
RTVSPost2010Prop55
280
     0
102
RTVSPost2010PropOp55
 70
     1
102
RTVSPost2010Prop56
140
1.0
102
RTVSPost2010PropOp56
 70
     1
102
RTVSPost2010Prop57
140
1.0
102
RTVSPost2010PropOp57
 70
     1
  0
XRECORD
  5
3BD
102
{ACAD_REACTORS
330
3BC
102
}
330
3BC
100
AcDbXrecord
280
     1
102
RTVSPost2010Prop28
280
     0
102
RTVSPost2010PropOp28
 70
     1
102
RTVSPost2010Prop29
280
     1
102
RTVSPost2010PropOp29
 70
     1
102
RTVSPost2010Prop30
280
     1
102
RTVSPost2010PropOp30
 70
     1
102
RTVSPost2010Prop31
280
     0
102
RTVSPost2010PropOp31
 70
     1
102
RTVSPost2010Prop32
280
     0
102
RTVSPost2010PropOp32
 70
     1
102
RTVSPost2010Prop33
280
     0
102
RTVSPost2010PropOp33
 70
     1
102
RTVSPost2010Prop34
280
     0
102
RTVSPost2010PropOp34
 70
     1
102
RTVSPost2010Prop35
280
     0
102
RTVSPost2010PropOp35
 70
     1
102
RTVSPost2010Prop36
280
     0
102
RTVSPost2010PropOp36
 70
     1
102
RTVSPost2010Prop37
 90
       50
102
RTVSPost2010PropOp37
 70
     1
102
RTVSPost2010Prop38
140
0.0
102
RTVSPost2010PropOp38
 70
     1
102
RTVSPost2010Prop39
140
1.0
102
RTVSPost2010PropOp39
 70
     1
102
RTVSPost2010Prop40
 90
        0
102
RTVSPost2010PropOp40
 70
     1
102
RTVSPost2010Prop41ColorIndex
 90
       18
102
RTVSPost2010Prop41ColorRGB
 90
        0
102
RTVSPost2010PropOp41
 70
     1
102
RTVSPost2010Prop42
 90
       50
102
RTVSPost2010PropOp42
 70
     1
102
RTVSPost2010Prop43
 90
        3
102
RTVSPost2010PropOp43
 70
     1
102
RTVSPost2010Prop44ColorIndex
 90
        5
102
RTVSPost2010Prop44ColorRGB
 90
      255
102
RTVSPost2010PropOp44
 70
     1
102
RTVSPost2010Prop45
280
     0
102
RTVSPost2010PropOp45
 70
     1
102
RTVSPost2010Prop46
 90
       50
102
RTVSPost2010PropOp46
 70
     1
102
RTVSPost2010Prop47
 90
       50
102
RTVSPost2010PropOp47
 70
     1
102
RTVSPost2010Prop48
 90
       50
102
RTVSPost2010PropOp48
 70
     1
102
RTVSPost2010Prop49
280
     0
102
RTVSPost2010PropOp49
 70
     1
102
RTVSPost2010Prop50
 90
       50
102
RTVSPost2010PropOp50
 70
     1
102
RTVSPost2010Prop51ColorIndex
 90
      256
102
RTVSPost2010Prop51ColorRGB
 90
-16777216
102
RTVSPost2010PropOp51
 70
     0
102
RTVSPost2010Prop52
140
1.0
102
RTVSPost2010PropOp52
 70
     0
102
RTVSPost2010Prop53
 90
        2
102
RTVSPost2010PropOp53
 70
     1
102
RTVSPost2010Prop54
  1
strokes_ogs.tif
102
RTVSPost2010PropOp54
 70
     1
102
RTVSPost2010Prop55
280
     0
102
RTVSPost2010PropOp55
 70
     1
102
RTVSPost2010Prop56
140
1.0
102
RTVSPost2010PropOp56
 70
     1
102
RTVSPost2010Prop57
140
1.0
102
RTVSPost2010PropOp57
 70
     1
  0
XRECORD
  5
3D9
102
{ACAD_REACTORS
330
3D8
102
}
330
3D8
100
AcDbXrecord
280
     1
102
RTVSPost2010Prop28
280
     0
102
RTVSPost2010PropOp28
 70
     1
102
RTVSPost2010Prop29
280
     1
102
RTVSPost2010PropOp29
 70
     1
102
RTVSPost2010Prop30
280
     1
102
RTVSPost2010PropOp30
 70
     1
102
RTVSPost2010Prop31
280
     0
102
RTVSPost2010PropOp31
 70
     1
102
RTVSPost2010Prop32
280
     0
102
RTVSPost2010PropOp32
 70
     1
102
RTVSPost2010Prop33
280
     0
102
RTVSPost2010PropOp33
 70
     1
102
RTVSPost2010Prop34
280
     0
102
RTVSPost2010PropOp34
 70
     1
102
RTVSPost2010Prop35
280
     0
102
RTVSPost2010PropOp35
 70
     1
102
RTVSPost2010Prop36
280
     0
102
RTVSPost2010PropOp36
 70
     1
102
RTVSPost2010Prop37
 90
       50
102
RTVSPost2010PropOp37
 70
     1
102
RTVSPost2010Prop38
140
0.0
102
RTVSPost2010PropOp38
 70
     1
102
RTVSPost2010Prop39
140
1.0
102
RTVSPost2010PropOp39
 70
     1
102
RTVSPost2010Prop40
 90
        0
102
RTVSPost2010PropOp40
 70
     1
102
RTVSPost2010Prop41ColorIndex
 90
       18
102
RTVSPost2010Prop41ColorRGB
 90
        0
102
RTVSPost2010PropOp41
 70
     1
102
RTVSPost2010Prop42
 90
       50
102
RTVSPost2010PropOp42
 70
     1
102
RTVSPost2010Prop43
 90
        3
102
RTVSPost2010PropOp43
 70
     1
102
RTVSPost2010Prop44ColorIndex
 90
        5
102
RTVSPost2010Prop44ColorRGB
 90
      255
102
RTVSPost2010PropOp44
 70
     1
102
RTVSPost2010Prop45
280
     0
102
RTVSPost2010PropOp45
 70
     1
102
RTVSPost2010Prop46
 90
       50
102
RTVSPost2010PropOp46
 70
     1
102
RTVSPost2010Prop47
 90
       50
102
RTVSPost2010PropOp47
 70
     1
102
RTVSPost2010Prop48
 90
       50
102
RTVSPost2010PropOp48
 70
     1
102
RTVSPost2010Prop49
280
     0
102
RTVSPost2010PropOp49
 70
     1
102
RTVSPost2010Prop50
 90
       50
102
RTVSPost2010PropOp50
 70
     1
102
RTVSPost2010Prop51ColorIndex
 90
      256
102
RTVSPost2010Prop51ColorRGB
 90
-16777216
102
RTVSPost2010PropOp51
 70
     0
102
RTVSPost2010Prop52
140
1.0
102
RTVSPost2010PropOp52
 70
     0
102
RTVSPost2010Prop53
 90
        2
102
RTVSPost2010PropOp53
 70
     1
102
RTVSPost2010Prop54
  1
strokes_ogs.tif
102
RTVSPost2010PropOp54
 70
     1
102
RTVSPost2010Prop55
280
     0
102
RTVSPost2010PropOp55
 70
     1
102
RTVSPost2010Prop56
140
1.0
102
RTVSPost2010PropOp56
 70
     1
102
RTVSPost2010Prop57
140
1.0
102
RTVSPost2010PropOp57
 70
     1
  0
XRECORD
  5
3E5
102
{ACAD_REACTORS
330
3E4
102
}
330
3E4
100
AcDbXrecord
280
     1
102
RTVSPost2010Prop28
280
     0
102
RTVSPost2010PropOp28
 70
     0
102
RTVSPost2010Prop29
280
     1
102
RTVSPost2010PropOp29
 70
     0
102
RTVSPost2010Prop30
280
     1
102
RTVSPost2010PropOp30
 70
     0
102
RTVSPost2010Prop31
280
     0
102
RTVSPost2010PropOp31
 70
     0
102
RTVSPost2010Prop32
280
     0
102
RTVSPost2010PropOp32
 70
     0
102
RTVSPost2010Prop33
280
     0
102
RTVSPost2010PropOp33
 70
     0
102
RTVSPost2010Prop34
280
     0
102
RTVSPost2010PropOp34
 70
     0
102
RTVSPost2010Prop35
280
     0
102
RTVSPost2010PropOp35
 70
     0
102
RTVSPost2010Prop36
280
     0
102
RTVSPost2010PropOp36
 70
     0
102
RTVSPost2010Prop37
 90
       50
102
RTVSPost2010PropOp37
 70
     0
102
RTVSPost2010Prop38
140
0.0
102
RTVSPost2010PropOp38
 70
     0
102
RTVSPost2010Prop39
140
1.0
102
RTVSPost2010PropOp39
 70
     0
102
RTVSPost2010Prop40
 90
        0
102
RTVSPost2010PropOp40
 70
     0
102
RTVSPost2010Prop41ColorIndex
 90
       18
102
RTVSPost2010Prop41ColorRGB
 90
        0
102
RTVSPost2010PropOp41
 70
     0
102
RTVSPost2010Prop42
 90
       50
102
RTVSPost2010PropOp42
 70
     0
102
RTVSPost2010Prop43
 90
        3
102
RTVSPost2010PropOp43
 70
     0
102
RTVSPost2010Prop44ColorIndex
 90
        5
102
RTVSPost2010Prop44ColorRGB
 90
      255
102
RTVSPost2010PropOp44
 70
     0
102
RTVSPost2010Prop45
280
     0
102
RTVSPost2010PropOp45
 70
     0
102
RTVSPost2010Prop46
 90
       50
102
RTVSPost2010PropOp46
 70
     0
102
RTVSPost2010Prop47
 90
       50
102
RTVSPost2010PropOp47
 70
     0
102
RTVSPost2010Prop48
 90
       50
102
RTVSPost2010PropOp48
 70
     0
102
RTVSPost2010Prop49
280
     0
102
RTVSPost2010PropOp49
 70
     0
102
RTVSPost2010Prop50
 90
       50
102
RTVSPost2010PropOp50
 70
     0
102
RTVSPost2010Prop51ColorIndex
 90
      256
102
RTVSPost2010Prop51ColorRGB
 90
-16777216
102
RTVSPost2010PropOp51
 70
     0
102
RTVSPost2010Prop52
140
1.0
102
RTVSPost2010PropOp52
 70
     0
102
RTVSPost2010Prop53
 90
        2
102
RTVSPost2010PropOp53
 70
     0
102
RTVSPost2010Prop54
  1
strokes_ogs.tif
102
RTVSPost2010PropOp54
 70
     0
102
RTVSPost2010Prop55
280
     0
102
RTVSPost2010PropOp55
 70
     0
102
RTVSPost2010Prop56
140
1.0
102
RTVSPost2010PropOp56
 70
     0
102
RTVSPost2010Prop57
140
1.0
102
RTVSPost2010PropOp57
 70
     0
  0
XRECORD
  5
3D1
102
{ACAD_REACTORS
330
3D0
102
}
330
3D0
100
AcDbXrecord
280
     1
102
RTVSPost2010Prop28
280
     0
102
RTVSPost2010PropOp28
 70
     1
102
RTVSPost2010Prop29
280
     1
102
RTVSPost2010PropOp29
 70
     1
102
RTVSPost2010Prop30
280
     1
102
RTVSPost2010PropOp30
 70
     1
102
RTVSPost2010Prop31
280
     0
102
RTVSPost2010PropOp31
 70
     1
102
RTVSPost2010Prop32
280
     0
102
RTVSPost2010PropOp32
 70
     1
102
RTVSPost2010Prop33
280
     0
102
RTVSPost2010PropOp33
 70
     1
102
RTVSPost2010Prop34
280
     0
102
RTVSPost2010PropOp34
 70
     1
102
RTVSPost2010Prop35
280
     0
102
RTVSPost2010PropOp35
 70
     1
102
RTVSPost2010Prop36
280
     0
102
RTVSPost2010PropOp36
 70
     1
102
RTVSPost2010Prop37
 90
       50
102
RTVSPost2010PropOp37
 70
     1
102
RTVSPost2010Prop38
140
0.0
102
RTVSPost2010PropOp38
 70
     1
102
RTVSPost2010Prop39
140
1.0
102
RTVSPost2010PropOp39
 70
     1
102
RTVSPost2010Prop40
 90
        0
102
RTVSPost2010PropOp40
 70
     1
102
RTVSPost2010Prop41ColorIndex
 90
       18
102
RTVSPost2010Prop41ColorRGB
 90
        0
102
RTVSPost2010PropOp41
 70
     1
102
RTVSPost2010Prop42
 90
       50
102
RTVSPost2010PropOp42
 70
     1
102
RTVSPost2010Prop43
 90
        3
102
RTVSPost2010PropOp43
 70
     1
102
RTVSPost2010Prop44ColorIndex
 90
        5
102
RTVSPost2010Prop44ColorRGB
 90
      255
102
RTVSPost2010PropOp44
 70
     1
102
RTVSPost2010Prop45
280
     0
102
RTVSPost2010PropOp45
 70
     1
102
RTVSPost2010Prop46
 90
       50
102
RTVSPost2010PropOp46
 70
     1
102
RTVSPost2010Prop47
 90
       50
102
RTVSPost2010PropOp47
 70
     1
102
RTVSPost2010Prop48
 90
       50
102
RTVSPost2010PropOp48
 70
     1
102
RTVSPost2010Prop49
280
     0
102
RTVSPost2010PropOp49
 70
     1
102
RTVSPost2010Prop50
 90
       50
102
RTVSPost2010PropOp50
 70
     1
102
RTVSPost2010Prop51ColorIndex
 90
      256
102
RTVSPost2010Prop51ColorRGB
 90
-16777216
102
RTVSPost2010PropOp51
 70
     0
102
RTVSPost2010Prop52
140
1.0
102
RTVSPost2010PropOp52
 70
     0
102
RTVSPost2010Prop53
 90
        2
102
RTVSPost2010PropOp53
 70
     1
102
RTVSPost2010Prop54
  1
strokes_ogs.tif
102
RTVSPost2010PropOp54
 70
     1
102
RTVSPost2010Prop55
280
     0
102
RTVSPost2010PropOp55
 70
     1
102
RTVSPost2010Prop56
140
1.0
102
RTVSPost2010PropOp56
 70
     1
102
RTVSPost2010Prop57
140
1.0
102
RTVSPost2010PropOp57
 70
     1
  0
XRECORD
  5
3E7
102
{ACAD_REACTORS
330
3E6
102
}
330
3E6
100
AcDbXrecord
280
     1
102
RTVSPost2010Prop28
280
     0
102
RTVSPost2010PropOp28
 70
     0
102
RTVSPost2010Prop29
280
     1
102
RTVSPost2010PropOp29
 70
     0
102
RTVSPost2010Prop30
280
     1
102
RTVSPost2010PropOp30
 70
     0
102
RTVSPost2010Prop31
280
     0
102
RTVSPost2010PropOp31
 70
     0
102
RTVSPost2010Prop32
280
     0
102
RTVSPost2010PropOp32
 70
     0
102
RTVSPost2010Prop33
280
     0
102
RTVSPost2010PropOp33
 70
     0
102
RTVSPost2010Prop34
280
     0
102
RTVSPost2010PropOp34
 70
     0
102
RTVSPost2010Prop35
280
     0
102
RTVSPost2010PropOp35
 70
     0
102
RTVSPost2010Prop36
280
     0
102
RTVSPost2010PropOp36
 70
     0
102
RTVSPost2010Prop37
 90
       50
102
RTVSPost2010PropOp37
 70
     0
102
RTVSPost2010Prop38
140
0.0
102
RTVSPost2010PropOp38
 70
     0
102
RTVSPost2010Prop39
140
1.0
102
RTVSPost2010PropOp39
 70
     0
102
RTVSPost2010Prop40
 90
        0
102
RTVSPost2010PropOp40
 70
     0
102
RTVSPost2010Prop41ColorIndex
 90
       18
102
RTVSPost2010Prop41ColorRGB
 90
        0
102
RTVSPost2010PropOp41
 70
     0
102
RTVSPost2010Prop42
 90
       50
102
RTVSPost2010PropOp42
 70
     0
102
RTVSPost2010Prop43
 90
        3
102
RTVSPost2010PropOp43
 70
     0
102
RTVSPost2010Prop44ColorIndex
 90
        5
102
RTVSPost2010Prop44ColorRGB
 90
      255
102
RTVSPost2010PropOp44
 70
     0
102
RTVSPost2010Prop45
280
     0
102
RTVSPost2010PropOp45
 70
     0
102
RTVSPost2010Prop46
 90
       50
102
RTVSPost2010PropOp46
 70
     0
102
RTVSPost2010Prop47
 90
       50
102
RTVSPost2010PropOp47
 70
     0
102
RTVSPost2010Prop48
 90
       50
102
RTVSPost2010PropOp48
 70
     0
102
RTVSPost2010Prop49
280
     0
102
RTVSPost2010PropOp49
 70
     0
102
RTVSPost2010Prop50
 90
       50
102
RTVSPost2010PropOp50
 70
     0
102
RTVSPost2010Prop51ColorIndex
 90
      256
102
RTVSPost2010Prop51ColorRGB
 90
-16777216
102
RTVSPost2010PropOp51
 70
     0
102
RTVSPost2010Prop52
140
1.0
102
RTVSPost2010PropOp52
 70
     0
102
RTVSPost2010Prop53
 90
        2
102
RTVSPost2010PropOp53
 70
     0
102
RTVSPost2010Prop54
  1
strokes_ogs.tif
102
RTVSPost2010PropOp54
 70
     0
102
RTVSPost2010Prop55
280
     0
102
RTVSPost2010PropOp55
 70
     0
102
RTVSPost2010Prop56
140
1.0
102
RTVSPost2010PropOp56
 70
     0
102
RTVSPost2010Prop57
140
1.0
102
RTVSPost2010PropOp57
 70
     0
  0
XRECORD
  5
3C7
102
{ACAD_REACTORS
330
3C6
102
}
330
3C6
100
AcDbXrecord
280
     1
102
RTVSPost2010Prop28
280
     0
102
RTVSPost2010PropOp28
 70
     1
102
RTVSPost2010Prop29
280
     1
102
RTVSPost2010PropOp29
 70
     1
102
RTVSPost2010Prop30
280
     1
102
RTVSPost2010PropOp30
 70
     1
102
RTVSPost2010Prop31
280
     0
102
RTVSPost2010PropOp31
 70
     1
102
RTVSPost2010Prop32
280
     0
102
RTVSPost2010PropOp32
 70
     1
102
RTVSPost2010Prop33
280
     0
102
RTVSPost2010PropOp33
 70
     1
102
RTVSPost2010Prop34
280
     0
102
RTVSPost2010PropOp34
 70
     1
102
RTVSPost2010Prop35
280
     0
102
RTVSPost2010PropOp35
 70
     1
102
RTVSPost2010Prop36
280
     0
102
RTVSPost2010PropOp36
 70
     1
102
RTVSPost2010Prop37
 90
       50
102
RTVSPost2010PropOp37
 70
     1
102
RTVSPost2010Prop38
140
0.0
102
RTVSPost2010PropOp38
 70
     1
102
RTVSPost2010Prop39
140
1.0
102
RTVSPost2010PropOp39
 70
     1
102
RTVSPost2010Prop40
 90
        0
102
RTVSPost2010PropOp40
 70
     1
102
RTVSPost2010Prop41ColorIndex
 90
       18
102
RTVSPost2010Prop41ColorRGB
 90
        0
102
RTVSPost2010PropOp41
 70
     1
102
RTVSPost2010Prop42
 90
       50
102
RTVSPost2010PropOp42
 70
     1
102
RTVSPost2010Prop43
 90
        3
102
RTVSPost2010PropOp43
 70
     1
102
RTVSPost2010Prop44ColorIndex
 90
        5
102
RTVSPost2010Prop44ColorRGB
 90
      255
102
RTVSPost2010PropOp44
 70
     1
102
RTVSPost2010Prop45
280
     0
102
RTVSPost2010PropOp45
 70
     1
102
RTVSPost2010Prop46
 90
       50
102
RTVSPost2010PropOp46
 70
     1
102
RTVSPost2010Prop47
 90
       50
102
RTVSPost2010PropOp47
 70
     1
102
RTVSPost2010Prop48
 90
       50
102
RTVSPost2010PropOp48
 70
     1
102
RTVSPost2010Prop49
280
     0
102
RTVSPost2010PropOp49
 70
     1
102
RTVSPost2010Prop50
 90
       50
102
RTVSPost2010PropOp50
 70
     1
102
RTVSPost2010Prop51ColorIndex
 90
      256
102
RTVSPost2010Prop51ColorRGB
 90
-16777216
102
RTVSPost2010PropOp51
 70
     0
102
RTVSPost2010Prop52
140
1.0
102
RTVSPost2010PropOp52
 70
     0
102
RTVSPost2010Prop53
 90
        2
102
RTVSPost2010PropOp53
 70
     1
102
RTVSPost2010Prop54
  1
strokes_ogs.tif
102
RTVSPost2010PropOp54
 70
     1
102
RTVSPost2010Prop55
280
     0
102
RTVSPost2010PropOp55
 70
     1
102
RTVSPost2010Prop56
140
1.0
102
RTVSPost2010PropOp56
 70
     1
102
RTVSPost2010Prop57
140
1.0
102
RTVSPost2010PropOp57
 70
     1
  0
XRECORD
  5
3E3
102
{ACAD_REACTORS
330
3E2
102
}
330
3E2
100
AcDbXrecord
280
     1
102
RTVSPost2010Prop28
280
     0
102
RTVSPost2010PropOp28
 70
     1
102
RTVSPost2010Prop29
280
     1
102
RTVSPost2010PropOp29
 70
     1
102
RTVSPost2010Prop30
280
     1
102
RTVSPost2010PropOp30
 70
     1
102
RTVSPost2010Prop31
280
     0
102
RTVSPost2010PropOp31
 70
     1
102
RTVSPost2010Prop32
280
     0
102
RTVSPost2010PropOp32
 70
     1
102
RTVSPost2010Prop33
280
     0
102
RTVSPost2010PropOp33
 70
     1
102
RTVSPost2010Prop34
280
     0
102
RTVSPost2010PropOp34
 70
     1
102
RTVSPost2010Prop35
280
     0
102
RTVSPost2010PropOp35
 70
     1
102
RTVSPost2010Prop36
280
     0
102
RTVSPost2010PropOp36
 70
     1
102
RTVSPost2010Prop37
 90
       50
102
RTVSPost2010PropOp37
 70
     1
102
RTVSPost2010Prop38
140
0.0
102
RTVSPost2010PropOp38
 70
     1
102
RTVSPost2010Prop39
140
1.0
102
RTVSPost2010PropOp39
 70
     1
102
RTVSPost2010Prop40
 90
        0
102
RTVSPost2010PropOp40
 70
     1
102
RTVSPost2010Prop41ColorIndex
 90
       18
102
RTVSPost2010Prop41ColorRGB
 90
        0
102
RTVSPost2010PropOp41
 70
     1
102
RTVSPost2010Prop42
 90
       50
102
RTVSPost2010PropOp42
 70
     1
102
RTVSPost2010Prop43
 90
        3
102
RTVSPost2010PropOp43
 70
     1
102
RTVSPost2010Prop44ColorIndex
 90
        5
102
RTVSPost2010Prop44ColorRGB
 90
      255
102
RTVSPost2010PropOp44
 70
     1
102
RTVSPost2010Prop45
280
     0
102
RTVSPost2010PropOp45
 70
     1
102
RTVSPost2010Prop46
 90
       50
102
RTVSPost2010PropOp46
 70
     1
102
RTVSPost2010Prop47
 90
       50
102
RTVSPost2010PropOp47
 70
     1
102
RTVSPost2010Prop48
 90
       50
102
RTVSPost2010PropOp48
 70
     1
102
RTVSPost2010Prop49
280
     0
102
RTVSPost2010PropOp49
 70
     1
102
RTVSPost2010Prop50
 90
       50
102
RTVSPost2010PropOp50
 70
     1
102
RTVSPost2010Prop51ColorIndex
 90
      256
102
RTVSPost2010Prop51ColorRGB
 90
-16777216
102
RTVSPost2010PropOp51
 70
     0
102
RTVSPost2010Prop52
140
1.0
102
RTVSPost2010PropOp52
 70
     0
102
RTVSPost2010Prop53
 90
        2
102
RTVSPost2010PropOp53
 70
     1
102
RTVSPost2010Prop54
  1
strokes_ogs.tif
102
RTVSPost2010PropOp54
 70
     1
102
RTVSPost2010Prop55
280
     0
102
RTVSPost2010PropOp55
 70
     1
102
RTVSPost2010Prop56
140
1.0
102
RTVSPost2010PropOp56
 70
     1
102
RTVSPost2010Prop57
140
1.0
102
RTVSPost2010PropOp57
 70
     1
  0
XRECORD
  5
3E1
102
{ACAD_REACTORS
330
3E0
102
}
330
3E0
100
AcDbXrecord
280
     1
102
RTVSPost2010Prop28
280
     0
102
RTVSPost2010PropOp28
 70
     1
102
RTVSPost2010Prop29
280
     1
102
RTVSPost2010PropOp29
 70
     1
102
RTVSPost2010Prop30
280
     1
102
RTVSPost2010PropOp30
 70
     1
102
RTVSPost2010Prop31
280
     0
102
RTVSPost2010PropOp31
 70
     1
102
RTVSPost2010Prop32
280
     0
102
RTVSPost2010PropOp32
 70
     1
102
RTVSPost2010Prop33
280
     0
102
RTVSPost2010PropOp33
 70
     1
102
RTVSPost2010Prop34
280
     0
102
RTVSPost2010PropOp34
 70
     1
102
RTVSPost2010Prop35
280
     0
102
RTVSPost2010PropOp35
 70
     1
102
RTVSPost2010Prop36
280
     0
102
RTVSPost2010PropOp36
 70
     1
102
RTVSPost2010Prop37
 90
       50
102
RTVSPost2010PropOp37
 70
     1
102
RTVSPost2010Prop38
140
0.0
102
RTVSPost2010PropOp38
 70
     1
102
RTVSPost2010Prop39
140
1.0
102
RTVSPost2010PropOp39
 70
     1
102
RTVSPost2010Prop40
 90
        0
102
RTVSPost2010PropOp40
 70
     1
102
RTVSPost2010Prop41ColorIndex
 90
       18
102
RTVSPost2010Prop41ColorRGB
 90
        0
102
RTVSPost2010PropOp41
 70
     1
102
RTVSPost2010Prop42
 90
       50
102
RTVSPost2010PropOp42
 70
     1
102
RTVSPost2010Prop43
 90
        3
102
RTVSPost2010PropOp43
 70
     1
102
RTVSPost2010Prop44ColorIndex
 90
        5
102
RTVSPost2010Prop44ColorRGB
 90
      255
102
RTVSPost2010PropOp44
 70
     1
102
RTVSPost2010Prop45
280
     0
102
RTVSPost2010PropOp45
 70
     1
102
RTVSPost2010Prop46
 90
       50
102
RTVSPost2010PropOp46
 70
     1
102
RTVSPost2010Prop47
 90
       50
102
RTVSPost2010PropOp47
 70
     1
102
RTVSPost2010Prop48
 90
       50
102
RTVSPost2010PropOp48
 70
     1
102
RTVSPost2010Prop49
280
     0
102
RTVSPost2010PropOp49
 70
     1
102
RTVSPost2010Prop50
 90
       50
102
RTVSPost2010PropOp50
 70
     1
102
RTVSPost2010Prop51ColorIndex
 90
      256
102
RTVSPost2010Prop51ColorRGB
 90
-16777216
102
RTVSPost2010PropOp51
 70
     0
102
RTVSPost2010Prop52
140
1.0
102
RTVSPost2010PropOp52
 70
     0
102
RTVSPost2010Prop53
 90
        2
102
RTVSPost2010PropOp53
 70
     1
102
RTVSPost2010Prop54
  1
strokes_ogs.tif
102
RTVSPost2010PropOp54
 70
     1
102
RTVSPost2010Prop55
280
     0
102
RTVSPost2010PropOp55
 70
     1
102
RTVSPost2010Prop56
140
1.0
102
RTVSPost2010PropOp56
 70
     1
102
RTVSPost2010Prop57
140
1.0
102
RTVSPost2010PropOp57
 70
     1
  0
XRECORD
  5
3DB
102
{ACAD_REACTORS
330
3DA
102
}
330
3DA
100
AcDbXrecord
280
     1
102
RTVSPost2010Prop28
280
     0
102
RTVSPost2010PropOp28
 70
     1
102
RTVSPost2010Prop29
280
     1
102
RTVSPost2010PropOp29
 70
     1
102
RTVSPost2010Prop30
280
     1
102
RTVSPost2010PropOp30
 70
     1
102
RTVSPost2010Prop31
280
     0
102
RTVSPost2010PropOp31
 70
     1
102
RTVSPost2010Prop32
280
     0
102
RTVSPost2010PropOp32
 70
     1
102
RTVSPost2010Prop33
280
     0
102
RTVSPost2010PropOp33
 70
     1
102
RTVSPost2010Prop34
280
     0
102
RTVSPost2010PropOp34
 70
     1
102
RTVSPost2010Prop35
280
     0
102
RTVSPost2010PropOp35
 70
     1
102
RTVSPost2010Prop36
280
     0
102
RTVSPost2010PropOp36
 70
     1
102
RTVSPost2010Prop37
 90
       50
102
RTVSPost2010PropOp37
 70
     1
102
RTVSPost2010Prop38
140
0.0
102
RTVSPost2010PropOp38
 70
     1
102
RTVSPost2010Prop39
140
1.0
102
RTVSPost2010PropOp39
 70
     1
102
RTVSPost2010Prop40
 90
        0
102
RTVSPost2010PropOp40
 70
     1
102
RTVSPost2010Prop41ColorIndex
 90
       18
102
RTVSPost2010Prop41ColorRGB
 90
        0
102
RTVSPost2010PropOp41
 70
     1
102
RTVSPost2010Prop42
 90
       50
102
RTVSPost2010PropOp42
 70
     1
102
RTVSPost2010Prop43
 90
        3
102
RTVSPost2010PropOp43
 70
     1
102
RTVSPost2010Prop44ColorIndex
 90
        5
102
RTVSPost2010Prop44ColorRGB
 90
      255
102
RTVSPost2010PropOp44
 70
     1
102
RTVSPost2010Prop45
280
     0
102
RTVSPost2010PropOp45
 70
     1
102
RTVSPost2010Prop46
 90
       50
102
RTVSPost2010PropOp46
 70
     1
102
RTVSPost2010Prop47
 90
       50
102
RTVSPost2010PropOp47
 70
     1
102
RTVSPost2010Prop48
 90
       50
102
RTVSPost2010PropOp48
 70
     1
102
RTVSPost2010Prop49
280
     0
102
RTVSPost2010PropOp49
 70
     1
102
RTVSPost2010Prop50
 90
       50
102
RTVSPost2010PropOp50
 70
     1
102
RTVSPost2010Prop51ColorIndex
 90
      256
102
RTVSPost2010Prop51ColorRGB
 90
-16777216
102
RTVSPost2010PropOp51
 70
     0
102
RTVSPost2010Prop52
140
1.0
102
RTVSPost2010PropOp52
 70
     0
102
RTVSPost2010Prop53
 90
        2
102
RTVSPost2010PropOp53
 70
     1
102
RTVSPost2010Prop54
  1
strokes_ogs.tif
102
RTVSPost2010PropOp54
 70
     1
102
RTVSPost2010Prop55
280
     0
102
RTVSPost2010PropOp55
 70
     1
102
RTVSPost2010Prop56
140
1.0
102
RTVSPost2010PropOp56
 70
     1
102
RTVSPost2010Prop57
140
1.0
102
RTVSPost2010PropOp57
 70
     1
  0
XRECORD
  5
3DD
102
{ACAD_REACTORS
330
3DC
102
}
330
3DC
100
AcDbXrecord
280
     1
102
RTVSPost2010Prop28
280
     0
102
RTVSPost2010PropOp28
 70
     1
102
RTVSPost2010Prop29
280
     1
102
RTVSPost2010PropOp29
 70
     1
102
RTVSPost2010Prop30
280
     1
102
RTVSPost2010PropOp30
 70
     1
102
RTVSPost2010Prop31
280
     0
102
RTVSPost2010PropOp31
 70
     1
102
RTVSPost2010Prop32
280
     0
102
RTVSPost2010PropOp32
 70
     1
102
RTVSPost2010Prop33
280
     0
102
RTVSPost2010PropOp33
 70
     1
102
RTVSPost2010Prop34
280
     0
102
RTVSPost2010PropOp34
 70
     1
102
RTVSPost2010Prop35
280
     0
102
RTVSPost2010PropOp35
 70
     1
102
RTVSPost2010Prop36
280
     0
102
RTVSPost2010PropOp36
 70
     1
102
RTVSPost2010Prop37
 90
       50
102
RTVSPost2010PropOp37
 70
     1
102
RTVSPost2010Prop38
140
0.0
102
RTVSPost2010PropOp38
 70
     1
102
RTVSPost2010Prop39
140
1.0
102
RTVSPost2010PropOp39
 70
     1
102
RTVSPost2010Prop40
 90
        0
102
RTVSPost2010PropOp40
 70
     1
102
RTVSPost2010Prop41ColorIndex
 90
       18
102
RTVSPost2010Prop41ColorRGB
 90
        0
102
RTVSPost2010PropOp41
 70
     1
102
RTVSPost2010Prop42
 90
       50
102
RTVSPost2010PropOp42
 70
     1
102
RTVSPost2010Prop43
 90
        3
102
RTVSPost2010PropOp43
 70
     1
102
RTVSPost2010Prop44ColorIndex
 90
        5
102
RTVSPost2010Prop44ColorRGB
 90
      255
102
RTVSPost2010PropOp44
 70
     1
102
RTVSPost2010Prop45
280
     0
102
RTVSPost2010PropOp45
 70
     1
102
RTVSPost2010Prop46
 90
       50
102
RTVSPost2010PropOp46
 70
     1
102
RTVSPost2010Prop47
 90
       50
102
RTVSPost2010PropOp47
 70
     1
102
RTVSPost2010Prop48
 90
       50
102
RTVSPost2010PropOp48
 70
     1
102
RTVSPost2010Prop49
280
     0
102
RTVSPost2010PropOp49
 70
     1
102
RTVSPost2010Prop50
 90
       50
102
RTVSPost2010PropOp50
 70
     1
102
RTVSPost2010Prop51ColorIndex
 90
      256
102
RTVSPost2010Prop51ColorRGB
 90
-16777216
102
RTVSPost2010PropOp51
 70
     0
102
RTVSPost2010Prop52
140
1.0
102
RTVSPost2010PropOp52
 70
     0
102
RTVSPost2010Prop53
 90
        2
102
RTVSPost2010PropOp53
 70
     1
102
RTVSPost2010Prop54
  1
strokes_ogs.tif
102
RTVSPost2010PropOp54
 70
     1
102
RTVSPost2010Prop55
280
     0
102
RTVSPost2010PropOp55
 70
     1
102
RTVSPost2010Prop56
140
1.0
102
RTVSPost2010PropOp56
 70
     1
102
RTVSPost2010Prop57
140
1.0
102
RTVSPost2010PropOp57
 70
     1
  0
XRECORD
  5
3CF
102
{ACAD_REACTORS
330
3CE
102
}
330
3CE
100
AcDbXrecord
280
     1
102
RTVSPost2010Prop28
280
     0
102
RTVSPost2010PropOp28
 70
     1
102
RTVSPost2010Prop29
280
     1
102
RTVSPost2010PropOp29
 70
     1
102
RTVSPost2010Prop30
280
     1
102
RTVSPost2010PropOp30
 70
     1
102
RTVSPost2010Prop31
280
     0
102
RTVSPost2010PropOp31
 70
     1
102
RTVSPost2010Prop32
280
     0
102
RTVSPost2010PropOp32
 70
     1
102
RTVSPost2010Prop33
280
     0
102
RTVSPost2010PropOp33
 70
     1
102
RTVSPost2010Prop34
280
     0
102
RTVSPost2010PropOp34
 70
     1
102
RTVSPost2010Prop35
280
     0
102
RTVSPost2010PropOp35
 70
     1
102
RTVSPost2010Prop36
280
     0
102
RTVSPost2010PropOp36
 70
     1
102
RTVSPost2010Prop37
 90
       50
102
RTVSPost2010PropOp37
 70
     1
102
RTVSPost2010Prop38
140
0.0
102
RTVSPost2010PropOp38
 70
     1
102
RTVSPost2010Prop39
140
1.0
102
RTVSPost2010PropOp39
 70
     1
102
RTVSPost2010Prop40
 90
        0
102
RTVSPost2010PropOp40
 70
     1
102
RTVSPost2010Prop41ColorIndex
 90
       18
102
RTVSPost2010Prop41ColorRGB
 90
        0
102
RTVSPost2010PropOp41
 70
     1
102
RTVSPost2010Prop42
 90
       50
102
RTVSPost2010PropOp42
 70
     1
102
RTVSPost2010Prop43
 90
        3
102
RTVSPost2010PropOp43
 70
     1
102
RTVSPost2010Prop44ColorIndex
 90
        5
102
RTVSPost2010Prop44ColorRGB
 90
      255
102
RTVSPost2010PropOp44
 70
     1
102
RTVSPost2010Prop45
280
     0
102
RTVSPost2010PropOp45
 70
     1
102
RTVSPost2010Prop46
 90
       50
102
RTVSPost2010PropOp46
 70
     1
102
RTVSPost2010Prop47
 90
       50
102
RTVSPost2010PropOp47
 70
     1
102
RTVSPost2010Prop48
 90
       50
102
RTVSPost2010PropOp48
 70
     1
102
RTVSPost2010Prop49
280
     0
102
RTVSPost2010PropOp49
 70
     1
102
RTVSPost2010Prop50
 90
       50
102
RTVSPost2010PropOp50
 70
     1
102
RTVSPost2010Prop51ColorIndex
 90
      256
102
RTVSPost2010Prop51ColorRGB
 90
-16777216
102
RTVSPost2010PropOp51
 70
     0
102
RTVSPost2010Prop52
140
1.0
102
RTVSPost2010PropOp52
 70
     0
102
RTVSPost2010Prop53
 90
        2
102
RTVSPost2010PropOp53
 70
     1
102
RTVSPost2010Prop54
  1
strokes_ogs.tif
102
RTVSPost2010PropOp54
 70
     1
102
RTVSPost2010Prop55
280
     0
102
RTVSPost2010PropOp55
 70
     1
102
RTVSPost2010Prop56
140
1.0
102
RTVSPost2010PropOp56
 70
     1
102
RTVSPost2010Prop57
140
1.0
102
RTVSPost2010PropOp57
 70
     1
  0
XRECORD
  5
3D7
102
{ACAD_REACTORS
330
3D6
102
}
330
3D6
100
AcDbXrecord
280
     1
102
RTVSPost2010Prop28
280
     0
102
RTVSPost2010PropOp28
 70
     1
102
RTVSPost2010Prop29
280
     1
102
RTVSPost2010PropOp29
 70
     1
102
RTVSPost2010Prop30
280
     1
102
RTVSPost2010PropOp30
 70
     1
102
RTVSPost2010Prop31
280
     0
102
RTVSPost2010PropOp31
 70
     1
102
RTVSPost2010Prop32
280
     0
102
RTVSPost2010PropOp32
 70
     1
102
RTVSPost2010Prop33
280
     0
102
RTVSPost2010PropOp33
 70
     1
102
RTVSPost2010Prop34
280
     0
102
RTVSPost2010PropOp34
 70
     1
102
RTVSPost2010Prop35
280
     0
102
RTVSPost2010PropOp35
 70
     1
102
RTVSPost2010Prop36
280
     0
102
RTVSPost2010PropOp36
 70
     1
102
RTVSPost2010Prop37
 90
       50
102
RTVSPost2010PropOp37
 70
     1
102
RTVSPost2010Prop38
140
0.0
102
RTVSPost2010PropOp38
 70
     1
102
RTVSPost2010Prop39
140
1.0
102
RTVSPost2010PropOp39
 70
     1
102
RTVSPost2010Prop40
 90
        0
102
RTVSPost2010PropOp40
 70
     1
102
RTVSPost2010Prop41ColorIndex
 90
       18
102
RTVSPost2010Prop41ColorRGB
 90
        0
102
RTVSPost2010PropOp41
 70
     1
102
RTVSPost2010Prop42
 90
       50
102
RTVSPost2010PropOp42
 70
     1
102
RTVSPost2010Prop43
 90
        3
102
RTVSPost2010PropOp43
 70
     1
102
RTVSPost2010Prop44ColorIndex
 90
        5
102
RTVSPost2010Prop44ColorRGB
 90
      255
102
RTVSPost2010PropOp44
 70
     1
102
RTVSPost2010Prop45
280
     0
102
RTVSPost2010PropOp45
 70
     1
102
RTVSPost2010Prop46
 90
       50
102
RTVSPost2010PropOp46
 70
     1
102
RTVSPost2010Prop47
 90
       50
102
RTVSPost2010PropOp47
 70
     1
102
RTVSPost2010Prop48
 90
       50
102
RTVSPost2010PropOp48
 70
     1
102
RTVSPost2010Prop49
280
     0
102
RTVSPost2010PropOp49
 70
     1
102
RTVSPost2010Prop50
 90
       50
102
RTVSPost2010PropOp50
 70
     1
102
RTVSPost2010Prop51ColorIndex
 90
      256
102
RTVSPost2010Prop51ColorRGB
 90
-16777216
102
RTVSPost2010PropOp51
 70
     0
102
RTVSPost2010Prop52
140
1.0
102
RTVSPost2010PropOp52
 70
     0
102
RTVSPost2010Prop53
 90
        2
102
RTVSPost2010PropOp53
 70
     1
102
RTVSPost2010Prop54
  1
strokes_ogs.tif
102
RTVSPost2010PropOp54
 70
     1
102
RTVSPost2010Prop55
280
     0
102
RTVSPost2010PropOp55
 70
     1
102
RTVSPost2010Prop56
140
1.0
102
RTVSPost2010PropOp56
 70
     1
102
RTVSPost2010Prop57
140
1.0
102
RTVSPost2010PropOp57
 70
     1
  0
XRECORD
  5
3DF
102
{ACAD_REACTORS
330
3DE
102
}
330
3DE
100
AcDbXrecord
280
     1
102
RTVSPost2010Prop28
280
     0
102
RTVSPost2010PropOp28
 70
     1
102
RTVSPost2010Prop29
280
     1
102
RTVSPost2010PropOp29
 70
     1
102
RTVSPost2010Prop30
280
     1
102
RTVSPost2010PropOp30
 70
     1
102
RTVSPost2010Prop31
280
     0
102
RTVSPost2010PropOp31
 70
     1
102
RTVSPost2010Prop32
280
     0
102
RTVSPost2010PropOp32
 70
     1
102
RTVSPost2010Prop33
280
     0
102
RTVSPost2010PropOp33
 70
     1
102
RTVSPost2010Prop34
280
     0
102
RTVSPost2010PropOp34
 70
     1
102
RTVSPost2010Prop35
280
     0
102
RTVSPost2010PropOp35
 70
     1
102
RTVSPost2010Prop36
280
     0
102
RTVSPost2010PropOp36
 70
     1
102
RTVSPost2010Prop37
 90
       50
102
RTVSPost2010PropOp37
 70
     1
102
RTVSPost2010Prop38
140
0.0
102
RTVSPost2010PropOp38
 70
     1
102
RTVSPost2010Prop39
140
1.0
102
RTVSPost2010PropOp39
 70
     1
102
RTVSPost2010Prop40
 90
        0
102
RTVSPost2010PropOp40
 70
     1
102
RTVSPost2010Prop41ColorIndex
 90
       18
102
RTVSPost2010Prop41ColorRGB
 90
        0
102
RTVSPost2010PropOp41
 70
     1
102
RTVSPost2010Prop42
 90
       50
102
RTVSPost2010PropOp42
 70
     1
102
RTVSPost2010Prop43
 90
        3
102
RTVSPost2010PropOp43
 70
     1
102
RTVSPost2010Prop44ColorIndex
 90
        5
102
RTVSPost2010Prop44ColorRGB
 90
      255
102
RTVSPost2010PropOp44
 70
     1
102
RTVSPost2010Prop45
280
     0
102
RTVSPost2010PropOp45
 70
     1
102
RTVSPost2010Prop46
 90
       50
102
RTVSPost2010PropOp46
 70
     1
102
RTVSPost2010Prop47
 90
       50
102
RTVSPost2010PropOp47
 70
     1
102
RTVSPost2010Prop48
 90
       50
102
RTVSPost2010PropOp48
 70
     1
102
RTVSPost2010Prop49
280
     0
102
RTVSPost2010PropOp49
 70
     1
102
RTVSPost2010Prop50
 90
       50
102
RTVSPost2010PropOp50
 70
     1
102
RTVSPost2010Prop51ColorIndex
 90
      256
102
RTVSPost2010Prop51ColorRGB
 90
-16777216
102
RTVSPost2010PropOp51
 70
     0
102
RTVSPost2010Prop52
140
1.0
102
RTVSPost2010PropOp52
 70
     0
102
RTVSPost2010Prop53
 90
        2
102
RTVSPost2010PropOp53
 70
     1
102
RTVSPost2010Prop54
  1
strokes_ogs.tif
102
RTVSPost2010PropOp54
 70
     1
102
RTVSPost2010Prop55
280
     0
102
RTVSPost2010PropOp55
 70
     1
102
RTVSPost2010Prop56
140
1.0
102
RTVSPost2010PropOp56
 70
     1
102
RTVSPost2010Prop57
140
1.0
102
RTVSPost2010PropOp57
 70
     1
  0
ENDSEC
  0
EOF
