  0
SECTION
  2
HEADER
  9
$ACADVER
  1
AC1018
  9
$ACADMAINTVER
 70
     0
  9
$DWGCODEPAGE
  3
ANSI_1252
  9
$INSBASE
 10
0.0
 20
0.0
 30
0.0
  9
$EXTMIN
 10
1.000000000000000E+20
 20
1.000000000000000E+20
 30
1.000000000000000E+20
  9
$EXTMAX
 10
-1.000000000000000E+20
 20
-1.000000000000000E+20
 30
-1.000000000000000E+20
  9
$LIMMIN
 10
0.0
 20
0.0
  9
$LIMMAX
 10
12.0
 20
9.0
  9
$ORTHOMODE
 70
     0
  9
$REGENMODE
 70
     1
  9
$FILLMODE
 70
     1
  9
$QTEXTMODE
 70
     0
  9
$MIRRTEXT
 70
     1
  9
$LTSCALE
 40
1.0
  9
$ATTMODE
 70
     1
  9
$TEXTSIZE
 40
0.2
  9
$TRACEWID
 40
0.05
  9
$TEXTSTYLE
  7
Standard
  9
$CLAYER
  8
0
  9
$CELTYPE
  6
ByLayer
  9
$CECOLOR
 62
   256
  9
$CELTSCALE
 40
1.0
  9
$DISPSILH
 70
     0
  9
$DIMSCALE
 40
1.0
  9
$DIMASZ
 40
0.18
  9
$DIMEXO
 40
0.0625
  9
$DIMDLI
 40
0.38
  9
$DIMRND
 40
0.0
  9
$DIMDLE
 40
0.0
  9
$DIMEXE
 40
0.18
  9
$DIMTP
 40
0.0
  9
$DIMTM
 40
0.0
  9
$DIMTXT
 40
0.18
  9
$DIMCEN
 40
0.09
  9
$DIMTSZ
 40
0.0
  9
$DIMTOL
 70
     0
  9
$DIMLIM
 70
     0
  9
$DIMTIH
 70
     1
  9
$DIMTOH
 70
     1
  9
$DIMSE1
 70
     0
  9
$DIMSE2
 70
     0
  9
$DIMTAD
 70
     0
  9
$DIMZIN
 70
     0
  9
$DIMBLK
  1

  9
$DIMASO
 70
     1
  9
$DIMSHO
 70
     1
  9
$DIMPOST
  1

  9
$DIMAPOST
  1

  9
$DIMALT
 70
     0
  9
$DIMALTD
 70
     2
  9
$DIMALTF
 40
25.4
  9
$DIMLFAC
 40
1.0
  9
$DIMTOFL
 70
     0
  9
$DIMTVP
 40
0.0
  9
$DIMTIX
 70
     0
  9
$DIMSOXD
 70
     0
  9
$DIMSAH
 70
     0
  9
$DIMBLK1
  1

  9
$DIMBLK2
  1

  9
$DIMSTYLE
  2
Standard
  9
$DIMCLRD
 70
     0
  9
$DIMCLRE
 70
     0
  9
$DIMCLRT
 70
     0
  9
$DIMTFAC
 40
1.0
  9
$DIMGAP
 40
0.09
  9
$DIMJUST
 70
     0
  9
$DIMSD1
 70
     0
  9
$DIMSD2
 70
     0
  9
$DIMTOLJ
 70
     1
  9
$DIMTZIN
 70
     0
  9
$DIMALTZ
 70
     0
  9
$DIMALTTZ
 70
     0
  9
$DIMUPT
 70
     0
  9
$DIMDEC
 70
     4
  9
$DIMTDEC
 70
     4
  9
$DIMALTU
 70
     2
  9
$DIMALTTD
 70
     2
  9
$DIMTXSTY
  7
Standard
  9
$DIMAUNIT
 70
     0
  9
$DIMADEC
 70
     0
  9
$DIMALTRND
 40
0.0
  9
$DIMAZIN
 70
     0
  9
$DIMDSEP
 70
    46
  9
$DIMATFIT
 70
     3
  9
$DIMFRAC
 70
     0
  9
$DIMLDRBLK
  1

  9
$DIMLUNIT
 70
     2
  9
$DIMLWD
 70
    -2
  9
$DIMLWE
 70
    -2
  9
$DIMTMOVE
 70
     0
  9
$LUNITS
 70
     2
  9
$LUPREC
 70
     4
  9
$SKETCHINC
 40
0.1
  9
$FILLETRAD
 40
0.5
  9
$AUNITS
 70
     0
  9
$AUPREC
 70
     0
  9
$MENU
  1
.
  9
$ELEVATION
 40
0.0
  9
$PELEVATION
 40
0.0
  9
$THICKNESS
 40
0.0
  9
$LIMCHECK
 70
     0
  9
$CHAMFERA
 40
0.5
  9
$CHAMFERB
 40
0.5
  9
$CHAMFERC
 40
1.0
  9
$CHAMFERD
 40
0.0
  9
$SKPOLY
 70
     0
  9
$TDCREATE
 40
2457303.628254873
  9
$TDUCREATE
 40
2457303.086588206
  9
$TDUPDATE
 40
2457303.628256007
  9
$TDUUPDATE
 40
2457303.08658934
  9
$TDINDWG
 40
0.0000000116
  9
$TDUSRTIMER
 40
0.0000000116
  9
$USRTIMER
 70
     1
  9
$ANGBASE
 50
0.0
  9
$ANGDIR
 70
     0
  9
$PDMODE
 70
     0
  9
$PDSIZE
 40
0.0
  9
$PLINEWID
 40
0.0
  9
$SPLFRAME
 70
     0
  9
$SPLINETYPE
 70
     6
  9
$SPLINESEGS
 70
     8
  9
$HANDSEED
  5
1BD
  9
$SURFTAB1
 70
     6
  9
$SURFTAB2
 70
     6
  9
$SURFTYPE
 70
     6
  9
$SURFU
 70
     6
  9
$SURFV
 70
     6
  9
$UCSBASE
  2

  9
$UCSNAME
  2

  9
$UCSORG
 10
0.0
 20
0.0
 30
0.0
  9
$UCSXDIR
 10
1.0
 20
0.0
 30
0.0
  9
$UCSYDIR
 10
0.0
 20
1.0
 30
0.0
  9
$UCSORTHOREF
  2

  9
$UCSORTHOVIEW
 70
     0
  9
$UCSORGTOP
 10
0.0
 20
0.0
 30
0.0
  9
$UCSORGBOTTOM
 10
0.0
 20
0.0
 30
0.0
  9
$UCSORGLEFT
 10
0.0
 20
0.0
 30
0.0
  9
$UCSORGRIGHT
 10
0.0
 20
0.0
 30
0.0
  9
$UCSORGFRONT
 10
0.0
 20
0.0
 30
0.0
  9
$UCSORGBACK
 10
0.0
 20
0.0
 30
0.0
  9
$PUCSBASE
  2

  9
$PUCSNAME
  2

  9
$PUCSORG
 10
0.0
 20
0.0
 30
0.0
  9
$PUCSXDIR
 10
1.0
 20
0.0
 30
0.0
  9
$PUCSYDIR
 10
0.0
 20
1.0
 30
0.0
  9
$PUCSORTHOREF
  2

  9
$PUCSORTHOVIEW
 70
     0
  9
$PUCSORGTOP
 10
0.0
 20
0.0
 30
0.0
  9
$PUCSORGBOTTOM
 10
0.0
 20
0.0
 30
0.0
  9
$PUCSORGLEFT
 10
0.0
 20
0.0
 30
0.0
  9
$PUCSORGRIGHT
 10
0.0
 20
0.0
 30
0.0
  9
$PUCSORGFRONT
 10
0.0
 20
0.0
 30
0.0
  9
$PUCSORGBACK
 10
0.0
 20
0.0
 30
0.0
  9
$USERI1
 70
     0
  9
$USERI2
 70
     0
  9
$USERI3
 70
     0
  9
$USERI4
 70
     0
  9
$USERI5
 70
     0
  9
$USERR1
 40
0.0
  9
$USERR2
 40
0.0
  9
$USERR3
 40
0.0
  9
$USERR4
 40
0.0
  9
$USERR5
 40
0.0
  9
$WORLDVIEW
 70
     1
  9
$SHADEDGE
 70
     3
  9
$SHADEDIF
 70
    70
  9
$TILEMODE
 70
     1
  9
$MAXACTVP
 70
    64
  9
$PINSBASE
 10
0.0
 20
0.0
 30
0.0
  9
$PLIMCHECK
 70
     0
  9
$PEXTMIN
 10
1.000000000000000E+20
 20
1.000000000000000E+20
 30
1.000000000000000E+20
  9
$PEXTMAX
 10
-1.000000000000000E+20
 20
-1.000000000000000E+20
 30
-1.000000000000000E+20
  9
$PLIMMIN
 10
0.0
 20
0.0
  9
$PLIMMAX
 10
12.0
 20
9.0
  9
$UNITMODE
 70
     0
  9
$VISRETAIN
 70
     1
  9
$PLINEGEN
 70
     0
  9
$PSLTSCALE
 70
     1
  9
$TREEDEPTH
 70
  3020
  9
$CMLSTYLE
  2
Standard
  9
$CMLJUST
 70
     0
  9
$CMLSCALE
 40
1.0
  9
$PROXYGRAPHICS
 70
     1
  9
$MEASUREMENT
 70
     0
  9
$CELWEIGHT
370
    -1
  9
$ENDCAPS
280
     0
  9
$JOINSTYLE
280
     0
  9
$LWDISPLAY
290
     1
  9
$INSUNITS
 70
     4
  9
$HYPERLINKBASE
  1

  9
$STYLESHEET
  1

  9
$XEDIT
290
     1
  9
$CEPSNTYPE
380
     0
  9
$PSTYLEMODE
290
     1
  9
$FINGERPRINTGUID
  2
{949E6379-4FF4-40FF-8E2E-2D7E66AFC3B9}
  9
$VERSIONGUID
  2
{FAEB1C32-E019-11D5-929B-00C0DF256EC4}
  9
$EXTNAMES
290
     1
  9
$PSVPSCALE
 40
0.0
  9
$OLESTARTUP
290
     0
  9
$SORTENTS
280
   127
  9
$INDEXCTL
280
     0
  9
$HIDETEXT
280
     1
  9
$XCLIPFRAME
290
     0
  9
$HALOGAP
280
     0
  9
$OBSCOLOR
 70
   257
  9
$OBSLTYPE
280
     0
  9
$INTERSECTIONDISPLAY
280
     0
  9
$INTERSECTIONCOLOR
 70
   257
  9
$DIMASSOC
280
     2
  9
$PROJECTNAME
  1

  0
ENDSEC
  0
SECTION
  2
CLASSES
  0
CLASS
  1
ACDBDICTIONARYWDFLT
  2
AcDbDictionaryWithDefault
  3
ObjectDBX Classes
 90
        0
 91
        4
280
     0
281
     0
  0
CLASS
  1
VISUALSTYLE
  2
AcDbVisualStyle
  3
ObjectDBX Classes
 90
     4095
 91
        4
280
     0
281
     0
  0
CLASS
  1
MATERIAL
  2
AcDbMaterial
  3
ObjectDBX Classes
 90
     1153
 91
        4
280
     0
281
     0
  0
CLASS
  1
WIPEOUT
  2
AcDbWipeout
  3
WipeOut|AutoCAD Express Tool|expresstools@autodesk.com
 90
      127
 91
        4
280
     0
281
     1
  0
CLASS
  1
SCALE
  2
AcDbScale
  3
ObjectDBX Classes
 90
     1153
 91
        4
280
     0
281
     0
  0
CLASS
  1
DICTIONARYVAR
  2
AcDbDictionaryVar
  3
ObjectDBX Classes
 90
        0
 91
        4
280
     0
281
     0
  0
ENDSEC
  0
SECTION
  2
TABLES
  0
TABLE
  2
VPORT
  5
8
330
0
100
AcDbSymbolTable
 70
     1
  0
VPORT
  5
29
330
8
100
AcDbSymbolTableRecord
100
AcDbViewportTableRecord
  2
*Active
 70
     0
 10
0.0
 20
0.0
 11
1.0
 21
1.0
 12
475.6862487244428
 22
202.8895474131961
 13
0.0
 23
0.0
 14
0.5
 24
0.5
 15
0.5
 25
0.5
 16
0.0
 26
0.0
 36
1.0
 17
0.0
 27
0.0
 37
0.0
 40
526.7501480663296
 41
1.719576340996747
 42
50.0
 43
0.0
 44
0.0
 50
0.0
 51
0.0
 71
     0
 72
   100
 73
     1
 74
     3
 75
     0
 76
     0
 77
     0
 78
     0
281
     0
 65
     1
110
0.0
120
0.0
130
0.0
111
1.0
121
0.0
131
0.0
112
0.0
122
1.0
132
0.0
 79
     0
146
0.0
  0
ENDTAB
  0
TABLE
  2
LTYPE
  5
5
330
0
100
AcDbSymbolTable
 70
     6
  0
LTYPE
  5
14
330
5
100
AcDbSymbolTableRecord
100
AcDbLinetypeTableRecord
  2
ByBlock
 70
     0
  3

 72
    65
 73
     0
 40
0.0
  0
LTYPE
  5
15
330
5
100
AcDbSymbolTableRecord
100
AcDbLinetypeTableRecord
  2
ByLayer
 70
     0
  3

 72
    65
 73
     0
 40
0.0
  0
LTYPE
  5
16
330
5
100
AcDbSymbolTableRecord
100
AcDbLinetypeTableRecord
  2
Continuous
 70
     0
  3
Solid line
 72
    65
 73
     0
 40
0.0
  0
LTYPE
  5
E6
330
5
100
AcDbSymbolTableRecord
100
AcDbLinetypeTableRecord
  2
CENTER
 70
     0
  3
- - - - - 
 72
    65
 73
     4
 40
10.0
 49
6.25
 74
     0
 49
-1.25
 74
     0
 49
1.25
 74
     0
 49
-1.249999999999999
 74
     0
  0
LTYPE
  5
102
330
5
100
AcDbSymbolTableRecord
100
AcDbLinetypeTableRecord
  2
Dot & Dashed
 70
     0
  3
- - - - - 
 72
    65
 73
     4
 40
13.4055552482605
 49
7.05555534362793
 74
     0
 49
-3.527777671813965
 74
     0
 49
0.0
 74
     0
 49
-2.822222232818604
 74
     0
  0
LTYPE
  5
107
330
5
100
AcDbSymbolTableRecord
100
AcDbLinetypeTableRecord
  2
Hidden Line
 70
     0
  3
- - - - - 
 72
    65
 73
     2
 40
7.824444465637206
 49
5.644444465637208
 74
     0
 49
-2.179999999999998
 74
     0
  0
LTYPE
  5
10A
330
5
100
AcDbSymbolTableRecord
100
AcDbLinetypeTableRecord
  2
Contour Line
 70
     0
  3
- - - - - 
 72
    65
 73
     2
 40
2000.0
 49
1000.0
 74
     0
 49
-1000.0
 74
     0
  0
LTYPE
  5
13A
330
5
100
AcDbSymbolTableRecord
100
AcDbLinetypeTableRecord
  2
Wipeout_Contour
 70
     0
  3
- - - - - 
 72
    65
 73
     2
 40
1000.0
 49
0.0
 74
     0
 49
-1000.0
 74
     0
  0
ENDTAB
  0
TABLE
  2
LAYER
  5
2
330
0
100
AcDbSymbolTable
 70
     6
  0
LAYER
  5
10
330
2
100
AcDbSymbolTableRecord
100
AcDbLayerTableRecord
  2
0
 70
     0
 62
     7
  6
Continuous
370
    -3
390
F
  0
LAYER
  5
3F
330
2
100
AcDbSymbolTableRecord
100
AcDbLayerTableRecord
  2
Key_ Sections_Pen_No__1
 70
     0
 62
     7
  6
Continuous
370
    13
390
F
  0
LAYER
  5
4D
330
2
100
AcDbSymbolTableRecord
100
AcDbLayerTableRecord
  2
0_Pen_No__146
 70
     0
 62
     9
420
 13290186
  6
Continuous
370
     5
390
F
  0
LAYER
  5
8E
330
2
100
AcDbSymbolTableRecord
100
AcDbLayerTableRecord
  2
Key_ Sections_Pen_No__146
 70
     0
 62
     9
420
 13290186
  6
Continuous
370
     5
390
F
  0
LAYER
  5
110
330
2
100
AcDbSymbolTableRecord
100
AcDbLayerTableRecord
  2
0_Pen_No__1
 70
     0
 62
     7
  6
Continuous
370
    13
390
F
  0
LAYER
  5
15A
330
2
100
AcDbSymbolTableRecord
100
AcDbLayerTableRecord
  2
Key_ Sections
 70
     0
 62
     7
  6
Continuous
370
    -3
390
F
  0
ENDTAB
  0
TABLE
  2
STYLE
  5
3
330
0
100
AcDbSymbolTable
 70
     2
  0
STYLE
  5
11
330
3
100
AcDbSymbolTableRecord
100
AcDbTextStyleTableRecord
  2
Standard
 70
     0
 40
0.0
 41
1.0
 50
0.0
 71
     0
 42
0.2
  3
txt
  4

  0
STYLE
  5
138
330
3
100
AcDbSymbolTableRecord
100
AcDbTextStyleTableRecord
  2
GENERATED_STYLE_1
 70
     0
 40
0.0
 41
1.0
 50
0.0
 71
     0
 42
0.2
  3

  4

1001
ACAD
1000
Arial
1071
       34
  0
ENDTAB
  0
TABLE
  2
VIEW
  5
6
330
0
100
AcDbSymbolTable
 70
     0
  0
ENDTAB
  0
TABLE
  2
UCS
  5
7
330
0
100
AcDbSymbolTable
 70
     0
  0
ENDTAB
  0
TABLE
  2
APPID
  5
9
330
0
100
AcDbSymbolTable
 70
     1
  0
APPID
  5
12
330
9
100
AcDbSymbolTableRecord
100
AcDbRegAppTableRecord
  2
ACAD
 70
     0
  0
ENDTAB
  0
TABLE
  2
DIMSTYLE
  5
A
330
0
100
AcDbSymbolTable
 70
     2
100
AcDbDimStyleTable
  0
DIMSTYLE
105
27
330
A
100
AcDbSymbolTableRecord
100
AcDbDimStyleTableRecord
  2
Standard
 70
     0
178
     0
340
11
  0
DIMSTYLE
105
13D
330
A
100
AcDbSymbolTableRecord
100
AcDbDimStyleTableRecord
  2
GENERATED_STYLE__1
 70
     0
 41
3.648
172
     1
178
     0
340
0
341
13E
  0
ENDTAB
  0
TABLE
  2
BLOCK_RECORD
  5
1
330
0
100
AcDbSymbolTable
 70
     9
  0
BLOCK_RECORD
  5
1F
330
1
100
AcDbSymbolTableRecord
100
AcDbBlockTableRecord
  2
*Model_Space
340
22
  0
BLOCK_RECORD
  5
1B
330
1
100
AcDbSymbolTableRecord
100
AcDbBlockTableRecord
  2
*Paper_Space
340
1E
  0
BLOCK_RECORD
  5
23
330
1
100
AcDbSymbolTableRecord
100
AcDbBlockTableRecord
  2
*Paper_Space0
340
26
  0
BLOCK_RECORD
  5
46
330
1
100
AcDbSymbolTableRecord
100
AcDbBlockTableRecord
  2
Fill_1
340
0
102
{BLKREFS
331
5B
102
}
  0
BLOCK_RECORD
  5
49
330
1
100
AcDbSymbolTableRecord
100
AcDbBlockTableRecord
  2
*X2
340
0
102
{BLKREFS
331
56
102
}
  0
BLOCK_RECORD
  5
5C
330
1
100
AcDbSymbolTableRecord
100
AcDbBlockTableRecord
  2
Fill_2
340
0
102
{BLKREFS
331
8B
102
}
  0
BLOCK_RECORD
  5
5F
330
1
100
AcDbSymbolTableRecord
100
AcDbBlockTableRecord
  2
*X4
340
0
102
{BLKREFS
331
80
102
}
  0
BLOCK_RECORD
  5
13E
330
1
100
AcDbSymbolTableRecord
100
AcDbBlockTableRecord
  2
ARROWHEAD_5
340
0
  0
BLOCK_RECORD
  5
156
330
1
100
AcDbSymbolTableRecord
100
AcDbBlockTableRecord
  2
Cadimage Break Line[1]
340
0
102
{BLKREFS
331
160
102
}
  0
BLOCK_RECORD
  5
161
330
1
100
AcDbSymbolTableRecord
100
AcDbBlockTableRecord
  2
Cadimage Break Line[2]
340
0
102
{BLKREFS
331
16A
102
}
  0
BLOCK_RECORD
  5
16B
330
1
100
AcDbSymbolTableRecord
100
AcDbBlockTableRecord
  2
DC-01-TS Window Head_STORY_MARKER
340
0
  0
ENDTAB
  0
ENDSEC
  0
SECTION
  2
BLOCKS
  0
BLOCK
  5
20
330
1F
100
AcDbEntity
  8
0
100
AcDbBlockBegin
  2
*Model_Space
 70
     0
 10
0.0
 20
0.0
 30
0.0
  3
*Model_Space
  1

  0
ENDBLK
  5
21
330
1F
100
AcDbEntity
  8
0
100
AcDbBlockEnd
  0
BLOCK
  5
1C
330
1B
100
AcDbEntity
 67
     1
  8
0
100
AcDbBlockBegin
  2
*Paper_Space
 70
     0
 10
0.0
 20
0.0
 30
0.0
  3
*Paper_Space
  1

  0
ENDBLK
  5
1D
330
1B
100
AcDbEntity
 67
     1
  8
0
100
AcDbBlockEnd
  0
BLOCK
  5
24
330
23
100
AcDbEntity
  8
0
100
AcDbBlockBegin
  2
*Paper_Space0
 70
     0
 10
0.0
 20
0.0
 30
0.0
  3
*Paper_Space0
  1

  0
ENDBLK
  5
25
330
23
100
AcDbEntity
  8
0
100
AcDbBlockEnd
  0
BLOCK
  5
47
330
46
100
AcDbEntity
  8
0
100
AcDbBlockBegin
  2
Fill_1
 70
     0
 10
0.0
 20
0.0
 30
0.0
  3
Fill_1
  1

  0
INSERT
  5
56
330
46
100
AcDbEntity
  8
0_Pen_No__146
  6
Continuous
100
AcDbBlockReference
  2
*X2
 10
0.0
 20
0.0
 30
0.0
  0
LINE
  5
57
330
46
100
AcDbEntity
  8
0_Pen_No__146
  6
Continuous
 62
     7
370
    13
100
AcDbLine
 10
725.1611110577651
 20
237.0603824908868
 30
0.0
 11
710.894789297722
 21
237.0492601928053
 31
0.0
  0
LINE
  5
58
330
46
100
AcDbEntity
  8
0_Pen_No__146
  6
Continuous
 62
     7
370
    13
100
AcDbLine
 10
720.7741752710497
 20
275.2700318988496
 30
0.0
 11
725.1611110577651
 21
237.0603824908868
 31
0.0
  0
LINE
  5
59
330
46
100
AcDbEntity
  8
0_Pen_No__146
  6
Continuous
 62
     7
370
    13
100
AcDbLine
 10
710.894789297722
 20
275.2700318988496
 30
0.0
 11
720.7741752710497
 21
275.2700318988496
 31
0.0
  0
LINE
  5
5A
330
46
100
AcDbEntity
  8
0_Pen_No__146
  6
Continuous
 62
     7
370
    13
100
AcDbLine
 10
710.894789297722
 20
237.0492601928053
 30
0.0
 11
710.894789297722
 21
275.2700318988496
 31
0.0
  0
ENDBLK
  5
48
330
46
100
AcDbEntity
  8
0
100
AcDbBlockEnd
  0
BLOCK
  5
4A
330
49
100
AcDbEntity
  8
0
100
AcDbBlockBegin
  2
*X2
 70
     1
 10
0.0
 20
0.0
 30
0.0
  3
*X2
  1

  0
LINE
  5
4C
330
49
100
AcDbEntity
  8
0_Pen_No__146
  6
Continuous
100
AcDbLine
 10
717.2107650247789
 20
275.2700318988496
 30
0.0
 11
712.2436740155223
 21
270.5327586510659
 31
0.0
  0
LINE
  5
4E
330
49
100
AcDbEntity
  8
0_Pen_No__146
  6
Continuous
100
AcDbLine
 10
723.9083415466758
 20
247.9718446446433
 30
0.0
 11
712.4559756435872
 21
237.0504773236251
 31
0.0
  0
LINE
  5
4F
330
49
100
AcDbEntity
  8
0_Pen_No__146
  6
Continuous
100
AcDbLine
 10
712.2436740155223
 20
270.5327586510659
 30
0.0
 11
710.894789297722
 21
269.2464161082703
 31
0.0
  0
LINE
  5
50
330
49
100
AcDbEntity
  8
0_Pen_No__146
  6
Continuous
100
AcDbLine
 10
723.1978931587214
 20
254.1597592041391
 30
0.0
 11
710.894789297722
 21
242.5025972667616
 31
0.0
  0
LINE
  5
51
330
49
100
AcDbEntity
  8
0_Pen_No__146
  6
Continuous
100
AcDbLine
 10
722.4658338924141
 20
260.5359017490463
 30
0.0
 11
710.894789297722
 21
249.1788565452832
 31
0.0
  0
LINE
  5
52
330
49
100
AcDbEntity
  8
0_Pen_No__146
  6
Continuous
100
AcDbLine
 10
721.820837218097
 20
266.1537402570976
 30
0.0
 11
721.0838270364197
 21
265.428385815174
 31
0.0
  0
LINE
  5
53
330
49
100
AcDbEntity
  8
0_Pen_No__146
  6
Continuous
100
AcDbLine
 10
721.0838270364197
 20
265.428385815174
 30
0.0
 11
710.894789297722
 21
255.4155345367132
 31
0.0
  0
LINE
  5
54
330
49
100
AcDbEntity
  8
0_Pen_No__146
  6
Continuous
100
AcDbLine
 10
720.5572815099544
 20
237.0567932570669
 30
0.0
 11
724.6937333493372
 21
241.1311825318188
 31
0.0
  0
LINE
  5
55
330
49
100
AcDbEntity
  8
0_Pen_No__146
  6
Continuous
100
AcDbLine
 10
710.894789297722
 20
261.7647616285975
 30
0.0
 11
721.1634650168951
 21
271.8793680209076
 31
0.0
  0
ENDBLK
  5
4B
330
49
100
AcDbEntity
  8
0
100
AcDbBlockEnd
  0
BLOCK
  5
5D
330
5C
100
AcDbEntity
  8
0
100
AcDbBlockBegin
  2
Fill_2
 70
     0
 10
0.0
 20
0.0
 30
0.0
  3
Fill_2
  1

  0
INSERT
  5
80
330
5C
100
AcDbEntity
  8
0_Pen_No__146
  6
Continuous
100
AcDbBlockReference
  2
*X4
 10
0.0
 20
0.0
 30
0.0
  0
LINE
  5
81
330
5C
100
AcDbEntity
  8
0_Pen_No__146
  6
Continuous
 62
     7
370
    13
100
AcDbLine
 10
596.5860869867693
 20
202.4939816057712
 30
0.0
 11
594.9860869867699
 21
194.4939816057712
 31
0.0
  0
LINE
  5
82
330
5C
100
AcDbEntity
  8
0_Pen_No__146
  6
Continuous
 62
     7
370
    13
100
AcDbLine
 10
594.9860869867699
 20
194.4939816057712
 30
0.0
 11
584.9860869867699
 21
194.4939816057758
 31
0.0
  0
LINE
  5
83
330
5C
100
AcDbEntity
  8
0_Pen_No__146
  6
Continuous
 62
     7
370
    13
100
AcDbLine
 10
584.9860869867699
 20
194.4939816057758
 30
0.0
 11
584.9860869867699
 21
202.4939816057758
 31
0.0
  0
LINE
  5
84
330
5C
100
AcDbEntity
  8
0_Pen_No__146
  6
Continuous
 62
     7
370
    13
100
AcDbLine
 10
584.9860869867699
 20
202.4939816057758
 30
0.0
 11
575.4860869867707
 21
202.4939816057758
 31
0.0
  0
LINE
  5
85
330
5C
100
AcDbEntity
  8
0_Pen_No__146
  6
Continuous
 62
     7
370
    13
100
AcDbLine
 10
575.4860869867707
 20
202.4939816057758
 30
0.0
 11
574.9860869867708
 21
201.9939816057758
 31
0.0
  0
LINE
  5
86
330
5C
100
AcDbEntity
  8
0_Pen_No__146
  6
Continuous
 62
     7
370
    13
100
AcDbLine
 10
574.9860869867708
 20
201.9939816057758
 30
0.0
 11
574.986086986769
 21
183.9939816057748
 31
0.0
  0
LINE
  5
87
330
5C
100
AcDbEntity
  8
0_Pen_No__146
  6
Continuous
 62
     7
370
    13
100
AcDbLine
 10
574.986086986769
 20
183.9939816057748
 30
0.0
 11
575.4860869867689
 21
183.4939816057748
 31
0.0
  0
LINE
  5
88
330
5C
100
AcDbEntity
  8
0_Pen_No__146
  6
Continuous
 62
     7
370
    13
100
AcDbLine
 10
575.4860869867689
 20
183.4939816057748
 30
0.0
 11
694.9860869867691
 21
183.4939816057803
 31
0.0
  0
LINE
  5
89
330
5C
100
AcDbEntity
  8
0_Pen_No__146
  6
Continuous
 62
     7
370
    13
100
AcDbLine
 10
694.9860869867691
 20
183.4939816057803
 30
0.0
 11
694.9860869867703
 21
202.4939816057708
 31
0.0
  0
LINE
  5
8A
330
5C
100
AcDbEntity
  8
0_Pen_No__146
  6
Continuous
 62
     7
370
    13
100
AcDbLine
 10
694.9860869867703
 20
202.4939816057708
 30
0.0
 11
596.5860869867693
 21
202.4939816057712
 31
0.0
  0
ENDBLK
  5
5E
330
5C
100
AcDbEntity
  8
0
100
AcDbBlockEnd
  0
BLOCK
  5
60
330
5F
100
AcDbEntity
  8
0
100
AcDbBlockBegin
  2
*X4
 70
     1
 10
0.0
 20
0.0
 30
0.0
  3
*X4
  1

  0
LINE
  5
62
330
5F
100
AcDbEntity
  8
0_Pen_No__146
  6
Continuous
100
AcDbLine
 10
672.4415783456603
 20
189.6630092769789
 30
0.0
 11
666.0559869366958
 21
183.493981605779
 31
0.0
  0
LINE
  5
63
330
5F
100
AcDbEntity
  8
0_Pen_No__146
  6
Continuous
100
AcDbLine
 10
650.6335148069008
 20
202.493981605771
 30
0.0
 11
630.9665197410991
 21
183.4939816057774
 31
0.0
  0
LINE
  5
64
330
5F
100
AcDbEntity
  8
0_Pen_No__146
  6
Continuous
100
AcDbLine
 10
615.544047611306
 20
202.4939816057711
 30
0.0
 11
595.8770525455024
 21
183.4939816057758
 31
0.0
  0
LINE
  5
65
330
5F
100
AcDbEntity
  8
0_Pen_No__146
  6
Continuous
100
AcDbLine
 10
580.4545804157154
 20
202.4939816057758
 30
0.0
 11
574.9860869867704
 21
197.2109490528978
 31
0.0
  0
LINE
  5
66
330
5F
100
AcDbEntity
  8
0_Pen_No__146
  6
Continuous
100
AcDbLine
 10
694.9860869867694
 20
186.7062878758578
 30
0.0
 11
691.6172511069532
 21
183.4939816057801
 31
0.0
  0
LINE
  5
67
330
5F
100
AcDbEntity
  8
0_Pen_No__146
  6
Continuous
100
AcDbLine
 10
676.2187271465549
 20
202.4939816057708
 30
0.0
 11
656.2928930775219
 21
183.4939816057785
 31
0.0
  0
LINE
  5
68
330
5F
100
AcDbEntity
  8
0_Pen_No__146
  6
Continuous
100
AcDbLine
 10
640.8943691171256
 20
202.493981605771
 30
0.0
 11
620.9685350480908
 21
183.4939816057769
 31
0.0
  0
LINE
  5
69
330
5F
100
AcDbEntity
  8
0_Pen_No__146
  6
Continuous
100
AcDbLine
 10
605.5700110876965
 20
202.4939816057712
 30
0.0
 11
600.4276537264159
 21
197.5905587665668
 31
0.0
  0
LINE
  5
6A
330
5F
100
AcDbEntity
  8
0_Pen_No__146
  6
Continuous
100
AcDbLine
 10
600.4276537264159
 20
197.5905587665668
 30
0.0
 11
585.6426486612174
 21
183.4939816057753
 31
0.0
  0
LINE
  5
6B
330
5F
100
AcDbEntity
  8
0_Pen_No__146
  6
Continuous
100
AcDbLine
 10
694.9860869867697
 20
193.9463616642706
 30
0.0
 11
683.9077603152681
 21
183.4939816057798
 31
0.0
  0
LINE
  5
6C
330
5F
100
AcDbEntity
  8
0_Pen_No__146
  6
Continuous
100
AcDbLine
 10
668.5288501268012
 20
202.4939816057709
 30
0.0
 11
663.9400912520912
 21
198.1644963705481
 31
0.0
  0
LINE
  5
6D
330
5F
100
AcDbEntity
  8
0_Pen_No__146
  6
Continuous
100
AcDbLine
 10
663.9400912520912
 20
198.1644963705481
 30
0.0
 11
648.8004260015701
 21
183.4939816057782
 31
0.0
  0
LINE
  5
6E
330
5F
100
AcDbEntity
  8
0_Pen_No__146
  6
Continuous
100
AcDbLine
 10
633.3724588954317
 20
202.493981605771
 30
0.0
 11
613.7648551833524
 21
183.4939816057766
 31
0.0
  0
LINE
  5
6F
330
5F
100
AcDbEntity
  8
0_Pen_No__146
  6
Continuous
100
AcDbLine
 10
598.3368880772158
 20
202.4939816057712
 30
0.0
 11
596.1652107891576
 21
200.3896006177122
 31
0.0
  0
LINE
  5
70
330
5F
100
AcDbEntity
  8
0_Pen_No__146
  6
Continuous
100
AcDbLine
 10
590.0810549352877
 20
194.4939816057734
 30
0.0
 11
578.7292843651348
 21
183.493981605775
 31
0.0
  0
LINE
  5
71
330
5F
100
AcDbEntity
  8
0_Pen_No__146
  6
Continuous
100
AcDbLine
 10
694.98608698677
 20
199.3537515544635
 30
0.0
 11
678.8692609484574
 21
183.4939816057796
 31
0.0
  0
LINE
  5
72
330
5F
100
AcDbEntity
  8
0_Pen_No__146
  6
Continuous
100
AcDbLine
 10
663.4135697244208
 20
202.4939816057709
 30
0.0
 11
661.4968020819374
 21
200.6077855407018
 31
0.0
  0
LINE
  5
73
330
5F
100
AcDbEntity
  8
0_Pen_No__146
  6
Continuous
100
AcDbLine
 10
661.4968020819374
 20
200.6077855407018
 30
0.0
 11
643.8798443282805
 21
183.493981605778
 31
0.0
  0
LINE
  5
74
330
5F
100
AcDbEntity
  8
0_Pen_No__146
  6
Continuous
100
AcDbLine
 10
628.4473441458541
 20
202.4939816057711
 30
0.0
 11
608.8887352829626
 21
183.4939816057764
 31
0.0
  0
LINE
  5
75
330
5F
100
AcDbEntity
  8
0_Pen_No__146
  6
Continuous
100
AcDbLine
 10
585.2210313687966
 20
194.4939816057756
 30
0.0
 11
574.9860869867691
 21
184.551355081482
 31
0.0
  0
LINE
  5
76
330
5F
100
AcDbEntity
  8
0_Pen_No__146
  6
Continuous
100
AcDbLine
 10
691.6679533137587
 20
202.4939816057708
 30
0.0
 11
688.706629175551
 21
199.6111095881328
 31
0.0
  0
LINE
  5
77
330
5F
100
AcDbEntity
  8
0_Pen_No__146
  6
Continuous
100
AcDbLine
 10
688.706629175551
 20
199.6111095881328
 30
0.0
 11
681.5688342780434
 21
192.6895030591991
 31
0.0
  0
LINE
  5
78
330
5F
100
AcDbEntity
  8
0_Pen_No__146
  6
Continuous
100
AcDbLine
 10
681.5688342780434
 20
192.6895030591991
 30
0.0
 11
675.3829449023415
 21
186.7216427202978
 31
0.0
  0
LINE
  5
79
330
5F
100
AcDbEntity
  8
0_Pen_No__146
  6
Continuous
100
AcDbLine
 10
675.3829449023415
 20
186.7216427202978
 30
0.0
 11
672.0499053027819
 21
183.4939816057793
 31
0.0
  0
LINE
  5
7A
330
5F
100
AcDbEntity
  8
0_Pen_No__146
  6
Continuous
100
AcDbLine
 10
656.6231149693917
 20
202.4939816057709
 30
0.0
 11
637.0027923442094
 21
183.4939816057777
 31
0.0
  0
LINE
  5
7B
330
5F
100
AcDbEntity
  8
0_Pen_No__146
  6
Continuous
100
AcDbLine
 10
621.5760020108213
 20
202.4939816057711
 30
0.0
 11
617.7728939747562
 21
198.8111138942857
 31
0.0
  0
LINE
  5
7C
330
5F
100
AcDbEntity
  8
0_Pen_No__146
  6
Continuous
100
AcDbLine
 10
617.7728939747562
 20
198.8111138942857
 30
0.0
 11
601.9398923663173
 21
183.4939816057761
 31
0.0
  0
LINE
  5
7D
330
5F
100
AcDbEntity
  8
0_Pen_No__146
  6
Continuous
100
AcDbLine
 10
584.9860869867699
 20
201.0149668125447
 30
0.0
 11
578.0513083940803
 21
194.3061365021166
 31
0.0
  0
LINE
  5
7E
330
5F
100
AcDbEntity
  8
0_Pen_No__146
  6
Continuous
100
AcDbLine
 10
578.0513083940803
 20
194.3061365021166
 30
0.0
 11
574.9860869867698
 21
191.3439209364463
 31
0.0
  0
LINE
  5
7F
330
5F
100
AcDbEntity
  8
0_Pen_No__146
  6
Continuous
100
AcDbLine
 10
672.4415783456606
 20
189.6630092769788
 30
0.0
 11
685.4679966654302
 21
202.4939816057708
 31
0.0
  0
ENDBLK
  5
61
330
5F
100
AcDbEntity
  8
0
100
AcDbBlockEnd
  0
BLOCK
  5
13F
330
13E
100
AcDbEntity
  8
0
100
AcDbBlockBegin
  2
ARROWHEAD_5
 70
     0
 10
0.0
 20
0.0
 30
0.0
  3
ARROWHEAD_5
  1

  0
SOLID
  5
141
330
13E
100
AcDbEntity
  8
0
  6
Continuous
 62
     0
370
     0
100
AcDbTrace
 10
-1.0
 20
0.2679
 30
0.0
 11
0.0
 21
0.0
 31
0.0
 12
-1.0
 22
-0.2679
 32
0.0
 13
-1.0
 23
0.2679
 33
0.0
  0
LINE
  5
142
330
13E
100
AcDbEntity
  8
0
  6
Continuous
 62
     0
370
     0
100
AcDbLine
 10
0.0
 20
0.0
 30
0.0
 11
-1.0
 21
0.0
 31
0.0
  0
ENDBLK
  5
140
330
13E
100
AcDbEntity
  8
0
100
AcDbBlockEnd
  0
BLOCK
  5
157
330
156
100
AcDbEntity
  8
0
100
AcDbBlockBegin
  2
Cadimage Break Line[1]
 70
     0
 10
566.1403356743789
 20
400.7512422124099
 30
0.0
  3
Cadimage Break Line[1]
  1

  0
HATCH
  5
159
330
156
100
AcDbEntity
  8
Key_ Sections
  6
Continuous
 62
     7
420
 16777215
370
     0
100
AcDbHatch
 10
0.0
 20
0.0
 30
0.0
210
0.0
220
0.0
230
1.0
  2
SOLID
 70
     1
 71
     0
 91
        1
 92
        3
 72
     0
 73
     1
 93
        8
 10
566.1403356743789
 20
400.7512422124099
 10
654.2043926655807
 20
400.7512422124099
 10
657.5377259989141
 20
385.7512422124099
 10
660.8710593322475
 20
415.7512422124099
 10
664.2043926655807
 20
400.7512422124099
 10
752.2684496567826
 20
400.7512422124099
 10
752.2684496567826
 20
461.1004043084557
 10
566.1403356743789
 20
461.1004043084557
 97
        0
 75
     0
 76
     1
 98
        0
  0
LINE
  5
15B
330
156
100
AcDbEntity
  8
Key_ Sections_Pen_No__1
  6
Continuous
100
AcDbLine
 10
566.1403356743789
 20
400.7512422124099
 30
0.0
 11
654.2043926655807
 21
400.7512422124099
 31
0.0
  0
LINE
  5
15C
330
156
100
AcDbEntity
  8
Key_ Sections_Pen_No__1
  6
Continuous
100
AcDbLine
 10
664.2043926655807
 20
400.7512422124099
 30
0.0
 11
752.2684496567826
 21
400.7512422124099
 31
0.0
  0
LINE
  5
15D
330
156
100
AcDbEntity
  8
Key_ Sections_Pen_No__1
  6
Continuous
100
AcDbLine
 10
664.2043926655807
 20
400.7512422124099
 30
0.0
 11
660.8710593322475
 21
415.7512422124099
 31
0.0
  0
LINE
  5
15E
330
156
100
AcDbEntity
  8
Key_ Sections_Pen_No__1
  6
Continuous
100
AcDbLine
 10
660.8710593322475
 20
415.7512422124099
 30
0.0
 11
657.5377259989141
 21
385.7512422124099
 31
0.0
  0
LINE
  5
15F
330
156
100
AcDbEntity
  8
Key_ Sections_Pen_No__1
  6
Continuous
100
AcDbLine
 10
657.5377259989141
 20
385.7512422124099
 30
0.0
 11
654.2043926655807
 21
400.7512422124099
 31
0.0
  0
ENDBLK
  5
158
330
156
100
AcDbEntity
  8
0
100
AcDbBlockEnd
  0
BLOCK
  5
162
330
161
100
AcDbEntity
  8
0
100
AcDbBlockBegin
  2
Cadimage Break Line[2]
 70
     0
 10
566.1403356743789
 20
-2.040361937458657
 30
0.0
  3
Cadimage Break Line[2]
  1

  0
HATCH
  5
164
330
161
100
AcDbEntity
  8
Key_ Sections
  6
Continuous
 62
     7
420
 16777215
370
     0
100
AcDbHatch
 10
0.0
 20
0.0
 30
0.0
210
0.0
220
0.0
230
1.0
  2
SOLID
 70
     1
 71
     0
 91
        1
 92
        3
 72
     0
 73
     1
 93
        8
 10
566.1403356743789
 20
-55.32130948206344
 10
752.2684496567826
 20
-55.32130948206346
 10
752.2684496567826
 20
-2.04036193745868
 10
664.2043926655807
 20
-2.040361937458669
 10
660.8710593322475
 20
-17.04036193745867
 10
657.5377259989141
 20
12.95963806254133
 10
654.2043926655807
 20
-2.040361937458667
 10
566.1403356743789
 20
-2.040361937458657
 97
        0
 75
     0
 76
     1
 98
        0
  0
LINE
  5
165
330
161
100
AcDbEntity
  8
Key_ Sections_Pen_No__1
  6
Continuous
100
AcDbLine
 10
566.1403356743789
 20
-2.040361937458657
 30
0.0
 11
654.2043926655807
 21
-2.040361937458667
 31
0.0
  0
LINE
  5
166
330
161
100
AcDbEntity
  8
Key_ Sections_Pen_No__1
  6
Continuous
100
AcDbLine
 10
664.2043926655807
 20
-2.040361937458669
 30
0.0
 11
752.2684496567826
 21
-2.04036193745868
 31
0.0
  0
LINE
  5
167
330
161
100
AcDbEntity
  8
Key_ Sections_Pen_No__1
  6
Continuous
100
AcDbLine
 10
664.2043926655807
 20
-2.040361937458669
 30
0.0
 11
660.8710593322475
 21
-17.04036193745867
 31
0.0
  0
LINE
  5
168
330
161
100
AcDbEntity
  8
Key_ Sections_Pen_No__1
  6
Continuous
100
AcDbLine
 10
660.8710593322475
 20
-17.04036193745867
 30
0.0
 11
657.5377259989141
 21
12.95963806254133
 31
0.0
  0
LINE
  5
169
330
161
100
AcDbEntity
  8
Key_ Sections_Pen_No__1
  6
Continuous
100
AcDbLine
 10
657.5377259989141
 20
12.95963806254133
 30
0.0
 11
654.2043926655807
 21
-2.040361937458667
 31
0.0
  0
ENDBLK
  5
163
330
161
100
AcDbEntity
  8
0
100
AcDbBlockEnd
  0
BLOCK
  5
16C
330
16B
100
AcDbEntity
  8
0
100
AcDbBlockBegin
  2
DC-01-TS Window Head_STORY_MARKER
 70
     0
 10
0.0
 20
0.0
 30
0.0
  3
DC-01-TS Window Head_STORY_MARKER
  1

  0
ENDBLK
  5
16D
330
16B
100
AcDbEntity
  8
0
100
AcDbBlockEnd
  0
ENDSEC
  0
SECTION
  2
ENTITIES
  0
LWPOLYLINE
  5
40
330
1F
100
AcDbEntity
  8
Key_ Sections_Pen_No__1
  6
Continuous
100
AcDbPolyline
 90
       17
 70
   129
 43
0.0
 10
734.286272015763
 20
203.9254279394784
 42
-0.3002301677243454
 10
733.599480221501
 20
202.6687442983201
 10
733.8882690032716
 20
201.0309417305635
 10
732.1156150478455
 20
200.7183750107626
 10
735.0849988859501
 20
183.8781624342534
 10
734.4941142341452
 20
183.7739735276535
 10
731.4205414894404
 20
201.2050707559704
 10
732.9962338942587
 20
201.4829078402372
 10
732.8116340190884
 20
202.5298257561861
 42
-0.3002301677243453
 10
731.736449718941
 20
203.4758254725367
 10
731.5135545573123
 20
203.5569526767311
 10
731.6952603578976
 20
203.7094219469847
 42
-0.3616552713890514
 10
732.6491667161391
 20
205.0717414111229
 10
732.7302939203291
 20
205.2946365727499
 10
732.882763190588
 20
205.1129307721647
 42
-0.3616552713890513
 10
734.2450826547192
 20
204.1590244139264
 10
734.4679778163483
 20
204.077897209732
  0
HATCH
  5
41
330
1F
100
AcDbEntity
  8
Key_ Sections_Pen_No__1
  6
Continuous
100
AcDbHatch
 10
0.0
 20
0.0
 30
0.0
210
0.0
220
0.0
230
1.0
  2
ANSI31
 70
     0
 71
     0
 91
        1
 92
        3
 72
     1
 73
     1
 93
        6
 10
730.5481469798215
 20
212.9452345947621
 42
0.0
 10
728.9496863988691
 20
213.3723993022032
 42
0.0
 10
728.7983623103314
 20
214.2306008543968
 42
-0.5486187866265653
 10
729.4201757093887
 20
214.8003878563746
 42
0.0
 10
749.790766186834
 20
209.3421045886016
 42
0.0
 10
749.790766186834
 20
207.7891903179871
 42
0.0
 97
        0
 75
     0
 76
     2
 52
0.0
 41
1.0
 77
     0
 78
     1
 53
45.00000000000006
 43
0.0
 44
0.0
 45
-224.5064030267289
 46
224.5064030267288
 79
     0
 98
        0
  0
HATCH
  5
42
330
1F
100
AcDbEntity
  8
Key_ Sections_Pen_No__1
  6
Continuous
100
AcDbHatch
 10
0.0
 20
0.0
 30
0.0
210
0.0
220
0.0
230
1.0
  2
ANSI31
 70
     0
 71
     0
 91
        1
 92
        3
 72
     0
 73
     1
 93
        4
 10
728.9544340993425
 20
213.3454737548225
 10
730.5531059414624
 20
212.9171109257638
 10
730.8213453321856
 20
211.3958497458701
 10
729.2226734900905
 20
211.824212574766
 97
        0
 75
     0
 76
     2
 52
0.0
 41
1.0
 77
     0
 78
     1
 53
45.00000000000006
 43
0.0
 44
0.0
 45
-224.5064030267289
 46
224.5064030267288
 79
     0
 98
        0
  0
HATCH
  5
43
330
1F
100
AcDbEntity
  8
Key_ Sections_Pen_No__1
  6
Continuous
100
AcDbHatch
 10
0.0
 20
0.0
 30
0.0
210
0.0
220
0.0
230
1.0
  2
ANSI31
 70
     0
 71
     0
 91
        1
 92
        3
 72
     1
 73
     1
 93
       17
 10
729.2226734900905
 20
211.824212574766
 42
0.0
 10
730.8213453321856
 20
211.3958497458701
 42
0.0
 10
730.8355463271837
 20
211.3153119011177
 42
0.0
 10
730.9396208615932
 20
211.2552244406606
 42
0.3844379001011164
 10
731.0242852017113
 20
207.6388983774215
 42
0.9999999999999999
 10
731.8961971063952
 20
208.463379808654
 42
-0.4293892643030272
 10
732.0129946151671
 20
210.6355118150939
 42
0.0
 10
734.4612273397305
 20
209.2220239925291
 42
-0.1447822245530068
 10
734.0759768669393
 20
208.4633798082993
 42
0.9999999999999999
 10
734.9478887717239
 20
207.638898377151
 42
0.0939609858908837
 10
735.4907661868385
 20
208.485724638136
 42
0.0
 10
735.4907661868385
 20
201.7174249432328
 42
0.0
 10
734.3166915911224
 20
201.7174249432328
 42
-0.6973581523214635
 10
733.9637189127825
 20
202.6757757172995
 42
2.639037186207659
 10
731.975968035779
 20
202.7128052464109
 42
-0.6836045676716673
 10
731.8219220523775
 20
202.3174249432314
 42
0.0
 10
730.8989766493942
 20
202.3174249432314
 42
0.0
 97
        0
 75
     0
 76
     2
 52
0.0
 41
1.0
 77
     0
 78
     1
 53
45.00000000000006
 43
0.0
 44
0.0
 45
-224.5064030267289
 46
224.5064030267288
 79
     0
 98
        0
  0
HATCH
  5
44
330
1F
100
AcDbEntity
  8
Key_ Sections_Pen_No__1
  6
Continuous
100
AcDbHatch
 10
0.0
 20
0.0
 30
0.0
210
0.0
220
0.0
230
1.0
  2
ANSI31
 70
     0
 71
     0
 91
        1
 92
        3
 72
     1
 73
     1
 93
        4
 10
730.9396208615932
 20
211.2552244406606
 42
0.0
 10
732.0129946151671
 20
210.6355118150939
 42
0.4293892642683227
 10
731.8961971062744
 20
208.4633798087818
 42
-0.9999999999999999
 10
731.0242852008083
 20
207.6388983783766
 42
-0.3844378999614215
 97
        0
 75
     0
 76
     2
 52
0.0
 41
1.0
 77
     0
 78
     1
 53
45.00000000000006
 43
0.0
 44
0.0
 45
-224.5064030267289
 46
224.5064030267288
 79
     0
 98
        0
  0
HATCH
  5
45
330
1F
100
AcDbEntity
  8
Key_ Sections_Pen_No__1
  6
Continuous
100
AcDbHatch
 10
0.0
 20
0.0
 30
0.0
210
0.0
220
0.0
230
1.0
  2
ANSI31
 70
     0
 71
     0
 91
        1
 92
        3
 72
     1
 73
     1
 93
        5
 10
734.0759768669393
 20
208.4633798082993
 42
0.1447822245530067
 10
734.4612273397305
 20
209.2220239925291
 42
0.0
 10
735.4907661868385
 20
208.6276194620105
 42
0.0
 10
735.4907661868385
 20
208.485724638136
 42
-0.0939609858909796
 10
734.9478887717232
 20
207.6388983771502
 42
-0.9999999999999999
 97
        0
 75
     0
 76
     2
 52
0.0
 41
1.0
 77
     0
 78
     1
 53
45.00000000000006
 43
0.0
 44
0.0
 45
-224.5064030267289
 46
224.5064030267288
 79
     0
 98
        0
  0
INSERT
  5
5B
330
1F
100
AcDbEntity
  8
0_Pen_No__146
  6
Continuous
100
AcDbBlockReference
  2
Fill_1
 10
0.0
 20
0.0
 30
0.0
  0
INSERT
  5
8B
330
1F
100
AcDbEntity
  8
0_Pen_No__146
  6
Continuous
100
AcDbBlockReference
  2
Fill_2
 10
0.0
 20
0.0
 30
0.0
  0
LWPOLYLINE
  5
8C
330
1F
100
AcDbEntity
  8
Key_ Sections_Pen_No__1
  6
Continuous
100
AcDbPolyline
 90
       18
 70
   129
 43
0.0
 10
731.4968177333919
 20
201.8811509373563
 10
730.2764198706305
 20
201.8811509373563
 42
-0.414213562373095
 10
729.9764198706304
 20
202.1811509373563
 10
729.9764198706304
 20
214.3811509373545
 42
-0.4931454260300061
 10
730.6058293931835
 20
214.8641138505018
 10
764.2540655841538
 20
205.8480961364025
 42
-0.339454258863414
 10
764.4764198706232
 20
205.5583183885157
 10
764.4764198706232
 20
204.6265698261472
 42
-0.4931454260312764
 10
764.0987741570923
 20
204.3367920782605
 10
731.4764198706304
 20
213.077925564517
 10
731.4764198706304
 20
210.8811509373563
 10
735.3264198706303
 20
208.6583524009762
 42
-0.2679491924309906
 10
735.4764198706304
 20
208.3985447798409
 10
735.4764198706304
 20
201.6811509373556
 42
-0.414213562373095
 10
735.1764198706276
 20
201.3811509373563
 10
735.0056436218416
 20
201.3811509373563
 42
-0.6140144056130334
 10
734.1868278946694
 20
202.9951981297299
 42
2.15358501384321
 10
731.9004739624922
 20
202.8360000560269
 42
-0.6629415866976213
  0
LINE
  5
8D
330
1F
100
AcDbEntity
  8
Key_ Sections_Pen_No__146
  6
Continuous
100
AcDbLine
 10
722.085142796665
 20
169.5641486129497
 30
0.0
 11
722.085142796665
 21
-4.705216860003258
 31
0.0
  0
LINE
  5
8F
330
1F
100
AcDbEntity
  8
Key_ Sections_Pen_No__146
  6
Continuous
100
AcDbLine
 10
721.0851427966649
 20
169.5641486129497
 30
0.0
 11
721.0851427966649
 21
-4.705216860003258
 31
0.0
  0
LINE
  5
90
330
1F
100
AcDbEntity
  8
Key_ Sections_Pen_No__146
  6
Continuous
100
AcDbLine
 10
720.1145768463234
 20
169.5641486129497
 30
0.0
 11
720.1145768463234
 21
-4.705216860003258
 31
0.0
  0
LINE
  5
91
330
1F
100
AcDbEntity
  8
Key_ Sections_Pen_No__146
  6
Continuous
100
AcDbLine
 10
719.085142796665
 20
169.5641486129497
 30
0.0
 11
719.085142796665
 21
-4.705216860003258
 31
0.0
  0
LINE
  5
92
330
1F
100
AcDbEntity
  8
Key_ Sections_Pen_No__1
  6
Continuous
100
AcDbLine
 10
737.0851427966649
 20
170.4939816277883
 30
0.0
 11
723.0851427966651
 21
156.4939816277883
 31
0.0
  0
LINE
  5
93
330
1F
100
AcDbEntity
  8
Key_ Sections_Pen_No__1
  6
Continuous
100
AcDbLine
 10
737.0851427966649
 20
156.4939816277883
 30
0.0
 11
723.0851427966651
 21
170.4939816277883
 31
0.0
  0
LINE
  5
94
330
1F
100
AcDbEntity
  8
Key_ Sections_Pen_No__146
  6
Continuous
100
AcDbLine
 10
738.085142796665
 20
169.5641486129497
 30
0.0
 11
738.085142796665
 21
-4.577595357619285
 31
0.0
  0
LINE
  5
95
330
1F
100
AcDbEntity
  8
Key_ Sections_Pen_No__146
  6
Continuous
100
AcDbLine
 10
739.0851427966651
 20
169.5641486129497
 30
0.0
 11
739.0851427966651
 21
-4.577595357619285
 31
0.0
  0
LINE
  5
96
330
1F
100
AcDbEntity
  8
Key_ Sections_Pen_No__146
  6
Continuous
100
AcDbLine
 10
740.0557087470064
 20
169.5641486129497
 30
0.0
 11
740.0557087470064
 21
-4.577595357619285
 31
0.0
  0
LINE
  5
97
330
1F
100
AcDbEntity
  8
Key_ Sections_Pen_No__146
  6
Continuous
100
AcDbLine
 10
741.0851427966649
 20
169.5641486129497
 30
0.0
 11
741.0851427966649
 21
-4.577595357619285
 31
0.0
  0
LINE
  5
98
330
1F
100
AcDbEntity
  8
Key_ Sections_Pen_No__1
  6
Continuous
100
AcDbLine
 10
698.3125516534917
 20
208.6414182654039
 30
0.0
 11
698.2740821643564
 21
208.6414182654039
 31
0.0
  0
LINE
  5
99
330
1F
100
AcDbEntity
  8
Key_ Sections_Pen_No__1
  6
Continuous
100
AcDbLine
 10
698.3125516534917
 20
210.546538265404
 30
0.0
 11
698.2740821643564
 21
210.546538265404
 31
0.0
  0
LINE
  5
9A
330
1F
100
AcDbEntity
  8
Key_ Sections_Pen_No__1
  6
Continuous
100
AcDbLine
 10
691.1308061594759
 20
248.0743480235094
 30
0.0
 11
691.1308061594759
 21
250.9883345606493
 31
0.0
  0
LINE
  5
9B
330
1F
100
AcDbEntity
  8
Key_ Sections_Pen_No__1
  6
Continuous
100
AcDbLine
 10
669.6152105748338
 20
250.1516447690071
 30
0.0
 11
669.6402330596906
 21
250.1921863992455
 31
0.0
  0
LINE
  5
9C
330
1F
100
AcDbEntity
  8
Key_ Sections_Pen_No__1
  6
Continuous
100
AcDbLine
 10
669.2932851193477
 20
249.4391447689839
 30
0.0
 11
669.6152105748338
 21
250.1516447690071
 31
0.0
  0
LINE
  5
9D
330
1F
100
AcDbEntity
  8
Key_ Sections_Pen_No__1
  6
Continuous
100
AcDbLine
 10
668.9713596638617
 20
248.7266447689606
 30
0.0
 11
669.2932851193477
 21
249.4391447689839
 31
0.0
  0
LINE
  5
9E
330
1F
100
AcDbEntity
  8
Key_ Sections_Pen_No__1
  6
Continuous
100
AcDbLine
 10
668.6494342083756
 20
248.2050585686218
 30
0.0
 11
668.9713596638617
 21
248.7266447689606
 31
0.0
  0
LINE
  5
9F
330
1F
100
AcDbEntity
  8
Key_ Sections_Pen_No__1
  6
Continuous
100
AcDbLine
 10
668.3619801694881
 20
248.0345876044583
 30
0.0
 11
668.6494342083756
 21
248.2050585686218
 31
0.0
  0
LINE
  5
A0
330
1F
100
AcDbEntity
  8
Key_ Sections_Pen_No__1
  6
Continuous
100
AcDbLine
 10
668.6674475725963
 20
247.4905876105175
 30
0.0
 11
668.3101438861344
 21
248.0408892881813
 31
0.0
  0
LINE
  5
A1
330
1F
100
AcDbEntity
  8
Key_ Sections_Pen_No__1
  6
Continuous
100
AcDbLine
 10
668.875780905932
 20
247.1891447689839
 30
0.0
 11
668.6674475725963
 21
247.4905876105175
 31
0.0
  0
LINE
  5
A2
330
1F
100
AcDbEntity
  8
Key_ Sections_Pen_No__1
  6
Continuous
100
AcDbLine
 10
669.0841142392677
 20
247.4905876105175
 30
0.0
 11
668.875780905932
 21
247.1891447689839
 31
0.0
  0
LINE
  5
A3
330
1F
100
AcDbEntity
  8
Key_ Sections_Pen_No__1
  6
Continuous
100
AcDbLine
 10
669.2924475725962
 20
248.3141447689839
 30
0.0
 11
669.0841142392677
 21
247.4905876105175
 31
0.0
  0
LINE
  5
A4
330
1F
100
AcDbEntity
  8
Key_ Sections_Pen_No__1
  6
Continuous
100
AcDbLine
 10
669.5007809059321
 20
249.4391447689839
 30
0.0
 11
669.2924475725962
 21
248.3141447689839
 31
0.0
  0
LINE
  5
A5
330
1F
100
AcDbEntity
  8
Key_ Sections_Pen_No__1
  6
Continuous
100
AcDbLine
 10
669.7091142392678
 20
250.5641447689839
 30
0.0
 11
669.5007809059321
 21
249.4391447689839
 31
0.0
  0
LINE
  5
A6
330
1F
100
AcDbEntity
  8
Key_ Sections_Pen_No__1
  6
Continuous
100
AcDbLine
 10
669.9174475725963
 20
251.3877019274503
 30
0.0
 11
669.7091142392678
 21
250.5641447689839
 31
0.0
  0
LINE
  5
A7
330
1F
100
AcDbEntity
  8
Key_ Sections_Pen_No__1
  6
Continuous
100
AcDbLine
 10
670.1257809059321
 20
251.6891447689839
 30
0.0
 11
669.9174475725963
 21
251.3877019274503
 31
0.0
  0
LINE
  5
A8
330
1F
100
AcDbEntity
  8
Key_ Sections_Pen_No__1
  6
Continuous
100
AcDbLine
 10
670.3341142392677
 20
251.3877019274503
 30
0.0
 11
670.1257809059321
 21
251.6891447689839
 31
0.0
  0
LINE
  5
A9
330
1F
100
AcDbEntity
  8
Key_ Sections_Pen_No__1
  6
Continuous
100
AcDbLine
 10
670.6740530589744
 20
250.8641447690305
 30
0.0
 11
670.3341142392677
 21
251.3877019274503
 31
0.0
  0
LINE
  5
AA
330
1F
100
AcDbEntity
  8
Key_ Sections_Pen_No__1
  6
Continuous
100
AcDbLine
 10
670.3521276034884
 20
250.673230969346
 30
0.0
 11
670.6740530589744
 21
250.8641447690305
 31
0.0
  0
LINE
  5
AB
330
1F
100
AcDbEntity
  8
Key_ Sections_Pen_No__1
  6
Continuous
100
AcDbLine
 10
670.0302021480023
 20
250.1516447690071
 30
0.0
 11
670.3521276034884
 21
250.673230969346
 31
0.0
  0
LINE
  5
AC
330
1F
100
AcDbEntity
  8
Key_ Sections_Pen_No__1
  6
Continuous
100
AcDbLine
 10
669.7082766925237
 20
249.4391447689839
 30
0.0
 11
670.0302021480023
 21
250.1516447690071
 31
0.0
  0
LINE
  5
AD
330
1F
100
AcDbEntity
  8
Key_ Sections_Pen_No__1
  6
Continuous
100
AcDbLine
 10
669.3863512370376
 20
248.7266447689606
 30
0.0
 11
669.7082766925237
 21
249.4391447689839
 31
0.0
  0
LINE
  5
AE
330
1F
100
AcDbEntity
  8
Key_ Sections_Pen_No__1
  6
Continuous
100
AcDbLine
 10
669.3613287521734
 20
248.6861031387223
 30
0.0
 11
669.3863512370376
 21
248.7266447689606
 31
0.0
  0
LINE
  5
AF
330
1F
100
AcDbEntity
  8
Key_ Sections_Pen_No__1
  6
Continuous
100
AcDbLine
 10
669.2165572723901
 20
248.0141447689373
 30
0.0
 11
670.8275087528896
 21
248.0141447689373
 31
0.0
  0
LINE
  5
B0
330
1F
100
AcDbEntity
  8
Key_ Sections_Pen_No__1
  6
Continuous
100
AcDbLine
 10
670.6740530589744
 20
250.8641447690305
 30
0.0
 11
672.2850045394738
 21
250.8641447690305
 31
0.0
  0
LINE
  5
B1
330
1F
100
AcDbEntity
  8
Key_ Sections_Pen_No__1
  6
Continuous
100
AcDbLine
 10
673.1740530589746
 20
250.8641447690305
 30
0.0
 11
674.7850045394738
 21
250.8641447690305
 31
0.0
  0
LINE
  5
B2
330
1F
100
AcDbEntity
  8
Key_ Sections_Pen_No__1
  6
Continuous
100
AcDbLine
 10
671.7165572723901
 20
248.0141447689373
 30
0.0
 11
673.3275087528895
 21
248.0141447689373
 31
0.0
  0
LINE
  5
B3
330
1F
100
AcDbEntity
  8
Key_ Sections_Pen_No__1
  6
Continuous
100
AcDbLine
 10
675.6740530589746
 20
250.8641447690305
 30
0.0
 11
677.2850045394739
 21
250.8641447690305
 31
0.0
  0
LINE
  5
B4
330
1F
100
AcDbEntity
  8
Key_ Sections_Pen_No__1
  6
Continuous
100
AcDbLine
 10
674.2165572723902
 20
248.0141447689373
 30
0.0
 11
675.8275087528895
 21
248.0141447689373
 31
0.0
  0
LINE
  5
B5
330
1F
100
AcDbEntity
  8
Key_ Sections_Pen_No__1
  6
Continuous
100
AcDbLine
 10
678.1740530589744
 20
250.8641447690305
 30
0.0
 11
679.7850045394739
 21
250.8641447690305
 31
0.0
  0
LINE
  5
B6
330
1F
100
AcDbEntity
  8
Key_ Sections_Pen_No__1
  6
Continuous
100
AcDbLine
 10
676.7165572723902
 20
248.0141447689373
 30
0.0
 11
678.3275087528896
 21
248.0141447689373
 31
0.0
  0
LINE
  5
B7
330
1F
100
AcDbEntity
  8
Key_ Sections_Pen_No__1
  6
Continuous
100
AcDbLine
 10
680.6740530589744
 20
250.8641447690305
 30
0.0
 11
682.2850045394738
 21
250.8641447690305
 31
0.0
  0
LINE
  5
B8
330
1F
100
AcDbEntity
  8
Key_ Sections_Pen_No__1
  6
Continuous
100
AcDbLine
 10
679.2165572723902
 20
248.0141447689373
 30
0.0
 11
680.8275087528896
 21
248.0141447689373
 31
0.0
  0
LINE
  5
B9
330
1F
100
AcDbEntity
  8
Key_ Sections_Pen_No__1
  6
Continuous
100
AcDbLine
 10
683.1740530589746
 20
250.8641447690305
 30
0.0
 11
684.7850045394738
 21
250.8641447690305
 31
0.0
  0
LINE
  5
BA
330
1F
100
AcDbEntity
  8
Key_ Sections_Pen_No__1
  6
Continuous
100
AcDbLine
 10
681.7165572723901
 20
248.0141447689373
 30
0.0
 11
683.3275087528895
 21
248.0141447689373
 31
0.0
  0
LINE
  5
BB
330
1F
100
AcDbEntity
  8
Key_ Sections_Pen_No__1
  6
Continuous
100
AcDbLine
 10
685.6740530589746
 20
250.8641447690305
 30
0.0
 11
687.2850045394739
 21
250.8641447690305
 31
0.0
  0
LINE
  5
BC
330
1F
100
AcDbEntity
  8
Key_ Sections_Pen_No__1
  6
Continuous
100
AcDbLine
 10
684.2165572723903
 20
248.0141447689373
 30
0.0
 11
685.8275087528895
 21
248.0141447689373
 31
0.0
  0
LINE
  5
BD
330
1F
100
AcDbEntity
  8
Key_ Sections_Pen_No__1
  6
Continuous
100
AcDbLine
 10
668.5350045394812
 20
250.8641447690305
 30
0.0
 11
669.7850045394739
 21
250.8641447690305
 31
0.0
  0
LINE
  5
BE
330
1F
100
AcDbEntity
  8
Key_ Sections_Pen_No__1
  6
Continuous
100
AcDbLine
 10
666.1674475725962
 20
247.8235973531835
 30
0.0
 11
666.0212667306628
 21
248.4014610914735
 31
0.0
  0
LINE
  5
BF
330
1F
100
AcDbEntity
  8
Key_ Sections_Pen_No__1
  6
Continuous
100
AcDbLine
 10
666.678855450446
 20
248.7266447689606
 30
0.0
 11
667.0007809059321
 21
249.4391447689839
 31
0.0
  0
LINE
  5
C0
330
1F
100
AcDbEntity
  8
Key_ Sections_Pen_No__1
  6
Continuous
100
AcDbLine
 10
667.0007809059321
 20
249.4391447689839
 30
0.0
 11
667.3227063614181
 21
250.1516447690071
 31
0.0
  0
LINE
  5
C1
330
1F
100
AcDbEntity
  8
Key_ Sections_Pen_No__1
  6
Continuous
100
AcDbLine
 10
667.3227063614181
 20
250.1516447690071
 30
0.0
 11
667.6446318169042
 21
250.673230969346
 31
0.0
  0
LINE
  5
C2
330
1F
100
AcDbEntity
  8
Key_ Sections_Pen_No__1
  6
Continuous
100
AcDbLine
 10
667.6446318169042
 20
250.673230969346
 30
0.0
 11
667.8123908441781
 21
250.772718328283
 31
0.0
  0
LINE
  5
C3
330
1F
100
AcDbEntity
  8
Key_ Sections_Pen_No__1
  6
Continuous
100
AcDbLine
 10
667.9838333757075
 20
250.7958510478482
 30
0.0
 11
667.8341142392677
 21
251.2513428196533
 31
0.0
  0
LINE
  5
C4
330
1F
100
AcDbEntity
  8
Key_ Sections_Pen_No__1
  6
Continuous
100
AcDbLine
 10
667.8341142392677
 20
251.2513428196533
 30
0.0
 11
667.625780905932
 21
251.5527856611868
 31
0.0
  0
LINE
  5
C5
330
1F
100
AcDbEntity
  8
Key_ Sections_Pen_No__1
  6
Continuous
100
AcDbLine
 10
667.625780905932
 20
251.5527856611868
 30
0.0
 11
667.4174475725963
 21
251.2513428196533
 31
0.0
  0
LINE
  5
C6
330
1F
100
AcDbEntity
  8
Key_ Sections_Pen_No__1
  6
Continuous
100
AcDbLine
 10
667.4174475725963
 20
251.2513428196533
 30
0.0
 11
667.2091142392678
 21
250.5641447689839
 31
0.0
  0
LINE
  5
C7
330
1F
100
AcDbEntity
  8
Key_ Sections_Pen_No__1
  6
Continuous
100
AcDbLine
 10
667.2091142392678
 20
250.5641447689839
 30
0.0
 11
667.0007809059321
 21
249.4391447689839
 31
0.0
  0
LINE
  5
C8
330
1F
100
AcDbEntity
  8
Key_ Sections_Pen_No__1
  6
Continuous
100
AcDbLine
 10
667.0007809059321
 20
249.4391447689839
 30
0.0
 11
666.7924475725963
 21
248.6471545116499
 31
0.0
  0
LINE
  5
C9
330
1F
100
AcDbEntity
  8
Key_ Sections_Pen_No__1
  6
Continuous
100
AcDbLine
 10
666.7924475725963
 20
248.6471545116499
 30
0.0
 11
666.5841142392678
 21
247.8235973531835
 31
0.0
  0
LINE
  5
CA
330
1F
100
AcDbEntity
  8
Key_ Sections_Pen_No__1
  6
Continuous
100
AcDbLine
 10
666.5841142392678
 20
247.8235973531835
 30
0.0
 11
666.375780905932
 21
247.5221545116499
 31
0.0
  0
LINE
  5
CB
330
1F
100
AcDbEntity
  8
Key_ Sections_Pen_No__1
  6
Continuous
100
AcDbLine
 10
666.375780905932
 20
247.5221545116499
 30
0.0
 11
666.1674475725962
 21
247.8235973531835
 31
0.0
  0
LINE
  5
CC
330
1F
100
AcDbEntity
  8
Key_ Sections_Pen_No__1
  6
Continuous
100
AcDbLine
 10
664.055770597079
 20
248.2094457412593
 30
0.0
 11
663.9850443789916
 21
248.6781771408849
 31
0.0
  0
LINE
  5
CD
330
1F
100
AcDbEntity
  8
Key_ Sections_Pen_No__1
  6
Continuous
100
AcDbLine
 10
664.0927993008304
 20
248.8330318774086
 30
0.0
 11
664.2256675773756
 21
248.9118277201185
 31
0.0
  0
LINE
  5
CE
330
1F
100
AcDbEntity
  8
Key_ Sections_Pen_No__1
  6
Continuous
100
AcDbLine
 10
664.2256675773756
 20
248.9118277201185
 30
0.0
 11
664.3632242416501
 21
249.1346981287923
 31
0.0
  0
LINE
  5
CF
330
1F
100
AcDbEntity
  8
Key_ Sections_Pen_No__1
  6
Continuous
100
AcDbLine
 10
664.3632242416501
 20
249.1346981287923
 30
0.0
 11
664.5007809059322
 21
249.4391447689839
 31
0.0
  0
LINE
  5
D0
330
1F
100
AcDbEntity
  8
Key_ Sections_Pen_No__1
  6
Continuous
100
AcDbLine
 10
664.5007809059322
 20
249.4391447689839
 30
0.0
 11
664.7032849713582
 21
249.8873359392153
 31
0.0
  0
LINE
  5
D1
330
1F
100
AcDbEntity
  8
Key_ Sections_Pen_No__1
  6
Continuous
100
AcDbLine
 10
664.7032849713582
 20
249.8873359392153
 30
0.0
 11
664.9057890367843
 21
250.2154346472805
 31
0.0
  0
LINE
  5
D2
330
1F
100
AcDbEntity
  8
Key_ Sections_Pen_No__1
  6
Continuous
100
AcDbLine
 10
665.1682076702568
 20
250.3006079677714
 30
0.0
 11
665.0512629062873
 21
250.7628993157985
 31
0.0
  0
LINE
  5
D3
330
1F
100
AcDbEntity
  8
Key_ Sections_Pen_No__1
  6
Continuous
100
AcDbLine
 10
665.0512629062873
 20
250.7628993157985
 30
0.0
 11
664.8892363345152
 21
250.9973397167621
 31
0.0
  0
LINE
  5
D4
330
1F
100
AcDbEntity
  8
Key_ Sections_Pen_No__1
  6
Continuous
100
AcDbLine
 10
664.8892363345152
 20
250.9973397167621
 30
0.0
 11
664.7272097627433
 21
250.7628993157985
 31
0.0
  0
LINE
  5
D5
330
1F
100
AcDbEntity
  8
Key_ Sections_Pen_No__1
  6
Continuous
100
AcDbLine
 10
664.7272097627433
 20
250.7628993157985
 30
0.0
 11
664.5758551308759
 21
250.1645832011698
 31
0.0
  0
LINE
  5
D6
330
1F
100
AcDbEntity
  8
Key_ Sections_Pen_No__1
  6
Continuous
100
AcDbLine
 10
664.5007809059322
 20
249.4391447689839
 30
0.0
 11
664.3895283287205
 21
248.8383808520146
 31
0.0
  0
LINE
  5
D7
330
1F
100
AcDbEntity
  8
Key_ Sections_Pen_No__1
  6
Continuous
100
AcDbLine
 10
664.3895283287205
 20
248.8383808520146
 30
0.0
 11
664.2782757515092
 21
248.2094457412593
 31
0.0
  0
LINE
  5
D8
330
1F
100
AcDbEntity
  8
Key_ Sections_Pen_No__1
  6
Continuous
100
AcDbLine
 10
664.2782757515092
 20
248.2094457412593
 30
0.0
 11
664.1670231742905
 21
248.0484715349728
 31
0.0
  0
LINE
  5
D9
330
1F
100
AcDbEntity
  8
Key_ Sections_Pen_No__1
  6
Continuous
100
AcDbLine
 10
664.1670231742905
 20
248.0484715349728
 30
0.0
 11
664.055770597079
 21
248.2094457412593
 31
0.0
  0
LINE
  5
DA
330
1F
100
AcDbEntity
  8
Key_ Sections_Pen_No__1
  6
Continuous
100
AcDbLine
 10
664.5758551308759
 20
250.1645832011698
 30
0.0
 11
664.5007809059322
 21
249.4391447689839
 31
0.0
  0
LINE
  5
DB
330
1F
100
AcDbEntity
  8
Key_ Sections_Pen_No__1
  6
Continuous
100
AcDbLine
 10
664.9057890367843
 20
250.2154346472805
 30
0.0
 11
665.1682076702568
 21
250.3006079677714
 31
0.0
  0
LINE
  5
DC
330
1F
100
AcDbEntity
  8
Key_ Sections_Pen_No__1
  6
Continuous
100
AcDbLine
 10
663.9850443789916
 20
248.6781771408849
 30
0.0
 11
663.961984435599
 21
248.8666561411217
 31
0.0
  0
LINE
  5
DD
330
1F
100
AcDbEntity
  8
Key_ Sections_Pen_No__1
  6
Continuous
100
AcDbLine
 10
643.5668165473118
 20
297.267996977958
 30
0.0
 11
687.4053574262281
 21
209.7199662335794
 31
0.0
  0
LINE
  5
DE
330
1F
100
AcDbEntity
  8
Key_ Sections_Pen_No__1
  6
Continuous
100
AcDbLine
 10
598.5668165473118
 20
297.267996977958
 30
0.0
 11
642.405357426228
 21
209.7199662335794
 31
0.0
  0
LINE
  5
DF
330
1F
100
AcDbEntity
  8
Key_ Sections_Pen_No__1
  6
Continuous
100
AcDbLine
 10
598.5668165473118
 20
209.7199662335794
 30
0.0
 11
642.405357426228
 21
297.267996977958
 31
0.0
  0
LINE
  5
E0
330
1F
100
AcDbEntity
  8
Key_ Sections_Pen_No__1
  6
Continuous
100
AcDbLine
 10
643.5668165473118
 20
209.7199662335794
 30
0.0
 11
687.4053574262281
 21
297.267996977958
 31
0.0
  0
LINE
  5
E1
330
1F
100
AcDbEntity
  8
Key_ Sections_Pen_No__1
  6
Continuous
100
AcDbLine
 10
597.9860869867698
 20
295.4939816057687
 30
0.0
 11
597.9860869867698
 21
414.1882589277561
 31
0.0
  0
LINE
  5
E2
330
1F
100
AcDbEntity
  8
Key_ Sections_Pen_No__1
  6
Continuous
100
AcDbLine
 10
687.9860869867699
 20
295.4939816057687
 30
0.0
 11
687.9860869867699
 21
425.0846439614222
 31
0.0
  0
LINE
  5
E3
330
1F
100
AcDbEntity
  8
Key_ Sections_Pen_No__1
  6
Continuous
100
AcDbLine
 10
584.9860869867704
 20
414.4636812833688
 30
0.0
 11
584.9860869867699
 21
195.4939816057733
 31
0.0
  0
LINE
  5
E4
330
1F
100
AcDbEntity
  8
Key_ Sections_Pen_No__1
  6
Continuous
100
AcDbLine
 10
584.9860869867699
 20
195.4939816057733
 30
0.0
 11
593.9860869867698
 21
195.4939816057733
 31
0.0
  0
LINE
  5
E5
330
1F
100
AcDbEntity
  8
Key_ Sections_Pen_No__1
  6
Continuous
100
AcDbLine
 10
593.9860869867698
 20
195.4939816057733
 30
0.0
 11
593.9860869867698
 21
414.4636812833688
 31
0.0
  0
LINE
  5
E7
330
1F
100
AcDbEntity
  8
Key_ Sections_Pen_No__1
  6
CENTER
100
AcDbLine
 10
618.7114782785947
 20
184.3294141986686
 30
0.0
 11
625.7326243017719
 21
264.5814804684904
 31
0.0
  0
LINE
  5
E8
330
1F
100
AcDbEntity
  8
Key_ Sections_Pen_No__1
  6
Continuous
100
AcDbLine
 10
618.1446689320633
 20
195.0613235905714
 30
0.0
 11
619.5138508840615
 21
194.9415356914666
 31
0.0
  0
LINE
  5
E9
330
1F
100
AcDbEntity
  8
Key_ Sections_Pen_No__1
  6
Continuous
100
AcDbLine
 10
618.0688015994031
 20
194.1941560101988
 30
0.0
 11
619.4379835514013
 21
194.0743681110941
 31
0.0
  0
LINE
  5
EA
330
1F
100
AcDbEntity
  8
Key_ Sections_Pen_No__1
  6
Continuous
100
AcDbLine
 10
617.9929342667429
 20
193.3269884298264
 30
0.0
 11
619.3621162187411
 21
193.2072005307216
 31
0.0
  0
LINE
  5
EB
330
1F
100
AcDbEntity
  8
Key_ Sections_Pen_No__1
  6
Continuous
100
AcDbLine
 10
617.9170669340826
 20
192.4598208494539
 30
0.0
 11
619.286248886081
 21
192.3400329503491
 31
0.0
  0
LINE
  5
EC
330
1F
100
AcDbEntity
  8
Key_ Sections_Pen_No__1
  6
Continuous
100
AcDbLine
 10
617.8088375057774
 20
191.2227528232339
 30
0.0
 11
620.7974216000525
 21
190.9612855949896
 31
0.0
  0
LINE
  5
ED
330
1F
100
AcDbEntity
  8
Key_ Sections_Pen_No__1
  6
Continuous
100
AcDbLine
 10
716.4851427966676
 20
162.0437970823266
 30
0.0
 11
716.4851427966676
 21
163.9437970823266
 31
0.0
  0
LINE
  5
EE
330
1F
100
AcDbEntity
  8
Key_ Sections_Pen_No__1
  6
Continuous
100
AcDbLine
 10
716.4851427966676
 20
163.9437970823266
 30
0.0
 11
716.4851427966676
 21
162.0437970823266
 31
0.0
  0
LINE
  5
EF
330
1F
100
AcDbEntity
  8
Key_ Sections_Pen_No__1
  6
Continuous
100
AcDbLine
 10
575.4860869867689
 20
183.4939816057748
 30
0.0
 11
575.4860869867689
 21
-7.30486273890899
 31
0.0
  0
LINE
  5
F0
330
1F
100
AcDbEntity
  8
Key_ Sections_Pen_No__146
  6
Continuous
100
AcDbLine
 10
720.7741752710497
 20
275.2700318988496
 30
0.0
 11
710.894789297722
 21
237.0492601928053
 31
0.0
  0
LWPOLYLINE
  5
F1
330
1F
100
AcDbEntity
  8
Key_ Sections_Pen_No__1
  6
Continuous
100
AcDbPolyline
 90
       25
 70
   129
 43
0.0
 10
746.352307054159
 20
161.8435931016783
 10
745.8023070541592
 20
161.8435931016783
 10
745.8023070541592
 20
158.293593101679
 10
745.9523002182133
 20
158.293593101679
 42
-0.414213562374094
 10
746.4523070541121
 20
157.7935862657817
 10
746.4523070541121
 20
157.4276445875743
 42
-0.3222824919740567
 10
746.1113491992722
 20
156.9536133691268
 42
-0.0594186347937949
 10
741.9375326240481
 20
156.0857445914313
 42
-0.4660174091873958
 10
741.7210525660903
 20
156.3024312137788
 10
741.8199307083756
 20
157.4326135516988
 42
-0.3105082534628371
 10
741.9640421768304
 20
157.607434742337
 10
742.1575817657933
 20
157.6629313264337
 42
0.3345953195019857
 10
743.6063070541588
 20
159.58545471831
 10
743.6063070541588
 20
161.043593101679
 10
741.8800141043228
 20
160.415273852315
 42
-0.8390996311772196
 10
741.5353313907685
 20
161.0122818246816
 10
743.6063070541593
 20
162.7500367400098
 10
743.6063070541595
 20
164.6816756708207
 10
741.8800141043228
 20
164.0533564214566
 42
-0.8390996311772196
 10
741.5353313907688
 20
164.6503643938233
 10
743.6063070541595
 20
166.3881193091517
 10
745.1319480131525
 20
167.787282541269
 42
-0.6526623844698686
 10
745.8023070541592
 20
167.4924843239303
 10
745.8023070541592
 20
163.2977525595574
 10
746.5560028166759
 20
162.2385345944699
 42
-0.6094093647963478
  0
LWPOLYLINE
  5
F2
330
1F
100
AcDbEntity
  8
Key_ Sections_Pen_No__1
  6
Continuous
100
AcDbPolyline
 90
        5
 70
   128
 43
0.0
 10
720.5851427966651
 20
170.4939816277883
 10
722.085142796665
 20
170.4939816277883
 10
723.0851427966651
 20
169.4939816277883
 10
723.0851427966651
 20
-2.590900996097684
 10
723.0851427966651
 20
-4.577595357619285
  0
LWPOLYLINE
  5
F3
330
1F
100
AcDbEntity
  8
Key_ Sections_Pen_No__1
  6
Continuous
100
AcDbPolyline
 90
        5
 70
   128
 43
0.0
 10
720.5851427966651
 20
170.4939816277883
 10
719.085142796665
 20
170.4939816277883
 10
718.0851427966649
 20
169.4939816277883
 10
718.0851427966649
 20
-2.590900996097684
 10
718.0851427966649
 20
-4.577595357619285
  0
LWPOLYLINE
  5
F4
330
1F
100
AcDbEntity
  8
Key_ Sections_Pen_No__1
  6
Continuous
100
AcDbPolyline
 90
        4
 70
   129
 43
0.0
 10
737.0851427966649
 20
170.4939816277883
 10
723.0851427966651
 20
170.4939816277883
 10
723.0851427966651
 20
156.4939816277883
 10
737.0851427966649
 20
156.4939816277883
  0
LWPOLYLINE
  5
F5
330
1F
100
AcDbEntity
  8
Key_ Sections_Pen_No__1
  6
Continuous
100
AcDbPolyline
 90
        5
 70
   128
 43
0.0
 10
739.585142796665
 20
170.4939816277883
 10
738.085142796665
 20
170.4939816277883
 10
737.0851427966649
 20
169.4939816277883
 10
737.0851427966649
 20
-2.590900996097684
 10
737.0851427966649
 20
-4.577595357619285
  0
LWPOLYLINE
  5
F6
330
1F
100
AcDbEntity
  8
Key_ Sections_Pen_No__1
  6
Continuous
100
AcDbPolyline
 90
        5
 70
   128
 43
0.0
 10
739.585142796665
 20
170.4939816277883
 10
741.0851427966649
 20
170.4939816277883
 10
742.085142796665
 20
169.4939816277883
 10
742.085142796665
 20
-2.590900996097684
 10
742.085142796665
 20
-4.577595357619285
  0
LWPOLYLINE
  5
F7
330
1F
100
AcDbEntity
  8
Key_ Sections_Pen_No__1
  6
Continuous
100
AcDbPolyline
 90
      121
 70
   129
 43
0.0
 10
727.4860869867701
 20
178.4939816057744
 10
714.7860869867732
 20
178.4939816057744
 10
714.7860869867732
 20
167.29398160577
 10
716.1860869867745
 20
167.2939816057718
 42
-0.4142135623659913
 10
717.0860869867687
 20
166.3939816057722
 10
717.0860869867687
 20
165.54398160577
 42
-0.4142135623683594
 10
716.6360869867717
 20
165.0939816057657
 42
-0.4142135623683594
 10
716.1860869867745
 20
165.54398160577
 10
716.1860869867745
 20
166.1939816057715
 10
714.7860869867732
 20
166.1939816057715
 10
714.7860869867732
 20
159.79398160577
 10
716.1860869867745
 20
159.79398160577
 10
716.1860869867745
 20
161.3439816057711
 42
-0.414213562373095
 10
716.6360869867717
 20
161.7939816057682
 42
-0.4142135623600718
 10
717.086086986776
 20
161.3439816057711
 10
717.0860869867687
 20
159.29398160577
 42
-0.414213562373095
 10
716.2860869867732
 20
158.4939816057744
 10
713.4860869867701
 20
158.4939816057708
 10
713.4860869867701
 20
178.4939816057744
 10
710.6276702450126
 20
178.4939816057744
 42
-0.0349207694917727
 10
709.2359392354123
 20
178.5913009183591
 10
690.7443350564866
 20
181.1901264046523
 42
-0.3738846794881719
 10
690.4860869867703
 20
181.4872068252775
 10
690.4860869867703
 20
182.9939816057707
 42
-0.4142135623837504
 10
690.7860869867658
 20
183.2939816057628
 10
691.4860869867701
 20
183.29398160577
 10
691.4860869867701
 20
182.1966902989974
 10
694.9860869867703
 20
181.7047973775392
 10
694.9860869867703
 20
202.4939816057708
 10
682.4860869867412
 20
202.4939816057708
 42
-0.9999999999999999
 10
682.4860869867412
 20
203.4939816057744
 10
683.9860869867339
 20
203.4939816057744
 10
684.1860869867381
 20
203.2939816057737
 10
692.7860485841743
 20
203.29398160577
 10
692.9860680367351
 20
203.4939816058253
 10
694.9860869867994
 20
203.4939816058253
 10
694.9860869867994
 20
214.3338864376714
 10
694.368357539403
 20
214.5587215693544
 10
693.9124009588708
 20
213.7689816058268
 42
-0.9999999999985706
 10
692.9597730147074
 20
214.3189816058279
 10
693.4576845768029
 20
215.1813897290434
 42
-0.36397023426803
 10
694.6657301239106
 20
215.6210823498062
 10
697.9281071301234
 20
214.4336742266118
 42
-0.3152987888814453
 10
698.5860869867978
 20
213.4939816058271
 10
698.5860869867978
 20
211.643981605825
 42
-0.4142135623707272
 10
698.1360869868008
 20
211.193981605817
 42
-0.4142135623801987
 10
697.6860869868037
 20
211.643981605825
 10
697.6860869867963
 20
213.244749027905
 10
696.2860869868023
 20
213.754307355874
 10
696.2860869868023
 20
206.7939816058264
 10
697.6860869867963
 20
206.7939816058264
 10
697.6860869867963
 20
207.4439816058261
 42
-0.4142135623494164
 10
698.1360869868008
 20
207.8939816058668
 42
-0.4142135623612556
 10
698.5860869867978
 20
207.4439816058279
 10
698.5860869867978
 20
206.5939816058257
 42
-0.4142294627972085
 10
697.6860381283773
 20
205.6939816058206
 10
696.2860869867732
 20
205.6939816058261
 10
696.2860869867732
 20
195.8525337567993
 10
701.9549370677563
 20
194.8529625379273
 42
-0.385106218910193
 10
704.1786693910067
 20
191.9939816057838
 10
706.6861038609175
 20
191.9939816057823
 42
0.4142135623732667
 10
707.4861038609181
 20
192.7939816057823
 10
707.4861038609181
 20
193.6939816057806
 10
706.5861038609006
 20
193.6939816057806
 42
-0.5773502691870718
 10
706.3262962397641
 20
194.1439816057777
 10
706.5798860782747
 20
194.5832120903528
 42
-0.2679491924306167
 10
707.186103860921
 20
194.9332120903422
 10
708.0861038609148
 20
194.9332120903477
 42
-0.414213562373095
 10
708.586103860915
 20
194.4332120903477
 10
708.586103860915
 20
192.7939816057823
 42
-0.414213562373095
 10
706.6861038609179
 20
190.8939816057823
 10
703.8525189006914
 20
190.8939816057813
 42
-0.0638620085948388
 10
703.4478887712977
 20
190.3388983837708
 42
-0.9999999998267607
 10
702.5759768670287
 20
191.1633798160036
 42
2.32188759253018
 10
700.396197106755
 20
191.1633798159313
 42
-1.000000000000001
 10
699.5242852026645
 20
190.338898384049
 42
-0.3997054591149695
 10
699.5356713338118
 20
194.061032430402
 10
696.2860869867732
 20
194.6340218228728
 10
696.2860869867732
 20
181.8250425641821
 10
710.0262996601746
 20
179.8939816060723
 10
723.1196550823738
 20
179.8939816056085
 42
-0.3471450134787182
 10
723.6722512702404
 20
183.1939816057715
 10
724.0064848552287
 20
183.1939816057715
 42
-0.6629415886225187
 10
724.4101410751468
 20
182.2391325016983
 42
2.365500782517212
 10
726.5620328983936
 20
182.2391325016983
 42
-0.6629942592391872
 10
726.965771481126
 20
183.1939816057715
 10
734.6858477787831
 20
183.1939816057733
 42
-0.414271948908547
 10
735.8860869867717
 20
181.9939816057726
 10
735.8860869867717
 20
179.8939816057668
 10
739.119655081697
 20
179.8939816055721
 42
-0.3257913950433775
 10
739.5242852025771
 20
183.0490648275085
 42
-1.000000000001103
 10
740.3961971066534
 20
182.2245833956316
 42
2.321887592537521
 10
742.5759768668726
 20
182.2245833956298
 42
-0.9999999999999999
 10
743.4478887709633
 20
183.0490648275121
 42
-0.3257913950459166
 10
743.8525188972638
 20
179.8939816026017
 10
746.7860869867878
 20
179.8939816057686
 42
0.4142135623741606
 10
747.2860869867876
 20
180.3939816057704
 10
747.2860869867732
 20
186.4939816057744
 42
-0.3639702342683429
 10
748.2777091735774
 20
187.6757509093899
 10
759.4597351644628
 20
189.6474437905676
 42
0.3639702342658842
 10
760.286086986795
 20
190.632251543579
 10
760.286086986795
 20
198.9939816057871
 42
-0.414213562373095
 10
760.786086986795
 20
199.4939816057871
 10
761.4860869868066
 20
199.4939816057889
 10
763.0912990727815
 20
198.9097321868034
 42
-0.9999999999999999
 10
762.6808749007911
 20
197.782101041856
 10
761.4860869867994
 20
198.2169682788102
 10
761.4860869867922
 20
190.6322515435735
 42
-0.3639702342746607
 10
759.6681129776558
 20
188.4656744869993
 10
748.4860869867701
 20
186.4939816057708
 10
748.4860869867701
 20
178.4939816057708
 10
732.9860869867703
 20
178.4939816057708
 42
-0.1989123673818864
 10
732.7739549524127
 20
178.581849571416
 10
732.5739549524154
 20
178.7818495714149
 42
-0.4142135623705836
 10
732.5739549524154
 20
179.2061136401266
 10
732.7739549524127
 20
179.4061136401255
 42
-0.1989123673796581
 10
732.9860869867703
 20
179.4939816057708
 10
734.4860869867703
 20
179.4939816057708
 10
734.4860869867703
 20
181.79398160577
 10
728.3233391779654
 20
181.79398160577
 42
-0.2601903471668084
 10
727.4860869871997
 20
179.0939816061695
  0
LWPOLYLINE
  5
F8
330
1F
100
AcDbEntity
  8
Key_ Sections_Pen_No__1
  6
Continuous
100
AcDbPolyline
 90
       54
 70
   129
 43
0.0
 10
692.0750623723511
 20
207.9344117956847
 42
-0.9044318352622429
 10
690.9860869867849
 20
208.0439816058337
 10
690.986086986792
 20
268.0939816058147
 42
-0.9999999999999999
 10
692.1860869867892
 20
268.0939816058147
 10
692.1860869867966
 20
254.3939816058177
 10
692.286086986795
 20
254.2939816058155
 10
692.286086986795
 20
251.2939816058155
 10
692.6860869867965
 20
250.8939816058159
 10
692.286086986795
 20
250.4939816058162
 10
692.286086986795
 20
249.4939816058144
 10
692.6860869867965
 20
249.0939816058166
 10
692.286086986795
 20
248.693981605817
 10
692.286086986795
 20
240.5992223837588
 10
707.9860869867921
 20
239.7764202490143
 10
707.9860869867921
 20
243.2574604183778
 10
703.4599190086707
 20
243.4946668307732
 42
-0.999999999999993
 10
703.5122549649136
 20
244.4932963655278
 10
708.7017877736652
 20
244.2213244755046
 42
-0.3989595459737187
 10
708.986086986792
 20
243.9217356150782
 10
708.986086986792
 20
238.9386369267187
 42
-0.4296339059668789
 10
708.6703861999192
 20
238.6390480662924
 10
703.7943985878087
 20
238.8945877488553
 42
-0.337734618571172
 10
703.4478887710214
 20
235.638898376414
 42
-1.000000000004172
 10
702.575976866931
 20
236.4633798083018
 42
2.321887592525651
 10
700.3961971067333
 20
236.4633798082999
 42
-1.000000000003066
 10
699.5242852026572
 20
235.6388983764231
 42
-0.3671677352530215
 10
699.3368237862381
 20
239.1281993702909
 10
692.286086986795
 20
239.4977128021768
 10
692.286086986795
 20
223.9380547393943
 42
0.3394542588632526
 10
693.0272679416961
 20
222.9721289131088
 10
764.3625441221088
 20
203.8578992687038
 42
-0.3394542588636857
 10
766.5860869868052
 20
200.9601217898384
 10
766.5860869867905
 20
190.1939816057879
 42
-0.5206566218226117
 10
766.1834014825367
 20
189.9121027537625
 10
762.3479759079786
 20
191.3080834894612
 42
-1.000000001055635
 10
762.7241980634284
 20
192.3417453696387
 10
765.486086986683
 20
191.3365000112302
 10
765.4860869845243
 20
200.6493875446634
 42
0.3394764723649119
 10
764.0778431724907
 20
202.4847980039872
 10
735.6145165767433
 20
210.1115233947658
 42
-0.2522039695794981
 10
734.9478887710289
 20
207.6388983764158
 42
-0.9999999999999999
 10
734.0759768669382
 20
208.4633798082981
 42
2.32188759254536
 10
731.8961971067331
 20
208.4633798082963
 42
-0.9999999999999997
 10
731.0242852026573
 20
207.6388983764213
 42
-0.3970394800083567
 10
731.0185710842757
 20
211.3430032648901
 10
703.1860869873593
 20
218.8006948992987
 10
703.1860869867965
 20
206.0439816058155
 42
-0.9999999999999999
 10
702.0860869867907
 20
206.0439816058155
 10
702.0860869867907
 20
219.0954390110732
 10
692.7154965093217
 20
221.6062811616489
 42
0.4931454260189074
 10
692.0860869867905
 20
221.1233182484992
 10
692.0860869867979
 20
209.210947452017
 10
693.6611241426149
 20
210.1202955779103
 42
-0.9999999999999999
 10
694.2111241426178
 20
209.1676676337469
  0
LWPOLYLINE
  5
F9
330
1F
100
AcDbEntity
  8
Key_ Sections_Pen_No__1
  6
Continuous
100
AcDbPolyline
 90
       11
 70
   129
 43
0.0
 10
696.7318421643564
 20
210.7279782654039
 10
696.7318421643564
 20
211.540518265404
 42
-1.000000000000063
 10
697.6390421643565
 20
211.540518265404
 10
697.6390421643565
 20
210.5465382654039
 10
698.2740821643564
 20
210.546538265404
 10
698.2740821643564
 20
208.6414182654039
 10
697.6390421643565
 20
208.6414182654039
 10
697.6390421643565
 20
207.647438265404
 42
-0.9999999999999373
 10
696.7318421643564
 20
207.6474382654039
 10
696.7318421643564
 20
208.4599782654039
 10
697.3668821643565
 20
209.5939782654039
  0
LWPOLYLINE
  5
FA
330
1F
100
AcDbEntity
  8
Key_ Sections_Pen_No__1
  6
Continuous
100
AcDbPolyline
 90
       27
 70
   128
 43
0.0
 10
693.6233250720619
 20
191.693982462404
 10
693.4468133671402
 20
193.6939809275844
 10
693.4468133671402
 20
202.9939810438135
 42
0.414213562373095
 10
692.9468133671403
 20
203.4939810438135
 10
691.7468133790613
 20
203.4939810438135
 42
0.414213562373095
 10
691.2468133790611
 20
202.9939810438135
 10
691.2468133790611
 20
199.9939803881624
 42
-0.414213562373095
 10
690.7468133790612
 20
199.4939803881624
 10
690.4468137247683
 20
199.4939803881624
 42
-0.414213562373095
 10
689.946813724768
 20
199.9939803881624
 10
689.946813724768
 20
203.4939810438135
 10
689.946813724768
 20
267.6276532514074
 42
-0.414213562373095
 10
690.9468137247682
 20
268.6276532514074
 10
694.4779608471513
 20
268.6276532514074
 42
-0.414213562373095
 10
695.4779608471512
 20
267.6276532514074
 10
695.4779608471512
 20
250.3562666280249
 10
696.6153063137575
 20
249.2189131481626
 10
706.5367166403943
 20
249.2189131481626
 42
0.3576431534069224
 10
707.0270529644281
 20
249.6210852925513
 10
707.252277277243
 20
250.7499627573469
 10
708.986086986792
 20
250.7499627573469
 10
708.986086986792
 20
225.0575990727746
 10
750.8385346754479
 20
213.8432693483695
 42
-0.3394542578381272
 10
751.9503061024665
 20
212.3943806103638
 10
751.9503061024665
 20
208.2886803384396
 42
-0.4931454097360787
 10
751.3208966052392
 20
207.8057174185119
 10
749.790766186834
 20
208.2157145424459
  0
LWPOLYLINE
  5
FB
330
1F
100
AcDbEntity
  8
Key_ Sections_Pen_No__1
  6
Continuous
100
AcDbPolyline
 90
       18
 70
   128
 43
0.0
 10
686.6659637389171
 20
247.8141447689839
 10
691.1308061594759
 20
247.8141447689839
 10
693.4032935328872
 20
245.5416573955434
 42
0.6681786379192987
 10
694.000780906303
 20
245.7891447689606
 10
694.000780906303
 20
253.0891447690072
 42
0.6681786379192987
 10
693.4032935328872
 20
253.3366321424244
 10
691.1308061594759
 20
251.0641447689839
 10
687.5275010704504
 20
251.0641447689839
 10
686.7932851193477
 20
249.4391447689839
 10
686.4713596638618
 20
248.7266447689606
 10
686.1494342083755
 20
248.2050585686218
 10
685.8275087528895
 20
248.0141447689373
 10
686.1674475725962
 20
247.4905876105175
 10
686.375780905932
 20
247.1891447689839
 10
686.5841142392678
 20
247.4905876105175
 10
686.7924475725963
 20
248.3141447689839
 10
687.0007809059321
 20
249.4391447689839
 10
687.1448896046718
 20
250.2173317421682
  0
LWPOLYLINE
  5
FC
330
1F
100
AcDbEntity
  8
Key_ Sections_Pen_No__1
  6
Continuous
100
AcDbPolyline
 90
       21
 70
   128
 43
0.0
 10
671.8613287521734
 20
248.6861031387223
 10
671.8863512370375
 20
248.7266447689606
 10
672.2082766925236
 20
249.4391447689839
 10
672.5302021480026
 20
250.1516447690071
 10
672.8521276034886
 20
250.673230969346
 10
673.1740530589746
 20
250.8641447690305
 10
672.8341142392678
 20
251.3877019274503
 10
672.6257809059321
 20
251.6891447689839
 10
672.4174475725963
 20
251.3877019274503
 10
672.2091142392678
 20
250.5641447689839
 10
672.000780905932
 20
249.4391447689839
 10
671.7924475725964
 20
248.3141447689839
 10
671.5841142392679
 20
247.4905876105175
 10
671.3757809059321
 20
247.1891447689839
 10
671.1674475725963
 20
247.4905876105175
 10
670.8275087528896
 20
248.0141447689373
 10
671.1494342083756
 20
248.2050585686218
 10
671.4713596638617
 20
248.7266447689606
 10
671.7932851193476
 20
249.4391447689839
 10
672.1152105748337
 20
250.1516447690071
 10
672.1402330596907
 20
250.1921863992455
  0
LWPOLYLINE
  5
FD
330
1F
100
AcDbEntity
  8
Key_ Sections_Pen_No__1
  6
Continuous
100
AcDbPolyline
 90
       21
 70
   128
 43
0.0
 10
674.3613287521733
 20
248.6861031387223
 10
674.3863512370375
 20
248.7266447689606
 10
674.7082766925236
 20
249.4391447689839
 10
675.0302021480024
 20
250.1516447690071
 10
675.3521276034885
 20
250.673230969346
 10
675.6740530589746
 20
250.8641447690305
 10
675.3341142392678
 20
251.3877019274503
 10
675.1257809059321
 20
251.6891447689839
 10
674.9174475725962
 20
251.3877019274503
 10
674.7091142392677
 20
250.5641447689839
 10
674.5007809059322
 20
249.4391447689839
 10
674.2924475725963
 20
248.3141447689839
 10
674.0841142392678
 20
247.4905876105175
 10
673.8757809059321
 20
247.1891447689839
 10
673.6674475725962
 20
247.4905876105175
 10
673.3275087528895
 20
248.0141447689373
 10
673.6494342083755
 20
248.2050585686218
 10
673.9713596638616
 20
248.7266447689606
 10
674.2932851193476
 20
249.4391447689839
 10
674.6152105748337
 20
250.1516447690071
 10
674.6402330596907
 20
250.1921863992455
  0
LWPOLYLINE
  5
FE
330
1F
100
AcDbEntity
  8
Key_ Sections_Pen_No__1
  6
Continuous
100
AcDbPolyline
 90
       21
 70
   128
 43
0.0
 10
676.8613287521733
 20
248.6861031387223
 10
676.8863512370376
 20
248.7266447689606
 10
677.2082766925237
 20
249.4391447689839
 10
677.5302021480024
 20
250.1516447690071
 10
677.8521276034885
 20
250.673230969346
 10
678.1740530589744
 20
250.8641447690305
 10
677.8341142392677
 20
251.3877019274503
 10
677.625780905932
 20
251.6891447689839
 10
677.4174475725964
 20
251.3877019274503
 10
677.2091142392679
 20
250.5641447689839
 10
677.0007809059321
 20
249.4391447689839
 10
676.7924475725963
 20
248.3141447689839
 10
676.5841142392678
 20
247.4905876105175
 10
676.375780905932
 20
247.1891447689839
 10
676.1674475725962
 20
247.4905876105175
 10
675.8275087528895
 20
248.0141447689373
 10
676.1494342083757
 20
248.2050585686218
 10
676.4713596638618
 20
248.7266447689606
 10
676.7932851193477
 20
249.4391447689839
 10
677.1152105748338
 20
250.1516447690071
 10
677.1402330596907
 20
250.1921863992455
  0
LWPOLYLINE
  5
FF
330
1F
100
AcDbEntity
  8
Key_ Sections_Pen_No__1
  6
Continuous
100
AcDbPolyline
 90
       21
 70
   128
 43
0.0
 10
679.3613287521734
 20
248.6861031387223
 10
679.3863512370376
 20
248.7266447689606
 10
679.7082766925237
 20
249.4391447689839
 10
680.0302021480023
 20
250.1516447690071
 10
680.3521276034884
 20
250.673230969346
 10
680.6740530589744
 20
250.8641447690305
 10
680.3341142392677
 20
251.3877019274503
 10
680.1257809059322
 20
251.6891447689839
 10
679.9174475725963
 20
251.3877019274503
 10
679.7091142392678
 20
250.5641447689839
 10
679.5007809059321
 20
249.4391447689839
 10
679.2924475725962
 20
248.3141447689839
 10
679.0841142392677
 20
247.4905876105175
 10
678.875780905932
 20
247.1891447689839
 10
678.6674475725963
 20
247.4905876105175
 10
678.3275087528896
 20
248.0141447689373
 10
678.6494342083756
 20
248.2050585686218
 10
678.9713596638617
 20
248.7266447689606
 10
679.2932851193477
 20
249.4391447689839
 10
679.6152105748338
 20
250.1516447690071
 10
679.6402330596906
 20
250.1921863992455
  0
LWPOLYLINE
  5
100
330
1F
100
AcDbEntity
  8
Key_ Sections_Pen_No__1
  6
Continuous
100
AcDbPolyline
 90
       21
 70
   128
 43
0.0
 10
681.8613287521734
 20
248.6861031387223
 10
681.8863512370375
 20
248.7266447689606
 10
682.2082766925236
 20
249.4391447689839
 10
682.5302021480023
 20
250.1516447690071
 10
682.8521276034886
 20
250.673230969346
 10
683.1740530589746
 20
250.8641447690305
 10
682.8341142392678
 20
251.3877019274503
 10
682.6257809059321
 20
251.6891447689839
 10
682.4174475725963
 20
251.3877019274503
 10
682.2091142392678
 20
250.5641447689839
 10
682.000780905932
 20
249.4391447689839
 10
681.7924475725962
 20
248.3141447689839
 10
681.5841142392677
 20
247.4905876105175
 10
681.3757809059321
 20
247.1891447689839
 10
681.1674475725963
 20
247.4905876105175
 10
680.8275087528896
 20
248.0141447689373
 10
681.1494342083756
 20
248.2050585686218
 10
681.4713596638617
 20
248.7266447689606
 10
681.7932851193476
 20
249.4391447689839
 10
682.1152105748337
 20
250.1516447690071
 10
682.1402330596908
 20
250.1921863992455
  0
LWPOLYLINE
  5
101
330
1F
100
AcDbEntity
  8
Key_ Sections_Pen_No__1
  6
Continuous
100
AcDbPolyline
 90
       21
 70
   128
 43
0.0
 10
684.3613287521733
 20
248.6861031387223
 10
684.3863512370375
 20
248.7266447689606
 10
684.7082766925236
 20
249.4391447689839
 10
685.0302021480024
 20
250.1516447690071
 10
685.3521276034885
 20
250.673230969346
 10
685.6740530589746
 20
250.8641447690305
 10
685.3341142392678
 20
251.3877019274503
 10
685.1257809059321
 20
251.6891447689839
 10
684.9174475725962
 20
251.3877019274503
 10
684.7091142392677
 20
250.5641447689839
 10
684.5007809059322
 20
249.4391447689839
 10
684.2924475725963
 20
248.3141447689839
 10
684.0841142392678
 20
247.4905876105175
 10
683.8757809059321
 20
247.1891447689839
 10
683.6674475725962
 20
247.4905876105175
 10
683.3275087528895
 20
248.0141447689373
 10
683.6494342083755
 20
248.2050585686218
 10
683.9713596638616
 20
248.7266447689606
 10
684.2932851193476
 20
249.4391447689839
 10
684.6152105748337
 20
250.1516447690071
 10
684.6402330596907
 20
250.1921863992455
  0
LWPOLYLINE
  5
103
330
1F
100
AcDbEntity
  8
Key_ Sections_Pen_No__1
  6
Dot & Dashed
100
AcDbPolyline
 90
        4
 70
   128
 43
0.0
 10
691.0662475668349
 20
292.7427925616101
 10
691.0662475668349
 20
274.571526597733
 10
694.3051092287279
 20
272.0643313670031
 10
694.3051092287279
 20
242.5330674604877
  0
LWPOLYLINE
  5
104
330
1F
100
AcDbEntity
  8
Key_ Sections_Pen_No__1
  6
Continuous
100
AcDbPolyline
 90
       13
 70
   129
 43
0.0
 10
38.37295248457029
 20
195.1228226284052
 10
37.19887788884891
 20
195.1228226284052
 42
-0.6973581523210377
 10
36.845905210518
 20
196.0811734024751
 42
2.63903718620015
 10
34.85815433351014
 20
196.1182029315837
 42
-0.6836045676707099
 10
34.70410835011062
 20
195.7228226284038
 10
33.78116294712596
 20
195.7228226284038
 10
31.68054860806368
 20
207.6359985395661
 42
-0.5486187866275606
 10
32.30236200711867
 20
208.2057855415474
 10
52.67295248456583
 20
202.747502273774
 10
52.67295248456583
 20
201.1945880031595
 10
33.4303332775533
 20
206.3506322799344
 10
33.71773262491551
 20
204.72070958629
 10
38.37295248457029
 20
202.0330171471828
  0
LWPOLYLINE
  5
105
330
1F
100
AcDbEntity
  8
Key_ Sections_Pen_No__1
  6
Continuous
100
AcDbPolyline
 90
        8
 70
   129
 43
0.0
 10
684.98608698677
 20
208.4939816057687
 10
645.9860869867698
 20
208.4939816057687
 42
-0.4142135623730953
 10
642.9860869867699
 20
211.4939816057687
 10
642.9860869867699
 20
295.4939816057687
 42
-0.414213562373095
 10
645.9860869867698
 20
298.4939816057687
 10
684.98608698677
 20
298.4939816057687
 42
-0.414213562373095
 10
687.9860869867699
 20
295.4939816057687
 10
687.9860869867699
 20
211.4939816057687
 42
-0.414213562373095
  0
LWPOLYLINE
  5
106
330
1F
100
AcDbEntity
  8
Key_ Sections_Pen_No__1
  6
Continuous
100
AcDbPolyline
 90
        8
 70
   129
 43
0.0
 10
639.9860869867698
 20
208.4939816057687
 10
600.9860869867699
 20
208.4939816057687
 42
-0.4142135623730953
 10
597.9860869867698
 20
211.4939816057687
 10
597.9860869867698
 20
295.4939816057687
 42
-0.414213562373095
 10
600.9860869867699
 20
298.4939816057687
 10
639.9860869867698
 20
298.4939816057687
 42
-0.414213562373095
 10
642.9860869867699
 20
295.4939816057687
 10
642.9860869867699
 20
211.4939816057687
 42
-0.414213562373095
  0
LWPOLYLINE
  5
108
330
1F
100
AcDbEntity
  8
Key_ Sections_Pen_No__1
  6
Hidden Line
100
AcDbPolyline
 90
        3
 70
   128
 43
0.0
 10
688.98608698677
 20
433.6477965903564
 10
688.98608698677
 20
207.4939816057687
 10
596.6633360741821
 20
207.4939816057687
  0
LWPOLYLINE
  5
109
330
1F
100
AcDbEntity
  8
Key_ Sections_Pen_No__1
  6
Continuous
100
AcDbPolyline
 90
        7
 70
   128
 43
0.0
 10
689.9468137247663
 20
416.9200491549851
 10
689.9468137247663
 20
270.0038039613083
 10
692.9468137247682
 20
269.5829904193404
 10
692.9468137247682
 20
253.1404504349481
 10
708.9468137247626
 20
253.1404504349481
 10
709.9468137247627
 20
254.1404504349481
 10
709.9468137247627
 20
417.9925734391053
  0
LWPOLYLINE
  5
10B
330
1F
100
AcDbEntity
  8
Key_ Sections_Pen_No__1
  6
Contour Line
100
AcDbPolyline
 90
        4
 70
   128
 43
0.0
 10
692.8529026287285
 20
432.493494844087
 10
692.8529026287285
 20
275.6030523786663
 10
696.0917642906215
 20
273.0958571479365
 10
696.0917642906215
 20
243.5645932414211
  0
LWPOLYLINE
  5
10C
330
1F
100
AcDbEntity
  8
Key_ Sections_Pen_No__1
  6
Continuous
100
AcDbPolyline
 90
       10
 70
   129
 43
0.0
 10
620.7974216000525
 20
190.9612855949896
 42
-0.2475267649991796
 10
620.9923983359232
 20
186.7963276656871
 42
-0.331135080274166
 10
620.4842991254487
 20
186.4832166013232
 10
617.3395944261885
 20
186.7583426126467
 42
-0.331135080274166
 10
616.8935855501486
 20
187.1549273183594
 42
-0.2475267649991796
 10
617.8088375057774
 20
191.2227528232339
 10
623.7982196947528
 20
259.6817045040915
 42
0.1245641564323093
 10
625.2495430398737
 20
262.3244048688795
 10
625.7835757865328
 20
262.277683057595
 42
0.1012549879648114
 10
626.6861167183607
 20
258.2693787919142
  0
LWPOLYLINE
  5
10D
330
1F
100
AcDbEntity
  8
Key_ Sections_Pen_No__1
  6
Continuous
100
AcDbPolyline
 90
       23
 70
   129
 43
0.0
 10
715.1003427966672
 20
162.1077559094711
 42
0.2556906500445654
 10
714.9851427966677
 20
161.8972114723565
 10
714.9851427966674
 20
161.1937970823265
 42
0.9999999999999999
 10
715.8851427966677
 20
161.1937970823266
 10
715.8851427966677
 20
162.0437970823266
 10
716.4851427966676
 20
162.0437970823266
 10
717.0851427966677
 20
162.0437970823265
 10
717.0851427966677
 20
159.4437970823264
 42
0.414213562373095
 10
717.3351427966678
 20
159.1937970823265
 10
717.8351427966677
 20
159.1937970823264
 42
0.414213562373095
 10
718.0851427966678
 20
159.4437970823265
 10
718.0851427966678
 20
162.9937970823264
 10
718.0851427966678
 20
166.5437970823265
 42
0.414213562373095
 10
717.8351427966677
 20
166.7937970823264
 10
717.3351427966678
 20
166.7937970823265
 42
0.414213562373095
 10
717.0851427966677
 20
166.5437970823264
 10
717.0851427966677
 20
163.9437970823266
 10
716.4851427966676
 20
163.9437970823266
 10
715.8851427966677
 20
163.9437970823266
 10
715.8851427966677
 20
164.7937970823266
 42
0.9999999999999999
 10
714.9851427966677
 20
164.7937970823266
 10
714.9851427966677
 20
164.0903826922967
 42
0.2556906500445664
 10
715.1003427966688
 20
163.879838255184
 42
-0.5471529031042364
  0
LWPOLYLINE
  5
10E
330
1F
100
AcDbEntity
  8
Key_ Sections_Pen_No__1
  6
Continuous
100
AcDbPolyline
 90
       36
 70
   129
 43
0.0
 10
733.8359967986504
 20
180.2537892269071
 42
-0.7673269879784158
 10
733.6859967986496
 20
179.6939816057713
 10
732.485996798651
 20
179.6939816057712
 10
732.4859967986491
 20
177.9939816065945
 10
745.0904918365445
 20
177.9939816065938
 42
-0.1839743436377466
 10
747.0860869867925
 20
177.2339816057708
 10
747.0860869867915
 20
178.1939816057703
 42
-0.4142135623733169
 10
747.3860869867917
 20
178.4939816057708
 10
747.7860869867712
 20
178.4939816057708
 42
-0.414213562373095
 10
748.0860869867715
 20
178.1939816057706
 10
748.0860869867706
 20
157.7939816057659
 42
-0.4142135623773127
 10
747.786086986766
 20
157.493981605766
 10
747.486086986762
 20
157.4939816057689
 42
-0.4142135623699874
 10
747.1860869867664
 20
157.7939816057705
 10
747.1860869867701
 20
158.4939816057701
 10
746.0860869867888
 20
158.4939816057703
 42
-0.4142135623735391
 10
745.7860869867895
 20
158.79398160577
 10
745.7860869867895
 20
159.09398160577
 42
-0.414213562373761
 10
746.0860869867888
 20
159.3939816057699
 10
746.8860869867716
 20
159.3939816057699
 10
746.8860869867716
 20
160.0575855027197
 10
745.9178889352556
 20
161.0257835542351
 42
-0.6681786379188248
 10
746.2360869867885
 20
161.7939816057693
 10
746.6860869867708
 20
161.7939816057697
 10
746.5860869867705
 20
174.983001120939
 42
0.416146736396814
 10
745.076193426126
 20
176.4829684930702
 42
0.4380437686141797
 10
744.7793137288348
 20
176.1568282948266
 10
744.9034836608047
 20
174.7375594779702
 42
-1.000000000000079
 10
743.9072889627136
 20
174.6504037352235
 10
743.769760418378
 20
176.2223621900977
 42
0.3865331148211373
 10
743.4733489096109
 20
176.4962054882361
 10
732.4778404631119
 20
176.5858915277653
 42
-0.4118266132869719
 10
731.4859967986462
 20
177.5858582643101
 10
731.4859967986516
 20
179.6939816057722
 42
-0.414213562372799
 10
732.3859967986514
 20
180.5939816057709
 10
733.2467663141092
 20
180.5939816057713
  0
LWPOLYLINE
  5
10F
330
1F
100
AcDbEntity
  8
0_Pen_No__1
  6
Continuous
100
AcDbPolyline
 90
        2
 70
   128
 43
0.0
 10
697.5686308657405
 20
261.780579802356
 10
702.3320890061715
 20
259.7204142348945
  0
LWPOLYLINE
  5
111
330
1F
100
AcDbEntity
  8
0_Pen_No__1
  6
Continuous
100
AcDbPolyline
 90
        2
 70
   128
 43
0.0
 10
733.5686308657419
 20
257.9365621300986
 10
733.9427471701807
 20
261.9455930019076
  0
LWPOLYLINE
  5
112
330
1F
100
AcDbEntity
  8
0_Pen_No__1
  6
Continuous
100
AcDbPolyline
 90
        2
 70
   128
 43
0.0
 10
731.618446476217
 20
268.7204142348944
 10
731.618446476217
 20
256.7204142348944
  0
LWPOLYLINE
  5
113
330
1F
100
AcDbEntity
  8
0_Pen_No__1
  6
Continuous
100
AcDbPolyline
 90
        2
 70
   128
 43
0.0
 10
697.5686308657405
 20
263.6602486674331
 10
702.3320890061715
 20
265.7204142348945
  0
LWPOLYLINE
  5
114
330
1F
100
AcDbEntity
  8
0_Pen_No__1
  6
Continuous
100
AcDbPolyline
 90
        2
 70
   128
 43
0.0
 10
733.5686308657419
 20
267.50426633969
 10
733.9427471701807
 20
263.4952354678809
  0
LWPOLYLINE
  5
115
330
1F
100
AcDbEntity
  8
0_Pen_No__1
  6
Continuous
100
AcDbPolyline
 90
        2
 70
   128
 43
0.0
 10
703.3064380973589
 20
265.7204142348945
 10
703.3064380973589
 20
259.7204142348945
  0
LWPOLYLINE
  5
116
330
1F
100
AcDbEntity
  8
0_Pen_No__1
  6
Continuous
100
AcDbPolyline
 90
        2
 70
   128
 43
0.0
 10
730.8727256486502
 20
264.5150595599341
 10
731.618446476217
 20
265.1922616939144
  0
LWPOLYLINE
  5
117
330
1F
100
AcDbEntity
  8
0_Pen_No__1
  6
Continuous
100
AcDbPolyline
 90
        2
 70
   128
 43
0.0
 10
731.618446476217
 20
268.7204142348944
 10
732.8271030737205
 20
268.2647567724378
  0
LWPOLYLINE
  5
118
330
1F
100
AcDbEntity
  8
0_Pen_No__1
  6
Continuous
100
AcDbPolyline
 90
        2
 70
   128
 43
0.0
 10
716.300766563485
 20
265.7204142348945
 10
716.300766563485
 20
259.7204142348945
  0
LWPOLYLINE
  5
119
330
1F
100
AcDbEntity
  8
0_Pen_No__1
  6
Continuous
100
AcDbPolyline
 90
        2
 70
   128
 43
0.0
 10
718.0863214180935
 20
265.7204142348945
 10
718.0863214180935
 20
259.7204142348945
  0
LWPOLYLINE
  5
11A
330
1F
100
AcDbEntity
  8
0_Pen_No__1
  6
Continuous
100
AcDbPolyline
 90
        2
 70
   128
 43
0.0
 10
731.618446476217
 20
256.7204142348944
 10
732.8271030737205
 20
257.1760716973514
  0
LWPOLYLINE
  5
11B
330
1F
100
AcDbEntity
  8
0_Pen_No__1
  6
Continuous
100
AcDbPolyline
 90
        2
 70
   128
 43
0.0
 10
729.457486544808
 20
265.7204142348945
 10
729.457486544808
 20
259.7204142348945
  0
LWPOLYLINE
  5
11C
330
1F
100
AcDbEntity
  8
0_Pen_No__1
  6
Dot & Dashed
100
AcDbPolyline
 90
        2
 70
   128
 43
0.0
 10
718.0863214180935
 20
265.7204142348945
 10
729.457486544808
 20
265.7204142348945
  0
LWPOLYLINE
  5
11D
330
1F
100
AcDbEntity
  8
0_Pen_No__1
  6
Dot & Dashed
100
AcDbPolyline
 90
        2
 70
   128
 43
0.0
 10
718.0863214180935
 20
259.7204142348945
 10
729.457486544808
 20
259.7204142348945
  0
LWPOLYLINE
  5
11E
330
1F
100
AcDbEntity
  8
0_Pen_No__1
  6
Continuous
100
AcDbPolyline
 90
        2
 70
   128
 43
0.0
 10
704.8356248654741
 20
265.7204142348945
 10
704.8356248654741
 20
259.7204142348945
  0
LWPOLYLINE
  5
11F
330
1F
100
AcDbEntity
  8
0_Pen_No__1
  6
Dot & Dashed
100
AcDbPolyline
 90
        2
 70
   128
 43
0.0
 10
702.3320890061715
 20
265.7204142348945
 10
703.3064380973589
 20
265.7204142348945
  0
LWPOLYLINE
  5
120
330
1F
100
AcDbEntity
  8
0_Pen_No__1
  6
Dot & Dashed
100
AcDbPolyline
 90
        2
 70
   128
 43
0.0
 10
704.8356248654741
 20
265.7204142348945
 10
716.300766563485
 20
265.7204142348945
  0
LWPOLYLINE
  5
121
330
1F
100
AcDbEntity
  8
0_Pen_No__1
  6
Dot & Dashed
100
AcDbPolyline
 90
        2
 70
   128
 43
0.0
 10
704.8356248654741
 20
259.7204142348945
 10
716.300766563485
 20
259.7204142348945
  0
LWPOLYLINE
  5
122
330
1F
100
AcDbEntity
  8
0_Pen_No__1
  6
Dot & Dashed
100
AcDbPolyline
 90
        2
 70
   128
 43
0.0
 10
702.3320890061715
 20
259.7204142348945
 10
703.3064380973589
 20
259.7204142348945
  0
LWPOLYLINE
  5
123
330
1F
100
AcDbEntity
  8
0_Pen_No__1
  6
Continuous
100
AcDbPolyline
 90
        2
 70
   128
 43
0.0
 10
697.5686308657405
 20
263.6602486674331
 10
697.5686308657405
 20
261.7805798023558
  0
LWPOLYLINE
  5
124
330
1F
100
AcDbEntity
  8
0_Pen_No__1
  6
Continuous
100
AcDbPolyline
 90
        2
 70
   128
 43
0.0
 10
703.3064380973589
 20
264.5150595599341
 10
730.8727256486502
 20
264.5150595599341
  0
LWPOLYLINE
  5
125
330
1F
100
AcDbEntity
  8
0_Pen_No__1
  6
Continuous
100
AcDbPolyline
 90
        2
 70
   128
 43
0.0
 10
730.8727256486502
 20
260.9257689098552
 10
731.618446476217
 20
260.2485667758745
  0
LWPOLYLINE
  5
126
330
1F
100
AcDbEntity
  8
0_Pen_No__1
  6
Continuous
100
AcDbPolyline
 90
        2
 70
   128
 43
0.0
 10
703.3064380973589
 20
260.9257689098552
 10
730.8727256486502
 20
260.9257689098552
  0
LWPOLYLINE
  5
127
330
1F
100
AcDbEntity
  8
0_Pen_No__1
  6
Continuous
100
AcDbPolyline
 90
        2
 70
   128
 43
0.0
 10
732.8271030737205
 20
268.2647567724378
 10
733.5686308657419
 20
267.5042663396902
  0
LWPOLYLINE
  5
128
330
1F
100
AcDbEntity
  8
0_Pen_No__1
  6
Continuous
100
AcDbPolyline
 90
        2
 70
   128
 43
0.0
 10
733.9427471701807
 20
263.4952354678809
 10
733.9427471701807
 20
262.7204142348946
  0
LWPOLYLINE
  5
129
330
1F
100
AcDbEntity
  8
0_Pen_No__1
  6
Continuous
100
AcDbPolyline
 90
        2
 70
   128
 43
0.0
 10
732.8271030737205
 20
257.1760716973514
 10
733.5686308657419
 20
257.9365621300986
  0
LWPOLYLINE
  5
12A
330
1F
100
AcDbEntity
  8
0_Pen_No__1
  6
Continuous
100
AcDbPolyline
 90
        2
 70
   128
 43
0.0
 10
733.9427471701807
 20
261.9455930019076
 10
733.9427471701807
 20
262.7204142348946
  0
LWPOLYLINE
  5
12B
330
1F
100
AcDbEntity
  8
0_Pen_No__1
  6
Dot & Dashed
100
AcDbPolyline
 90
        2
 70
   128
 43
0.0
 10
693.4471345604702
 20
262.6451234411967
 10
743.3027273793069
 20
262.6451234411967
  0
LWPOLYLINE
  5
12C
330
1F
100
AcDbEntity
  8
0_Pen_No__146
  6
Continuous
100
AcDbPolyline
 90
        2
 70
   128
 43
0.0
 10
710.894789297722
 20
275.2700318988496
 10
725.1611110577651
 20
237.0603824908868
  0
LWPOLYLINE
  5
12D
330
1F
100
AcDbEntity
  8
0_Pen_No__1
  6
Continuous
100
AcDbPolyline
 90
        9
 70
   129
 43
0.0
 10
739.5749694798805
 20
314.5621770583616
 10
728.6446848550357
 20
409.7685473671011
 10
721.4633767424789
 20
409.7685473671011
 10
731.725345224353
 20
321.5621770583592
 10
717.5749694798749
 20
321.5621770583592
 10
717.6206500521029
 20
313.7637778496567
 10
728.4019474942609
 20
219.8551348529142
 10
735.6715575964151
 20
217.9072486967529
 10
724.5749694798799
 20
314.5621770583616
  0
ELLIPSE
  5
12E
330
1F
100
AcDbEntity
  8
Key_ Sections_Pen_No__1
  6
Continuous
100
AcDbEllipse
 10
700.1929530114152
 20
209.5939782654034
 30
0.0
 11
1.120547007093645E-15
 21
-3.955659037338299
 31
0.0
210
0.0
220
0.0
230
1.0
 40
0.4897830608401391
 41
4.955588717535607
 42
10.75237455041309
  0
ARC
  5
12F
330
1F
100
AcDbEntity
  8
Key_ Sections_Pen_No__1
  6
Continuous
100
AcDbCircle
 10
672.3899851270912
 20
281.3844303893845
 30
0.0
 40
33.59221394482837
100
AcDbArc
 50
260.2462789856982
 51
263.1131558285354
  0
ARC
  5
130
330
1F
100
AcDbEntity
  8
Key_ Sections_Pen_No__1
  6
Continuous
100
AcDbCircle
 10
672.3899851270912
 20
217.4938591485832
 30
0.0
 40
33.59221394482837
100
AcDbArc
 50
103.4512120739299
 51
108.0154942991953
  0
ARC
  5
131
330
1F
100
AcDbEntity
  8
Key_ Sections_Pen_No__1
  6
Continuous
100
AcDbCircle
 10
672.3899851270912
 20
217.4938591485832
 30
0.0
 40
33.59221394482837
100
AcDbArc
 50
96.58967615989917
 51
97.83203547072932
  0
ARC
  5
132
330
1F
100
AcDbEntity
  8
Key_ Sections_Pen_No__1
  6
Continuous
100
AcDbCircle
 10
672.3899851270912
 20
281.3844303893845
 30
0.0
 40
33.59221394482837
100
AcDbArc
 50
256.1981112144513
 51
259.20938664246
  0
ARC
  5
133
330
1F
100
AcDbEntity
  8
Key_ Sections_Pen_No__1
  6
Continuous
100
AcDbCircle
 10
665.9307472608492
 20
249.3358846398758
 30
0.0
 40
0.9648000226303299
100
AcDbArc
 50
280.1540992305689
 51
320.841523834617
  0
ARC
  5
134
330
1F
100
AcDbEntity
  8
Key_ Sections_Pen_No__1
  6
Continuous
100
AcDbCircle
 10
672.3899851270912
 20
217.4938591485832
 30
0.0
 40
33.59221394482837
100
AcDbArc
 50
98.81749547329527
 51
102.4145692959779
  0
ARC
  5
135
330
1F
100
AcDbEntity
  8
Key_ Sections_Pen_No__1
  6
Continuous
100
AcDbCircle
 10
672.3899851270912
 20
281.3844303893845
 30
0.0
 40
33.59221394482837
100
AcDbArc
 50
251.9845057008047
 51
255.7001018302723
  0
SPLINE
  5
136
330
1F
100
AcDbEntity
  8
Key_ Sections_Pen_No__1
  6
Continuous
100
AcDbSpline
210
0.0
220
0.0
230
1.0
 70
     8
 71
     3
 72
    26
 73
    22
 74
     0
 42
0.00001
 43
0.00001
 12
1.0
 22
0.0
 32
0.0
 13
1.0
 23
0.0
 33
0.0
 40
0.0
 40
0.0
 40
0.0
 40
0.0
 40
1.0
 40
1.0
 40
1.0
 40
2.0
 40
2.0
 40
2.0
 40
3.0
 40
3.0
 40
3.0
 40
4.0
 40
4.0
 40
4.0
 40
5.0
 40
5.0
 40
5.0
 40
6.0
 40
6.0
 40
6.0
 40
7.0
 40
7.0
 40
7.0
 40
7.0
 10
700.1929530113961
 20
206.8864245366068
 30
0.0
 10
700.1439632462535
 20
206.9347283342022
 30
0.0
 10
700.0766189435894
 20
207.0165026317364
 30
0.0
 10
700.0061093931099
 20
207.1316660054155
 30
0.0
 10
699.9355998426321
 20
207.246829379092
 30
0.0
 10
699.8619097756896
 20
207.3947801866428
 30
0.0
 10
699.7942257195022
 20
207.5687604703843
 30
0.0
 10
699.6495790571234
 20
207.9405713336866
 30
0.0
 10
699.5350845061305
 20
208.4311932422208
 30
0.0
 10
699.4853582042803
 20
208.9568765593993
 30
0.0
 10
699.4356319024303
 20
209.4825598765759
 30
0.0
 10
699.4495384024938
 20
210.0427348339208
 30
0.0
 10
699.5236752944603
 20
210.5505602852947
 30
0.0
 10
699.5860070400796
 20
210.9775224361797
 30
0.0
 10
699.6911207058793
 20
211.367177902517
 30
0.0
 10
699.8146084638771
 20
211.6704040756807
 30
0.0
 10
699.9091440169304
 20
211.9025376445868
 30
0.0
 10
700.0146274020914
 20
212.0832082198384
 30
0.0
 10
700.1027544377944
 20
212.1980057621502
 30
0.0
 10
700.1363823220822
 20
212.2418106903268
 30
0.0
 10
700.1672393632471
 20
212.2761783763322
 30
0.0
 10
700.1929530272685
 20
212.3015319901794
 30
0.0
  0
SPLINE
  5
137
330
1F
100
AcDbEntity
  8
Key_ Sections_Pen_No__1
  6
Continuous
100
AcDbSpline
210
0.0
220
0.0
230
1.0
 70
     8
 71
     3
 72
    26
 73
    22
 74
     0
 42
0.00001
 43
0.00001
 12
1.0
 22
0.0
 32
0.0
 13
1.0
 23
0.0
 33
0.0
 40
0.0
 40
0.0
 40
0.0
 40
0.0
 40
1.0
 40
1.0
 40
1.0
 40
2.0
 40
2.0
 40
2.0
 40
3.0
 40
3.0
 40
3.0
 40
4.0
 40
4.0
 40
4.0
 40
5.0
 40
5.0
 40
5.0
 40
6.0
 40
6.0
 40
6.0
 40
7.0
 40
7.0
 40
7.0
 40
7.0
 10
700.1929530109276
 20
212.30153199158
 30
0.0
 10
700.2419427760294
 20
212.2532281939136
 30
0.0
 10
700.3092870786465
 20
212.1714538963075
 30
0.0
 10
700.379796629072
 20
212.0562905225557
 30
0.0
 10
700.4503061794551
 20
211.9411271488731
 30
0.0
 10
700.5239962456876
 20
211.793176345938
 30
0.0
 10
700.5916803018531
 20
211.6191960622363
 30
0.0
 10
700.7363269642185
 20
211.2473851989322
 30
0.0
 10
700.8508215161346
 20
210.7567632886797
 30
0.0
 10
700.9005478179843
 20
210.2310799715003
 30
0.0
 10
700.9502741198315
 20
209.7053966543452
 30
0.0
 10
700.936367618253
 20
209.1452216970321
 30
0.0
 10
700.8622307262103
 20
208.6373962456711
 30
0.0
 10
700.7998989805247
 20
208.2104340947802
 30
0.0
 10
700.6947853193632
 20
207.8207786275821
 30
0.0
 10
700.5712975613664
 20
207.5175524544003
 30
0.0
 10
700.4767620083555
 20
207.2854188855825
 30
0.0
 10
700.3712786328734
 20
207.1047483084987
 30
0.0
 10
700.2831515976245
 20
206.9899507661167
 30
0.0
 10
700.2495237135632
 20
206.9461458379826
 30
0.0
 10
700.2186668322491
 20
206.911778068105
 30
0.0
 10
700.192953169401
 20
206.8864244535893
 30
0.0
  0
WIPEOUT
  5
139
330
1F
100
AcDbEntity
  8
Key_ Sections_Pen_No__1
  6
Wipeout_Contour
 48
3661.889272840368
 92
      296
310
28010000060000000C0000000E000000120000000C00000016000000000000C20C00000014000000010000006C0000000700000004000000FBE1D75277F2884094D98358E84C7740000000000000000068F321D600918B4094D98358E84C7740000000000000000068F321D600918B40604C88202912764000000000000000
310
00FBE1D75277F28840604C88202912764000000000000000000C0000000E00000007000000840000000600000005000000FBE1D75277F2884094D98358E84C7740000000000000000068F321D600918B4094D98358E84C7740000000000000000068F321D600918B40604C8820291276400000000000000000FBE1D75277F2
310
8840604C8820291276400000000000000000FBE1D75277F2884094D98358E84C77400000000000000000
100
AcDbWipeout
 90
        0
 10
798.3082634797896
 20
353.135040790954
 30
0.0
 11
83.81714494577102
 21
0.0
 31
0.0
 12
0.0
 22
19.67168424856504
 32
0.0
 13
1.0
 23
1.0
340
0
 70
    15
280
     1
281
    50
282
    50
283
     0
360
0
 71
     2
 91
        5
 14
-0.5000000000000007
 24
-0.5
 14
0.4999999999999993
 24
-0.5
 14
0.4999999999999993
 24
0.5
 14
-0.5000000000000007
 24
0.5
 14
-0.5000000000000007
 24
-0.5
  0
MTEXT
  5
13B
102
{ACAD_REACTORS
330
13C
102
}
330
1F
100
AcDbEntity
  8
Key_ Sections_Pen_No__1
  6
Continuous
100
AcDbMText
 10
800.3082634797896
 20
363.2171789271184
 30
0.0
 40
5.000000000000003
 41
79.81714494577093
 71
     4
 72
     1
  1
{Palliside Traditional Bevel \PBack weatherboard}
  7
GENERATED_STYLE_1
 73
     1
 44
0.9401708814814692
  0
LEADER
  5
13C
330
1F
100
AcDbEntity
  8
Key_ Sections_Pen_No__1
  6
Continuous
100
AcDbLeader
  3
GENERATED_STYLE__1
 73
     0
 74
     0
 40
12.91475734567892
 41
78.87000000000003
 76
     2
 10
730.6304842048146
 20
362.9708829152365
 30
0.0
 10
800.2182634797896
 20
363.2171789271184
 30
0.0
340
13B
  0
WIPEOUT
  5
143
330
1F
100
AcDbEntity
  8
Key_ Sections_Pen_No__1
  6
Wipeout_Contour
 48
3594.122099122341
 92
      296
310
28010000060000000C0000000E000000120000000C00000016000000000000C20C00000014000000010000006C0000000700000004000000FCE1D75277F288403AA82A0B87F4734000000000000000001AE6AE2DCCAC8B403AA82A0B87F4734000000000000000001AE6AE2DCCAC8B403A4E7D23D036734000000000000000
310
00FCE1D75277F288403A4E7D23D036734000000000000000000C0000000E00000007000000840000000600000005000000FCE1D75277F288403AA82A0B87F4734000000000000000001AE6AE2DCCAC8B403AA82A0B87F4734000000000000000001AE6AE2DCCAC8B403A4E7D23D03673400000000000000000FCE1D75277F2
310
88403A4E7D23D03673400000000000000000FCE1D75277F288403AA82A0B87F473400000000000000000
100
AcDbWipeout
 90
        0
 10
798.3082634797897
 20
307.4258150954007
 30
0.0
 11
87.29143302899661
 21
0.0
 31
0.0
 12
0.0
 22
11.85715453830198
 32
0.0
 13
1.0
 23
1.0
340
0
 70
    15
280
     1
281
    50
282
    50
283
     0
360
0
 71
     2
 91
        5
 14
-0.5
 24
-0.5
 14
0.5
 24
-0.5
 14
0.5
 24
0.5
 14
-0.5
 24
0.5
 14
-0.5
 24
-0.5
  0
MTEXT
  5
144
102
{ACAD_REACTORS
330
145
102
}
330
1F
100
AcDbEntity
  8
Key_ Sections_Pen_No__1
  6
Continuous
100
AcDbMText
 10
800.3082634797897
 20
312.9201124908455
 30
0.0
 40
5.0
 41
83.2914330289966
 71
     4
 72
     1
  1
{H3.1 timber packer at fixing}
  7
GENERATED_STYLE_1
 73
     1
 44
1.0
  0
LEADER
  5
145
330
1F
100
AcDbEntity
  8
Key_ Sections_Pen_No__1
  6
Continuous
100
AcDbLeader
  3
GENERATED_STYLE__1
 72
     1
 73
     0
 74
     0
 40
14.90333333333333
 41
66.105
 76
     3
 10
715.8344822843858
 20
275.2700318988496
 30
0.0
 10
723.4636066679082
 20
297.7386102522867
 30
0.0
 10
800.2182634797897
 20
312.9201124908455
 30
0.0
340
144
  0
WIPEOUT
  5
146
330
1F
100
AcDbEntity
  8
Key_ Sections_Pen_No__1
  6
Wipeout_Contour
 48
3543.807781961475
 92
      296
310
28010000060000000C0000000E000000120000000C00000016000000000000C20C00000014000000010000006C0000000700000004000000FCE1D75277F28840A9366DC1E7A27240000000000000000004A278A05E518B40A9366DC1E7A27240000000000000000004A278A05E518B40AADCBFD930E5714000000000000000
310
00FCE1D75277F28840AADCBFD930E5714000000000000000000C0000000E00000007000000840000000600000005000000FCE1D75277F28840A9366DC1E7A27240000000000000000004A278A05E518B40A9366DC1E7A27240000000000000000004A278A05E518B40AADCBFD930E571400000000000000000FCE1D75277F2
310
8840AADCBFD930E571400000000000000000FCE1D75277F28840A9366DC1E7A272400000000000000000
100
AcDbWipeout
 90
        0
 10
798.3082634797897
 20
286.3244264120682
 30
0.0
 11
75.86294103227647
 21
0.0
 31
0.0
 12
0.0
 22
11.85715453830193
 32
0.0
 13
1.0
 23
1.0
340
0
 70
    15
280
     1
281
    50
282
    50
283
     0
360
0
 71
     2
 91
        5
 14
-0.5
 24
-0.4999999999999976
 14
0.5
 24
-0.4999999999999976
 14
0.5
 24
0.5000000000000024
 14
-0.5
 24
0.5000000000000024
 14
-0.5
 24
-0.4999999999999976
  0
MTEXT
  5
147
102
{ACAD_REACTORS
330
148
102
}
330
1F
100
AcDbEntity
  8
Key_ Sections_Pen_No__1
  6
Continuous
100
AcDbMText
 10
800.3082634797897
 20
292.4992952360844
 30
0.0
 40
4.999999999999999
 41
71.86294103227644
 71
     4
 72
     1
  1
{Palliside fastfix fastener}
  7
GENERATED_STYLE_1
 73
     1
 44
1.0
  0
LEADER
  5
148
330
1F
100
AcDbEntity
  8
Key_ Sections_Pen_No__1
  6
Continuous
100
AcDbLeader
  3
GENERATED_STYLE__1
 72
     1
 73
     0
 74
     0
 40
13.58333333333333
 41
45.56
 76
     3
 10
733.5686308657419
 20
267.50426633969
 30
0.0
 10
760.8668947404929
 20
285.5837579406058
 30
0.0
 10
800.2182634797897
 20
292.4992952360844
 30
0.0
340
147
  0
WIPEOUT
  5
149
330
1F
100
AcDbEntity
  8
Key_ Sections_Pen_No__1
  6
Wipeout_Contour
 48
3501.97585521869
 92
      296
310
28010000060000000C0000000E000000120000000C00000016000000000000C20C00000014000000010000006C0000000700000004000000AC3D82C069F18840FBD73E9CC5746D4000000000000000000B19EBBCD3D98B40FBD73E9CC5746D4000000000000000000B19EBBCD3D98B40FD23E4CC57F96B4000000000000000
310
00AC3D82C069F18840FD23E4CC57F96B4000000000000000000C0000000E00000007000000840000000600000005000000AC3D82C069F18840FBD73E9CC5746D4000000000000000000B19EBBCD3D98B40FBD73E9CC5746D4000000000000000000B19EBBCD3D98B40FD23E4CC57F96B400000000000000000AC3D82C069F1
310
8840FD23E4CC57F96B400000000000000000AC3D82C069F18840FBD73E9CC5746D400000000000000000
100
AcDbWipeout
 90
        0
 10
798.1766367125579
 20
223.7919678169127
 30
0.0
 11
93.05175096435039
 21
0.0
 31
0.0
 12
0.0
 22
11.85715453830193
 32
0.0
 13
1.0
 23
1.0
340
0
 70
    15
280
     1
281
    50
282
    50
283
     0
360
0
 71
     2
 91
        5
 14
-0.5000000000000007
 24
-0.5
 14
0.4999999999999994
 24
-0.5
 14
0.4999999999999994
 24
0.5
 14
-0.5000000000000007
 24
0.5
 14
-0.5000000000000007
 24
-0.5
  0
MTEXT
  5
14A
102
{ACAD_REACTORS
330
14B
102
}
330
1F
100
AcDbEntity
  8
Key_ Sections_Pen_No__1
  6
Continuous
100
AcDbMText
 10
800.1766367125579
 20
229.3256937837861
 30
0.0
 40
4.999999999999999
 41
89.05175096435042
 71
     4
 72
     1
  1
{SmartFit Scriber cap 335599 }
  7
GENERATED_STYLE_1
 73
     1
 44
1.0
  0
LEADER
  5
14B
330
1F
100
AcDbEntity
  8
Key_ Sections_Pen_No__1
  6
Continuous
100
AcDbLeader
  3
GENERATED_STYLE__1
 72
     1
 73
     0
 74
     0
 40
6.469999999999999
 41
88.2
 76
     3
 10
753.4569615156502
 20
208.7411714521519
 30
0.0
 10
763.9417940514633
 20
222.4863056721866
 30
0.0
 10
800.0866367125578
 20
229.3256937837861
 30
0.0
340
14A
  0
WIPEOUT
  5
14C
330
1F
100
AcDbEntity
  8
Key_ Sections_Pen_No__1
  6
Wipeout_Contour
 48
3540.42372763854
 92
      296
310
28010000060000000C0000000E000000120000000C00000016000000000000C20C00000014000000010000006C000000070000000400000006F8807194F2884099E26A54FF427540000000000000000075001F3C6A458A4099E26A54FF427540000000000000000075001F3C6A458A409A88BD6C4885744000000000000000
310
0006F8807194F288409A88BD6C4885744000000000000000000C0000000E0000000700000084000000060000000500000006F8807194F2884099E26A54FF427540000000000000000075001F3C6A458A4099E26A54FF427540000000000000000075001F3C6A458A409A88BD6C48857440000000000000000006F8807194F2
310
88409A88BD6C48857440000000000000000006F8807194F2884099E26A54FF4275400000000000000000
100
AcDbWipeout
 90
        0
 10
798.3224821162883
 20
328.3301818278939
 30
0.0
 11
42.35439036811101
 21
0.0
 31
0.0
 12
0.0
 22
11.85715453830193
 32
0.0
 13
1.0
 23
1.0
340
0
 70
    15
280
     1
281
    50
282
    50
283
     0
360
0
 71
     2
 91
        5
 14
-0.5000000000000013
 24
-0.4999999999999976
 14
0.4999999999999987
 24
-0.4999999999999976
 14
0.4999999999999987
 24
0.5000000000000024
 14
-0.5000000000000013
 24
0.5000000000000024
 14
-0.5000000000000013
 24
-0.4999999999999976
  0
MTEXT
  5
14D
102
{ACAD_REACTORS
330
14E
102
}
330
1F
100
AcDbEntity
  8
Key_ Sections_Pen_No__1
  6
Continuous
100
AcDbMText
 10
800.3224821162883
 20
333.8244792233386
 30
0.0
 40
5.0
 41
38.35439036811108
 71
     4
 72
     1
  1
{cavity batten}
  7
GENERATED_STYLE_1
 73
     1
 44
1.0
  0
LEADER
  5
14E
330
1F
100
AcDbEntity
  8
Key_ Sections_Pen_No__1
  6
Continuous
100
AcDbLeader
  3
GENERATED_STYLE__1
 72
     1
 73
     0
 74
     0
 40
6.465
 41
38.425
 76
     2
 10
705.3875070595177
 20
334.2587590970448
 30
0.0
 10
800.2324821162882
 20
333.8244792233386
 30
0.0
340
14D
  0
WIPEOUT
  5
14F
330
1F
100
AcDbEntity
  8
Key_ Sections_Pen_No__1
  6
Wipeout_Contour
 48
3633.502525918834
 92
      296
310
28010000060000000C0000000E000000120000000C00000016000000000000C20C00000014000000010000006C000000070000000400000006F8807194F28840D26275FBCAC47840000000000000000012A2CDD1A74F8A40D26275FBCAC47840000000000000000012A2CDD1A74F8A40D308C8131407784000000000000000
310
0006F8807194F28840D308C8131407784000000000000000000C0000000E0000000700000084000000060000000500000006F8807194F28840D26275FBCAC47840000000000000000012A2CDD1A74F8A40D26275FBCAC47840000000000000000012A2CDD1A74F8A40D308C81314077840000000000000000006F8807194F2
310
8840D308C81314077840000000000000000006F8807194F28840D26275FBCAC478400000000000000000
100
AcDbWipeout
 90
        0
 10
798.3224821162883
 20
384.4424016774985
 30
0.0
 11
43.63446102041189
 21
0.0
 31
0.0
 12
0.0
 22
11.85715453830193
 32
0.0
 13
1.0
 23
1.0
340
0
 70
    15
280
     1
281
    50
282
    50
283
     0
360
0
 71
     2
 91
        5
 14
-0.5
 24
-0.5000000000000024
 14
0.5
 24
-0.5000000000000024
 14
0.5
 24
0.4999999999999976
 14
-0.5
 24
0.4999999999999976
 14
-0.5
 24
-0.5000000000000024
  0
MTEXT
  5
150
102
{ACAD_REACTORS
330
151
102
}
330
1F
100
AcDbEntity
  8
Key_ Sections_Pen_No__1
  6
Continuous
100
AcDbMText
 10
800.3224821162883
 20
389.9366990729433
 30
0.0
 40
5.0
 41
39.63446102041193
 71
     4
 72
     1
  1
{wall underlay}
  7
GENERATED_STYLE_1
 73
     1
 44
1.0
  0
LEADER
  5
151
330
1F
100
AcDbEntity
  8
Key_ Sections_Pen_No__1
  6
Continuous
100
AcDbLeader
  3
GENERATED_STYLE__1
 72
     1
 73
     0
 74
     0
 40
14.79833333333333
 41
26.26
 76
     2
 10
689.9468137247663
 20
390.3709789466495
 30
0.0
 10
800.2324821162882
 20
389.9366990729433
 30
0.0
340
150
  0
WIPEOUT
  5
152
330
1F
100
AcDbEntity
  8
Key_ Sections_Pen_No__1
  6
Wipeout_Contour
 48
3483.934009419555
 92
      296
310
28010000060000000C0000000E000000120000000C00000016000000000000C20C00000014000000010000006C0000000700000004000000AC3D82C069F18840ED7D5BD348A26340000000000000000088ECC7A298BD8C40ED7D5BD348A26340000000000000000088ECC7A298BD8C4050D6682B0B32604000000000000000
310
00AC3D82C069F1884050D6682B0B32604000000000000000000C0000000E00000007000000840000000600000005000000AC3D82C069F18840ED7D5BD348A26340000000000000000088ECC7A298BD8C40ED7D5BD348A26340000000000000000088ECC7A298BD8C4050D6682B0B3260400000000000000000AC3D82C069F1
310
884050D6682B0B3260400000000000000000AC3D82C069F18840ED7D5BD348A263400000000000000000
100
AcDbWipeout
 90
        0
 10
798.1766367125579
 20
129.5638634727097
 30
0.0
 11
121.5228925174702
 21
0.0
 31
0.0
 12
0.0
 22
27.50752637284759
 32
0.0
 13
1.0
 23
1.0
340
0
 70
    15
280
     1
281
    50
282
    50
283
     0
360
0
 71
     2
 91
        5
 14
-0.5
 24
-0.5000000000000006
 14
0.5
 24
-0.5000000000000006
 14
0.5
 24
0.4999999999999995
 14
-0.5
 24
0.4999999999999995
 14
-0.5
 24
-0.5000000000000006
  0
MTEXT
  5
153
102
{ACAD_REACTORS
330
154
102
}
330
1F
100
AcDbEntity
  8
Key_ Sections_Pen_No__1
  6
Continuous
100
AcDbMText
 10
800.1766367125579
 20
143.5639278198136
 30
0.0
 40
5.000000000000001
 41
117.5228925174702
 71
     4
 72
     1
  1
{SmartFit joinery installed in accordance with the instructions of Fletcher windows and doors}
  7
GENERATED_STYLE_1
 73
     1
 44
0.9307424241384898
  0
LEADER
  5
154
330
1F
100
AcDbEntity
  8
Key_ Sections_Pen_No__1
  6
Continuous
100
AcDbLeader
  3
GENERATED_STYLE__1
 72
     1
 73
     0
 74
     0
 40
20.75059994774504
 41
107.05
 76
     3
 10
748.0860869867715
 20
172.5380421138505
 30
0.0
 10
763.8568730873402
 20
151.8723005010986
 30
0.0
 10
800.0866367125578
 20
143.5639278198136
 30
0.0
340
153
  0
MTEXT
  5
155
330
1F
100
AcDbEntity
  8
Key_ Sections_Pen_No__1
  6
Continuous
100
AcDbMText
 10
708.0244748305654
 20
171.1528800658423
 30
0.0
 40
3.0
 41
0.0
 71
     9
 72
     1
  1
{335500}
  7
GENERATED_STYLE_1
 73
     1
 44
1.0
  0
INSERT
  5
160
330
1F
100
AcDbEntity
  8
Key_ Sections
  6
Continuous
 62
   255
370
    30
100
AcDbBlockReference
  2
Cadimage Break Line[1]
 10
566.1403356743789
 20
400.7512422124099
 30
0.0
  0
INSERT
  5
16A
330
1F
100
AcDbEntity
  8
Key_ Sections
  6
Continuous
 62
   255
370
    30
100
AcDbBlockReference
  2
Cadimage Break Line[2]
 10
566.1403356743789
 20
-2.040361937458657
 30
0.0
  0
ENDSEC
  0
SECTION
  2
OBJECTS
  0
DICTIONARY
  5
C
330
0
100
AcDbDictionary
281
     1
  3
ACAD_GROUP
350
D
  3
ACAD_LAYOUT
350
1A
  3
ACAD_MATERIAL
350
3B
  3
ACAD_MLEADERSTYLE
350
1BB
  3
ACAD_MLINESTYLE
350
17
  3
ACAD_PLOTSETTINGS
350
19
  3
ACAD_PLOTSTYLENAME
350
E
  3
ACAD_SCALELIST
350
16E
  3
ACAD_TABLESTYLE
350
1BA
  3
ACAD_VISUALSTYLE
350
2A
  3
AcDbVariableDictionary
350
192
  3
WATERMARKS
350
190
  0
DICTIONARY
  5
D
102
{ACAD_REACTORS
330
C
102
}
330
C
100
AcDbDictionary
281
     1
  0
DICTIONARY
  5
1A
102
{ACAD_REACTORS
330
C
102
}
330
C
100
AcDbDictionary
281
     1
  3
Layout1
350
1E
  3
Layout2
350
26
  3
Model
350
22
  0
DICTIONARY
  5
3B
102
{ACAD_REACTORS
330
C
102
}
330
C
100
AcDbDictionary
281
     1
  3
ByBlock
350
3D
  3
ByLayer
350
3C
  3
Global
350
3E
  0
DICTIONARY
  5
1BB
102
{ACAD_REACTORS
330
C
102
}
330
C
100
AcDbDictionary
281
     1
  0
DICTIONARY
  5
17
102
{ACAD_REACTORS
330
C
102
}
330
C
100
AcDbDictionary
281
     1
  3
Standard
350
18
  0
DICTIONARY
  5
19
102
{ACAD_REACTORS
330
C
102
}
330
C
100
AcDbDictionary
281
     1
  0
ACDBDICTIONARYWDFLT
  5
E
102
{ACAD_REACTORS
330
C
102
}
330
C
100
AcDbDictionary
281
     1
  3
Normal
350
F
100
AcDbDictionaryWithDefault
340
F
  0
DICTIONARY
  5
16E
102
{ACAD_REACTORS
330
C
102
}
330
C
100
AcDbDictionary
281
     1
  3
A0
350
16F
  3
A1
350
170
  3
A2
350
171
  3
A3
350
172
  3
A4
350
173
  3
A5
350
174
  3
A6
350
175
  3
A7
350
176
  3
A8
350
177
  3
A9
350
178
  3
B0
350
179
  3
B1
350
17A
  3
B2
350
17B
  3
B3
350
17C
  3
B4
350
17D
  3
B5
350
17E
  3
B6
350
17F
  3
B7
350
180
  3
B8
350
181
  3
B9
350
182
  3
C0
350
183
  3
C1
350
184
  3
C2
350
185
  3
C3
350
186
  3
C4
350
187
  3
C5
350
188
  3
C6
350
189
  3
C7
350
18A
  3
C8
350
18B
  3
C9
350
18C
  3
D0
350
18D
  3
D1
350
18E
  3
D2
350
18F
  0
DICTIONARY
  5
1BA
102
{ACAD_REACTORS
330
C
102
}
330
C
100
AcDbDictionary
281
     1
  0
DICTIONARY
  5
2A
102
{ACAD_REACTORS
330
C
102
}
330
C
100
AcDbDictionary
281
     1
  3
2dWireframe
350
2F
  3
3D Hidden
350
31
  3
3dWireframe
350
30
  3
Basic
350
32
  3
Brighten
350
36
  3
ColorChange
350
3A
  3
Conceptual
350
34
  3
Dim
350
35
  3
Facepattern
350
39
  3
Flat
350
2B
  3
FlatWithEdges
350
2C
  3
Gouraud
350
2D
  3
GouraudWithEdges
350
2E
  3
Linepattern
350
38
  3
Realistic
350
33
  3
Thicken
350
37
  0
DICTIONARY
  5
192
102
{ACAD_REACTORS
330
C
102
}
330
C
100
AcDbDictionary
281
     1
  3
CANNOSCALE
350
193
  3
XCLIPFRAME
350
1BC
  0
DICTIONARY
  5
190
102
{ACAD_REACTORS
330
C
102
}
330
C
100
AcDbDictionary
281
     1
  3
AC_WATERMARK
350
191
  0
LAYOUT
  5
1E
102
{ACAD_REACTORS
330
1A
102
}
330
1A
100
AcDbPlotSettings
  1

  2
none_device
  4

  6

 40
0.0
 41
0.0
 42
0.0
 43
0.0
 44
0.0
 45
0.0
 46
0.0
 47
0.0
 48
0.0
 49
0.0
140
0.0
141
0.0
142
1.0
143
1.0
 70
   688
 72
     0
 73
     0
 74
     5
  7

 75
    16
 76
     0
 77
     2
 78
   300
147
1.0
148
0.0
149
0.0
100
AcDbLayout
  1
Layout1
 70
     1
 71
     1
 10
0.0
 20
0.0
 11
12.0
 21
9.0
 12
0.0
 22
0.0
 32
0.0
 14
1.000000000000000E+20
 24
1.000000000000000E+20
 34
1.000000000000000E+20
 15
-1.000000000000000E+20
 25
-1.000000000000000E+20
 35
-1.000000000000000E+20
146
0.0
 13
0.0
 23
0.0
 33
0.0
 16
1.0
 26
0.0
 36
0.0
 17
0.0
 27
1.0
 37
0.0
 76
     0
330
1B
  0
LAYOUT
  5
26
102
{ACAD_REACTORS
330
1A
102
}
330
1A
100
AcDbPlotSettings
  1

  2
none_device
  4

  6

 40
0.0
 41
0.0
 42
0.0
 43
0.0
 44
0.0
 45
0.0
 46
0.0
 47
0.0
 48
0.0
 49
0.0
140
0.0
141
0.0
142
1.0
143
1.0
 70
   688
 72
     0
 73
     0
 74
     5
  7

 75
    16
 76
     0
 77
     2
 78
   300
147
1.0
148
0.0
149
0.0
100
AcDbLayout
  1
Layout2
 70
     1
 71
     2
 10
0.0
 20
0.0
 11
0.0
 21
0.0
 12
0.0
 22
0.0
 32
0.0
 14
0.0
 24
0.0
 34
0.0
 15
0.0
 25
0.0
 35
0.0
146
0.0
 13
0.0
 23
0.0
 33
0.0
 16
1.0
 26
0.0
 36
0.0
 17
0.0
 27
1.0
 37
0.0
 76
     0
330
23
  0
LAYOUT
  5
22
102
{ACAD_REACTORS
330
1A
102
}
330
1A
100
AcDbPlotSettings
  1

  2
none_device
  4

  6

 40
0.0
 41
0.0
 42
0.0
 43
0.0
 44
0.0
 45
0.0
 46
0.0
 47
0.0
 48
0.0
 49
0.0
140
0.0
141
0.0
142
1.0
143
1.0
 70
  1712
 72
     0
 73
     0
 74
     0
  7

 75
     0
 76
     0
 77
     2
 78
   300
147
1.0
148
0.0
149
0.0
100
AcDbLayout
  1
Model
 70
     1
 71
     0
 10
0.0
 20
0.0
 11
12.0
 21
9.0
 12
0.0
 22
0.0
 32
0.0
 14
1.000000000000000E+20
 24
1.000000000000000E+20
 34
1.000000000000000E+20
 15
-1.000000000000000E+20
 25
-1.000000000000000E+20
 35
-1.000000000000000E+20
146
0.0
 13
0.0
 23
0.0
 33
0.0
 16
1.0
 26
0.0
 36
0.0
 17
0.0
 27
1.0
 37
0.0
 76
     0
330
1F
331
29
  0
MATERIAL
  5
3D
102
{ACAD_REACTORS
330
3B
102
}
102
{ACAD_XDICTIONARY
360
1B6
102
}
330
3B
100
AcDbMaterial
  1
ByBlock
  0
MATERIAL
  5
3C
102
{ACAD_REACTORS
330
3B
102
}
102
{ACAD_XDICTIONARY
360
1B4
102
}
330
3B
100
AcDbMaterial
  1
ByLayer
  0
MATERIAL
  5
3E
102
{ACAD_REACTORS
330
3B
102
}
102
{ACAD_XDICTIONARY
360
1B8
102
}
330
3B
100
AcDbMaterial
  1
Global
  0
MLINESTYLE
  5
18
102
{ACAD_REACTORS
330
17
102
}
330
17
100
AcDbMlineStyle
  2
Standard
 70
     0
  3

 62
   256
 51
90.0
 52
90.0
 71
     2
 49
0.5
 62
   256
  6
BYLAYER
 49
-0.5
 62
   256
  6
BYLAYER
  0
ACDBPLACEHOLDER
  5
F
102
{ACAD_REACTORS
330
E
102
}
330
E
  0
SCALE
  5
16F
102
{ACAD_REACTORS
330
16E
102
}
330
16E
100
AcDbScale
 70
     0
300
1:1
140
1.0
141
1.0
290
     1
  0
SCALE
  5
170
102
{ACAD_REACTORS
330
16E
102
}
330
16E
100
AcDbScale
 70
     0
300
1:2
140
1.0
141
2.0
290
     0
  0
SCALE
  5
171
102
{ACAD_REACTORS
330
16E
102
}
330
16E
100
AcDbScale
 70
     0
300
1:4
140
1.0
141
4.0
290
     0
  0
SCALE
  5
172
102
{ACAD_REACTORS
330
16E
102
}
330
16E
100
AcDbScale
 70
     0
300
1:5
140
1.0
141
5.0
290
     0
  0
SCALE
  5
173
102
{ACAD_REACTORS
330
16E
102
}
330
16E
100
AcDbScale
 70
     0
300
1:8
140
1.0
141
8.0
290
     0
  0
SCALE
  5
174
102
{ACAD_REACTORS
330
16E
102
}
330
16E
100
AcDbScale
 70
     0
300
1:10
140
1.0
141
10.0
290
     0
  0
SCALE
  5
175
102
{ACAD_REACTORS
330
16E
102
}
330
16E
100
AcDbScale
 70
     0
300
1:16
140
1.0
141
16.0
290
     0
  0
SCALE
  5
176
102
{ACAD_REACTORS
330
16E
102
}
330
16E
100
AcDbScale
 70
     0
300
1:20
140
1.0
141
20.0
290
     0
  0
SCALE
  5
177
102
{ACAD_REACTORS
330
16E
102
}
330
16E
100
AcDbScale
 70
     0
300
1:30
140
1.0
141
30.0
290
     0
  0
SCALE
  5
178
102
{ACAD_REACTORS
330
16E
102
}
330
16E
100
AcDbScale
 70
     0
300
1:40
140
1.0
141
40.0
290
     0
  0
SCALE
  5
179
102
{ACAD_REACTORS
330
16E
102
}
330
16E
100
AcDbScale
 70
     0
300
1:50
140
1.0
141
50.0
290
     0
  0
SCALE
  5
17A
102
{ACAD_REACTORS
330
16E
102
}
330
16E
100
AcDbScale
 70
     0
300
1:100
140
1.0
141
100.0
290
     0
  0
SCALE
  5
17B
102
{ACAD_REACTORS
330
16E
102
}
330
16E
100
AcDbScale
 70
     0
300
2:1
140
2.0
141
1.0
290
     0
  0
SCALE
  5
17C
102
{ACAD_REACTORS
330
16E
102
}
330
16E
100
AcDbScale
 70
     0
300
4:1
140
4.0
141
1.0
290
     0
  0
SCALE
  5
17D
102
{ACAD_REACTORS
330
16E
102
}
330
16E
100
AcDbScale
 70
     0
300
8:1
140
8.0
141
1.0
290
     0
  0
SCALE
  5
17E
102
{ACAD_REACTORS
330
16E
102
}
330
16E
100
AcDbScale
 70
     0
300
10:1
140
10.0
141
1.0
290
     0
  0
SCALE
  5
17F
102
{ACAD_REACTORS
330
16E
102
}
330
16E
100
AcDbScale
 70
     0
300
100:1
140
100.0
141
1.0
290
     0
  0
SCALE
  5
180
102
{ACAD_REACTORS
330
16E
102
}
330
16E
100
AcDbScale
 70
     0
300
1/128" = 1'-0"
140
0.0078125
141
12.0
290
     0
  0
SCALE
  5
181
102
{ACAD_REACTORS
330
16E
102
}
330
16E
100
AcDbScale
 70
     0
300
1/64" = 1'-0"
140
0.015625
141
12.0
290
     0
  0
SCALE
  5
182
102
{ACAD_REACTORS
330
16E
102
}
330
16E
100
AcDbScale
 70
     0
300
1/32" = 1'-0"
140
0.03125
141
12.0
290
     0
  0
SCALE
  5
183
102
{ACAD_REACTORS
330
16E
102
}
330
16E
100
AcDbScale
 70
     0
300
1/16" = 1'-0"
140
0.0625
141
12.0
290
     0
  0
SCALE
  5
184
102
{ACAD_REACTORS
330
16E
102
}
330
16E
100
AcDbScale
 70
     0
300
3/32" = 1'-0"
140
0.09375
141
12.0
290
     0
  0
SCALE
  5
185
102
{ACAD_REACTORS
330
16E
102
}
330
16E
100
AcDbScale
 70
     0
300
1/8" = 1'-0"
140
0.125
141
12.0
290
     0
  0
SCALE
  5
186
102
{ACAD_REACTORS
330
16E
102
}
330
16E
100
AcDbScale
 70
     0
300
3/16" = 1'-0"
140
0.1875
141
12.0
290
     0
  0
SCALE
  5
187
102
{ACAD_REACTORS
330
16E
102
}
330
16E
100
AcDbScale
 70
     0
300
1/4" = 1'-0"
140
0.25
141
12.0
290
     0
  0
SCALE
  5
188
102
{ACAD_REACTORS
330
16E
102
}
330
16E
100
AcDbScale
 70
     0
300
3/8" = 1'-0"
140
0.375
141
12.0
290
     0
  0
SCALE
  5
189
102
{ACAD_REACTORS
330
16E
102
}
330
16E
100
AcDbScale
 70
     0
300
1/2" = 1'-0"
140
0.5
141
12.0
290
     0
  0
SCALE
  5
18A
102
{ACAD_REACTORS
330
16E
102
}
330
16E
100
AcDbScale
 70
     0
300
3/4" = 1'-0"
140
0.75
141
12.0
290
     0
  0
SCALE
  5
18B
102
{ACAD_REACTORS
330
16E
102
}
330
16E
100
AcDbScale
 70
     0
300
1" = 1'-0"
140
1.0
141
12.0
290
     0
  0
SCALE
  5
18C
102
{ACAD_REACTORS
330
16E
102
}
330
16E
100
AcDbScale
 70
     0
300
1-1/2" = 1'-0"
140
1.5
141
12.0
290
     0
  0
SCALE
  5
18D
102
{ACAD_REACTORS
330
16E
102
}
330
16E
100
AcDbScale
 70
     0
300
3" = 1'-0"
140
3.0
141
12.0
290
     0
  0
SCALE
  5
18E
102
{ACAD_REACTORS
330
16E
102
}
330
16E
100
AcDbScale
 70
     0
300
6" = 1'-0"
140
6.0
141
12.0
290
     0
  0
SCALE
  5
18F
102
{ACAD_REACTORS
330
16E
102
}
330
16E
100
AcDbScale
 70
     0
300
1'-0" = 1'-0"
140
12.0
141
12.0
290
     0
  0
VISUALSTYLE
  5
2F
102
{ACAD_REACTORS
330
2A
102
}
102
{ACAD_XDICTIONARY
360
19C
102
}
330
2A
100
AcDbVisualStyle
  2
2dWireframe
 70
     4
 71
     0
 72
     2
 73
     0
 90
        0
 40
-0.6
 41
-30.0
 62
     5
 63
     7
421
 16777215
 74
     1
 91
        4
 64
     7
 65
   257
 75
     1
175
     1
 42
1.0
 92
        0
 66
   257
 43
1.0
 76
     1
 77
     6
 78
     2
 67
     7
 79
     5
170
     0
171
     0
290
     0
174
     0
 93
        1
 44
0.0
173
     0
291
     0
 45
0.0
1001
ACAD
1000
AcDbSavedByObjectVersion
1070
     0
  0
VISUALSTYLE
  5
31
102
{ACAD_REACTORS
330
2A
102
}
102
{ACAD_XDICTIONARY
360
1A0
102
}
330
2A
100
AcDbVisualStyle
  2
3D Hidden
 70
     6
 71
     1
 72
     2
 73
     2
 90
        0
 40
-0.6
 41
-30.0
 62
     5
 63
     7
421
 16777215
 74
     2
 91
        2
 64
     7
 65
   257
 75
     2
175
     1
 42
40.0
 92
        0
 66
   257
 43
1.0
 76
     1
 77
     6
 78
     2
 67
     7
 79
     3
170
     0
171
     0
290
     0
174
     0
 93
        1
 44
0.0
173
     0
291
     0
 45
0.0
1001
ACAD
1000
AcDbSavedByObjectVersion
1070
     0
  0
VISUALSTYLE
  5
30
102
{ACAD_REACTORS
330
2A
102
}
102
{ACAD_XDICTIONARY
360
19E
102
}
330
2A
100
AcDbVisualStyle
  2
3dWireframe
 70
     5
 71
     0
 72
     2
 73
     0
 90
        0
 40
-0.6
 41
-30.0
 62
     5
 63
     7
421
 16777215
 74
     1
 91
        4
 64
     7
 65
   257
 75
     1
175
     1
 42
1.0
 92
        0
 66
   257
 43
1.0
 76
     1
 77
     6
 78
     2
 67
     7
 79
     5
170
     0
171
     0
290
     0
174
     0
 93
        1
 44
0.0
173
     0
291
     0
 45
0.0
1001
ACAD
1000
AcDbSavedByObjectVersion
1070
     0
  0
VISUALSTYLE
  5
32
102
{ACAD_REACTORS
330
2A
102
}
102
{ACAD_XDICTIONARY
360
1A2
102
}
330
2A
100
AcDbVisualStyle
  2
Basic
 70
     7
 71
     1
 72
     0
 73
     1
 90
        0
 40
-0.6
 41
-30.0
 62
     5
 63
     7
421
 16777215
 74
     0
 91
        4
 64
     7
 65
   257
 75
     1
175
     1
 42
1.0
 92
        8
 66
     7
 43
1.0
 76
     1
 77
     6
 78
     2
 67
     7
 79
     5
170
     0
171
     0
290
     0
174
     0
 93
        1
 44
0.0
173
     0
291
     1
 45
0.0
1001
ACAD
1000
AcDbSavedByObjectVersion
1070
     0
  0
VISUALSTYLE
  5
36
102
{ACAD_REACTORS
330
2A
102
}
102
{ACAD_XDICTIONARY
360
1AA
102
}
330
2A
100
AcDbVisualStyle
  2
Brighten
 70
    12
 71
     2
 72
     2
 73
     0
 90
        0
 40
-0.6
 41
-30.0
 62
     5
 63
     7
421
 16777215
 74
     1
 91
        4
 64
     7
 65
   257
 75
     1
175
     1
 42
1.0
 92
        8
 66
     7
 43
1.0
 76
     1
 77
     6
 78
     2
 67
     7
 79
     5
170
     0
171
     0
290
     0
174
     0
 93
        1
 44
50.0
173
     0
291
     1
 45
0.0
1001
ACAD
1000
AcDbSavedByObjectVersion
1070
     0
  0
VISUALSTYLE
  5
3A
102
{ACAD_REACTORS
330
2A
102
}
102
{ACAD_XDICTIONARY
360
1B2
102
}
330
2A
100
AcDbVisualStyle
  2
ColorChange
 70
    16
 71
     2
 72
     2
 73
     3
 90
        0
 40
-0.6
 41
-30.0
 62
     5
 63
     8
421
  8421504
 74
     1
 91
        4
 64
     7
 65
   257
 75
     1
175
     1
 42
1.0
 92
        8
 66
     8
424
  8421504
 43
1.0
 76
     1
 77
     6
 78
     2
 67
     7
 79
     5
170
     0
171
     0
290
     0
174
     0
 93
        1
 44
0.0
173
     0
291
     1
 45
0.0
1001
ACAD
1000
AcDbSavedByObjectVersion
1070
     0
  0
VISUALSTYLE
  5
34
102
{ACAD_REACTORS
330
2A
102
}
102
{ACAD_XDICTIONARY
360
1A6
102
}
330
2A
100
AcDbVisualStyle
  2
Conceptual
 70
     9
 71
     3
 72
     2
 73
     0
 90
        0
 40
-0.6
 41
-30.0
 62
     5
 63
     7
421
 16777215
 74
     2
 91
        2
 64
     7
 65
   257
 75
     1
175
     1
 42
40.0
 92
        8
 66
     7
 43
1.0
 76
     1
 77
     6
 78
     2
 67
     7
 79
     3
170
     0
171
     0
290
     0
174
     0
 93
        1
 44
0.0
173
     0
291
     0
 45
0.0
1001
ACAD
1000
AcDbSavedByObjectVersion
1070
     0
  0
VISUALSTYLE
  5
35
102
{ACAD_REACTORS
330
2A
102
}
102
{ACAD_XDICTIONARY
360
1A8
102
}
330
2A
100
AcDbVisualStyle
  2
Dim
 70
    11
 71
     2
 72
     2
 73
     0
 90
        0
 40
-0.6
 41
-30.0
 62
     5
 63
     7
421
 16777215
 74
     1
 91
        4
 64
     7
 65
   257
 75
     1
175
     1
 42
1.0
 92
        8
 66
     7
 43
1.0
 76
     1
 77
     6
 78
     2
 67
     7
 79
     5
170
     0
171
     0
290
     0
174
     0
 93
        1
 44
-50.0
173
     0
291
     1
 45
0.0
1001
ACAD
1000
AcDbSavedByObjectVersion
1070
     0
  0
VISUALSTYLE
  5
39
102
{ACAD_REACTORS
330
2A
102
}
102
{ACAD_XDICTIONARY
360
1B0
102
}
330
2A
100
AcDbVisualStyle
  2
Facepattern
 70
    15
 71
     2
 72
     2
 73
     0
 90
        0
 40
-0.6
 41
-30.0
 62
     5
 63
     7
421
 16777215
 74
     1
 91
        4
 64
     7
 65
   257
 75
     1
175
     1
 42
1.0
 92
        8
 66
     7
 43
1.0
 76
     1
 77
     6
 78
     2
 67
     7
 79
     5
170
     0
171
     0
290
     0
174
     0
 93
        1
 44
0.0
173
     0
291
     1
 45
0.0
1001
ACAD
1000
AcDbSavedByObjectVersion
1070
     0
  0
VISUALSTYLE
  5
2B
102
{ACAD_REACTORS
330
2A
102
}
102
{ACAD_XDICTIONARY
360
194
102
}
330
2A
100
AcDbVisualStyle
  2
Flat
 70
     0
 71
     2
 72
     1
 73
     1
 90
        2
 40
-0.6
 41
30.0
 62
     5
 63
     7
421
 16777215
 74
     0
 91
        4
 64
     7
 65
   257
 75
     1
175
     1
 42
1.0
 92
        8
 66
     7
 43
1.0
 76
     1
 77
     6
 78
     2
 67
     7
 79
     5
170
     0
171
     0
290
     0
174
     0
 93
       13
 44
0.0
173
     0
291
     1
 45
0.0
1001
ACAD
1000
AcDbSavedByObjectVersion
1070
     0
  0
VISUALSTYLE
  5
2C
102
{ACAD_REACTORS
330
2A
102
}
102
{ACAD_XDICTIONARY
360
196
102
}
330
2A
100
AcDbVisualStyle
  2
FlatWithEdges
 70
     1
 71
     2
 72
     1
 73
     1
 90
        2
 40
-0.6
 41
30.0
 62
     5
 63
     7
421
 16777215
 74
     1
 91
        4
 64
     7
 65
   257
 75
     1
175
     1
 42
1.0
 92
        0
 66
   257
 43
1.0
 76
     1
 77
     6
 78
     2
 67
     7
 79
     5
170
     0
171
     0
290
     0
174
     0
 93
       13
 44
0.0
173
     0
291
     1
 45
0.0
1001
ACAD
1000
AcDbSavedByObjectVersion
1070
     0
  0
VISUALSTYLE
  5
2D
102
{ACAD_REACTORS
330
2A
102
}
102
{ACAD_XDICTIONARY
360
198
102
}
330
2A
100
AcDbVisualStyle
  2
Gouraud
 70
     2
 71
     2
 72
     2
 73
     1
 90
        2
 40
-0.6
 41
30.0
 62
     5
 63
     7
421
 16777215
 74
     0
 91
        4
 64
     7
 65
   257
 75
     1
175
     1
 42
1.0
 92
        0
 66
     7
 43
1.0
 76
     1
 77
     6
 78
     2
 67
     7
 79
     5
170
     0
171
     0
290
     0
174
     0
 93
       13
 44
0.0
173
     0
291
     1
 45
0.0
1001
ACAD
1000
AcDbSavedByObjectVersion
1070
     0
  0
VISUALSTYLE
  5
2E
102
{ACAD_REACTORS
330
2A
102
}
102
{ACAD_XDICTIONARY
360
19A
102
}
330
2A
100
AcDbVisualStyle
  2
GouraudWithEdges
 70
     3
 71
     2
 72
     2
 73
     1
 90
        2
 40
-0.6
 41
30.0
 62
     5
 63
     7
421
 16777215
 74
     1
 91
        4
 64
     7
 65
   257
 75
     1
175
     1
 42
1.0
 92
        0
 66
   257
 43
1.0
 76
     1
 77
     6
 78
     2
 67
     7
 79
     5
170
     0
171
     0
290
     0
174
     0
 93
       13
 44
0.0
173
     0
291
     1
 45
0.0
1001
ACAD
1000
AcDbSavedByObjectVersion
1070
     0
  0
VISUALSTYLE
  5
38
102
{ACAD_REACTORS
330
2A
102
}
102
{ACAD_XDICTIONARY
360
1AE
102
}
330
2A
100
AcDbVisualStyle
  2
Linepattern
 70
    14
 71
     2
 72
     2
 73
     0
 90
        0
 40
-0.6
 41
-30.0
 62
     5
 63
     7
421
 16777215
 74
     1
 91
        4
 64
     7
 65
   257
 75
     7
175
     7
 42
1.0
 92
        8
 66
     7
 43
1.0
 76
     1
 77
     6
 78
     2
 67
     7
 79
     5
170
     0
171
     0
290
     0
174
     0
 93
        1
 44
0.0
173
     0
291
     1
 45
0.0
1001
ACAD
1000
AcDbSavedByObjectVersion
1070
     0
  0
VISUALSTYLE
  5
33
102
{ACAD_REACTORS
330
2A
102
}
102
{ACAD_XDICTIONARY
360
1A4
102
}
330
2A
100
AcDbVisualStyle
  2
Realistic
 70
     8
 71
     2
 72
     2
 73
     0
 90
        0
 40
-0.6
 41
-30.0
 62
     5
 63
     7
421
 16777215
 74
     1
 91
        0
 64
     7
 65
   257
 75
     1
175
     1
 42
1.0
 92
        8
 66
     8
424
  7895160
 43
1.0
 76
     1
 77
     6
 78
     2
 67
     7
 79
     5
170
     0
171
     0
290
     0
174
     0
 93
       13
 44
0.0
173
     0
291
     0
 45
0.0
1001
ACAD
1000
AcDbSavedByObjectVersion
1070
     0
  0
VISUALSTYLE
  5
37
102
{ACAD_REACTORS
330
2A
102
}
102
{ACAD_XDICTIONARY
360
1AC
102
}
330
2A
100
AcDbVisualStyle
  2
Thicken
 70
    13
 71
     2
 72
     2
 73
     0
 90
        0
 40
-0.6
 41
-30.0
 62
     5
 63
     7
421
 16777215
 74
     1
 91
        4
 64
     7
 65
   257
 75
     1
175
     1
 42
1.0
 92
       12
 66
     7
 43
1.0
 76
     1
 77
     6
 78
     2
 67
     7
 79
     5
170
     0
171
     0
290
     0
174
     0
 93
        1
 44
0.0
173
     0
291
     1
 45
0.0
1001
ACAD
1000
AcDbSavedByObjectVersion
1070
     0
  0
DICTIONARYVAR
  5
193
102
{ACAD_REACTORS
330
192
102
}
330
192
100
DictionaryVariables
280
     0
  1
1:1
  0
DICTIONARYVAR
  5
1BC
102
{ACAD_REACTORS
330
192
102
}
330
192
100
DictionaryVariables
280
     0
  1
0
  0
XRECORD
  5
191
102
{ACAD_REACTORS
330
190
102
}
330
190
100
AcDbXrecord
280
     1
1000
This DWG file was created in ArchiCAD(TM)®
  0
DICTIONARY
  5
1B6
330
3D
100
AcDbDictionary
280
     1
281
     1
  3
ACAD_XREC_ROUNDTRIP
360
1B7
  0
DICTIONARY
  5
1B4
330
3C
100
AcDbDictionary
280
     1
281
     1
  3
ACAD_XREC_ROUNDTRIP
360
1B5
  0
DICTIONARY
  5
1B8
330
3E
100
AcDbDictionary
280
     1
281
     1
  3
ACAD_XREC_ROUNDTRIP
360
1B9
  0
DICTIONARY
  5
19C
330
2F
100
AcDbDictionary
280
     1
281
     1
  3
ACAD_XREC_ROUNDTRIP
360
19D
  0
DICTIONARY
  5
1A0
330
31
100
AcDbDictionary
280
     1
281
     1
  3
ACAD_XREC_ROUNDTRIP
360
1A1
  0
DICTIONARY
  5
19E
330
30
100
AcDbDictionary
280
     1
281
     1
  3
ACAD_XREC_ROUNDTRIP
360
19F
  0
DICTIONARY
  5
1A2
330
32
100
AcDbDictionary
280
     1
281
     1
  3
ACAD_XREC_ROUNDTRIP
360
1A3
  0
DICTIONARY
  5
1AA
330
36
100
AcDbDictionary
280
     1
281
     1
  3
ACAD_XREC_ROUNDTRIP
360
1AB
  0
DICTIONARY
  5
1B2
330
3A
100
AcDbDictionary
280
     1
281
     1
  3
ACAD_XREC_ROUNDTRIP
360
1B3
  0
DICTIONARY
  5
1A6
330
34
100
AcDbDictionary
280
     1
281
     1
  3
ACAD_XREC_ROUNDTRIP
360
1A7
  0
DICTIONARY
  5
1A8
330
35
100
AcDbDictionary
280
     1
281
     1
  3
ACAD_XREC_ROUNDTRIP
360
1A9
  0
DICTIONARY
  5
1B0
330
39
100
AcDbDictionary
280
     1
281
     1
  3
ACAD_XREC_ROUNDTRIP
360
1B1
  0
DICTIONARY
  5
194
330
2B
100
AcDbDictionary
280
     1
281
     1
  3
ACAD_XREC_ROUNDTRIP
360
195
  0
DICTIONARY
  5
196
330
2C
100
AcDbDictionary
280
     1
281
     1
  3
ACAD_XREC_ROUNDTRIP
360
197
  0
DICTIONARY
  5
198
330
2D
100
AcDbDictionary
280
     1
281
     1
  3
ACAD_XREC_ROUNDTRIP
360
199
  0
DICTIONARY
  5
19A
330
2E
100
AcDbDictionary
280
     1
281
     1
  3
ACAD_XREC_ROUNDTRIP
360
19B
  0
DICTIONARY
  5
1AE
330
38
100
AcDbDictionary
280
     1
281
     1
  3
ACAD_XREC_ROUNDTRIP
360
1AF
  0
DICTIONARY
  5
1A4
330
33
100
AcDbDictionary
280
     1
281
     1
  3
ACAD_XREC_ROUNDTRIP
360
1A5
  0
DICTIONARY
  5
1AC
330
37
100
AcDbDictionary
280
     1
281
     1
  3
ACAD_XREC_ROUNDTRIP
360
1AD
  0
XRECORD
  5
1B7
102
{ACAD_REACTORS
330
1B6
102
}
330
1B6
100
AcDbXrecord
280
     1
102
MATERIAL
148
0.0
149
0.0
149
0.0
 93
        0
 94
      127
282
     0
 72
     1
 77
     1
171
     1
175
     1
179
     1
273
     0
  0
XRECORD
  5
1B5
102
{ACAD_REACTORS
330
1B4
102
}
330
1B4
100
AcDbXrecord
280
     1
102
MATERIAL
148
0.0
149
0.0
149
0.0
 93
        0
 94
      127
282
     0
 72
     1
 77
     1
171
     1
175
     1
179
     1
273
     0
  0
XRECORD
  5
1B9
102
{ACAD_REACTORS
330
1B8
102
}
330
1B8
100
AcDbXrecord
280
     1
102
MATERIAL
148
0.0
149
0.0
149
0.0
 93
        0
 94
      127
282
     0
 72
     1
 77
     1
171
     1
175
     1
179
     1
273
     0
  0
XRECORD
  5
19D
102
{ACAD_REACTORS
330
19C
102
}
330
19C
100
AcDbXrecord
280
     1
102
RTVSPropertyOp0
 70
     1
102
RTVSPropertyOp1
 70
     1
102
RTVSPropertyOp2
 70
     1
102
RTVSPropertyOp3
 70
     1
102
RTVSPropertyOp4
 70
     1
102
RTVSPropertyOp5
 70
     1
102
RTVSPropertyOp6
 70
     1
102
RTVSPropertyOp7
 70
     1
102
RTVSPropertyOp8
 70
     1
102
RTVSPropertyOp9
 70
     1
102
RTVSPropertyOp10
 70
     1
102
RTVSPropertyOp11
 70
     1
102
RTVSPropertyOp12
 70
     1
102
RTVSPropertyOp13
 70
     1
102
RTVSPropertyOp14
 70
     1
102
RTVSPropertyOp15
 70
     1
102
RTVSPropertyOp16
 70
     1
102
RTVSPropertyOp17
 70
     1
102
RTVSPropertyOp18
 70
     1
102
RTVSPropertyOp19
 70
     1
102
RTVSPropertyOp20
 70
     1
102
RTVSPropertyOp21
 70
     1
102
RTVSPropertyOp22
 70
     1
102
RTVSPropertyOp23
 70
     1
102
RTVSPropertyOp24
 70
     1
102
RTVSPropertyOp25
 70
     1
102
RTVSPropertyOp26
 70
     1
102
RTVSPropertyOp27
 70
     1
102
RTVSPropertyOp28
 70
     1
102
RTVSPropertyOp29
 70
     1
102
RTVSPropertyOp30
 70
     1
102
RTVSPropertyOp31
 70
     1
102
RTVSPropertyOp32
 70
     1
  0
XRECORD
  5
1A1
102
{ACAD_REACTORS
330
1A0
102
}
330
1A0
100
AcDbXrecord
280
     1
102
RTVSPropertyOp0
 70
     1
102
RTVSPropertyOp1
 70
     1
102
RTVSPropertyOp2
 70
     1
102
RTVSPropertyOp3
 70
     1
102
RTVSPropertyOp4
 70
     1
102
RTVSPropertyOp5
 70
     1
102
RTVSPropertyOp6
 70
     1
102
RTVSPropertyOp7
 70
     1
102
RTVSPropertyOp8
 70
     1
102
RTVSPropertyOp9
 70
     1
102
RTVSPropertyOp10
 70
     1
102
RTVSPropertyOp11
 70
     1
102
RTVSPropertyOp12
 70
     1
102
RTVSPropertyOp13
 70
     1
102
RTVSPropertyOp14
 70
     1
102
RTVSPropertyOp15
 70
     1
102
RTVSPropertyOp16
 70
     1
102
RTVSPropertyOp17
 70
     1
102
RTVSPropertyOp18
 70
     1
102
RTVSPropertyOp19
 70
     1
102
RTVSPropertyOp20
 70
     1
102
RTVSPropertyOp21
 70
     1
102
RTVSPropertyOp22
 70
     1
102
RTVSPropertyOp23
 70
     1
102
RTVSPropertyOp24
 70
     1
102
RTVSPropertyOp25
 70
     1
102
RTVSPropertyOp26
 70
     1
102
RTVSPropertyOp27
 70
     1
102
RTVSPropertyOp28
 70
     1
102
RTVSPropertyOp29
 70
     1
102
RTVSPropertyOp30
 70
     1
102
RTVSPropertyOp31
 70
     1
102
RTVSPropertyOp32
 70
     1
  0
XRECORD
  5
19F
102
{ACAD_REACTORS
330
19E
102
}
330
19E
100
AcDbXrecord
280
     1
102
RTVSPropertyOp0
 70
     1
102
RTVSPropertyOp1
 70
     1
102
RTVSPropertyOp2
 70
     1
102
RTVSPropertyOp3
 70
     1
102
RTVSPropertyOp4
 70
     1
102
RTVSPropertyOp5
 70
     1
102
RTVSPropertyOp6
 70
     1
102
RTVSPropertyOp7
 70
     1
102
RTVSPropertyOp8
 70
     1
102
RTVSPropertyOp9
 70
     1
102
RTVSPropertyOp10
 70
     1
102
RTVSPropertyOp11
 70
     1
102
RTVSPropertyOp12
 70
     1
102
RTVSPropertyOp13
 70
     1
102
RTVSPropertyOp14
 70
     1
102
RTVSPropertyOp15
 70
     1
102
RTVSPropertyOp16
 70
     1
102
RTVSPropertyOp17
 70
     1
102
RTVSPropertyOp18
 70
     1
102
RTVSPropertyOp19
 70
     1
102
RTVSPropertyOp20
 70
     1
102
RTVSPropertyOp21
 70
     1
102
RTVSPropertyOp22
 70
     1
102
RTVSPropertyOp23
 70
     1
102
RTVSPropertyOp24
 70
     1
102
RTVSPropertyOp25
 70
     1
102
RTVSPropertyOp26
 70
     1
102
RTVSPropertyOp27
 70
     1
102
RTVSPropertyOp28
 70
     1
102
RTVSPropertyOp29
 70
     1
102
RTVSPropertyOp30
 70
     1
102
RTVSPropertyOp31
 70
     1
102
RTVSPropertyOp32
 70
     1
  0
XRECORD
  5
1A3
102
{ACAD_REACTORS
330
1A2
102
}
330
1A2
100
AcDbXrecord
280
     1
102
RTVSPropertyOp0
 70
     1
102
RTVSPropertyOp1
 70
     1
102
RTVSPropertyOp2
 70
     1
102
RTVSPropertyOp3
 70
     1
102
RTVSPropertyOp4
 70
     1
102
RTVSPropertyOp5
 70
     1
102
RTVSPropertyOp6
 70
     1
102
RTVSPropertyOp7
 70
     1
102
RTVSPropertyOp8
 70
     1
102
RTVSPropertyOp9
 70
     1
102
RTVSPropertyOp10
 70
     1
102
RTVSPropertyOp11
 70
     1
102
RTVSPropertyOp12
 70
     1
102
RTVSPropertyOp13
 70
     1
102
RTVSPropertyOp14
 70
     1
102
RTVSPropertyOp15
 70
     1
102
RTVSPropertyOp16
 70
     1
102
RTVSPropertyOp17
 70
     1
102
RTVSPropertyOp18
 70
     1
102
RTVSPropertyOp19
 70
     1
102
RTVSPropertyOp20
 70
     1
102
RTVSPropertyOp21
 70
     1
102
RTVSPropertyOp22
 70
     1
102
RTVSPropertyOp23
 70
     1
102
RTVSPropertyOp24
 70
     1
102
RTVSPropertyOp25
 70
     1
102
RTVSPropertyOp26
 70
     1
102
RTVSPropertyOp27
 70
     1
102
RTVSPropertyOp28
 70
     1
102
RTVSPropertyOp29
 70
     1
102
RTVSPropertyOp30
 70
     1
102
RTVSPropertyOp31
 70
     1
102
RTVSPropertyOp32
 70
     1
  0
XRECORD
  5
1AB
102
{ACAD_REACTORS
330
1AA
102
}
330
1AA
100
AcDbXrecord
280
     1
102
RTVSPropertyOp0
 70
     1
102
RTVSPropertyOp1
 70
     1
102
RTVSPropertyOp2
 70
     1
102
RTVSPropertyOp3
 70
     1
102
RTVSPropertyOp4
 70
     1
102
RTVSPropertyOp5
 70
     1
102
RTVSPropertyOp6
 70
     1
102
RTVSPropertyOp7
 70
     1
102
RTVSPropertyOp8
 70
     1
102
RTVSPropertyOp9
 70
     1
102
RTVSPropertyOp10
 70
     1
102
RTVSPropertyOp11
 70
     1
102
RTVSPropertyOp12
 70
     1
102
RTVSPropertyOp13
 70
     1
102
RTVSPropertyOp14
 70
     1
102
RTVSPropertyOp15
 70
     1
102
RTVSPropertyOp16
 70
     1
102
RTVSPropertyOp17
 70
     1
102
RTVSPropertyOp18
 70
     1
102
RTVSPropertyOp19
 70
     1
102
RTVSPropertyOp20
 70
     1
102
RTVSPropertyOp21
 70
     1
102
RTVSPropertyOp22
 70
     1
102
RTVSPropertyOp23
 70
     1
102
RTVSPropertyOp24
 70
     1
102
RTVSPropertyOp25
 70
     1
102
RTVSPropertyOp26
 70
     1
102
RTVSPropertyOp27
 70
     1
102
RTVSPropertyOp28
 70
     1
102
RTVSPropertyOp29
 70
     1
102
RTVSPropertyOp30
 70
     1
102
RTVSPropertyOp31
 70
     1
102
RTVSPropertyOp32
 70
     1
  0
XRECORD
  5
1B3
102
{ACAD_REACTORS
330
1B2
102
}
330
1B2
100
AcDbXrecord
280
     1
102
RTVSPropertyOp0
 70
     1
102
RTVSPropertyOp1
 70
     1
102
RTVSPropertyOp2
 70
     1
102
RTVSPropertyOp3
 70
     1
102
RTVSPropertyOp4
 70
     1
102
RTVSPropertyOp5
 70
     1
102
RTVSPropertyOp6
 70
     1
102
RTVSPropertyOp7
 70
     1
102
RTVSPropertyOp8
 70
     1
102
RTVSPropertyOp9
 70
     1
102
RTVSPropertyOp10
 70
     1
102
RTVSPropertyOp11
 70
     1
102
RTVSPropertyOp12
 70
     1
102
RTVSPropertyOp13
 70
     1
102
RTVSPropertyOp14
 70
     1
102
RTVSPropertyOp15
 70
     1
102
RTVSPropertyOp16
 70
     1
102
RTVSPropertyOp17
 70
     1
102
RTVSPropertyOp18
 70
     1
102
RTVSPropertyOp19
 70
     1
102
RTVSPropertyOp20
 70
     1
102
RTVSPropertyOp21
 70
     1
102
RTVSPropertyOp22
 70
     1
102
RTVSPropertyOp23
 70
     1
102
RTVSPropertyOp24
 70
     1
102
RTVSPropertyOp25
 70
     1
102
RTVSPropertyOp26
 70
     1
102
RTVSPropertyOp27
 70
     1
102
RTVSPropertyOp28
 70
     1
102
RTVSPropertyOp29
 70
     1
102
RTVSPropertyOp30
 70
     1
102
RTVSPropertyOp31
 70
     1
102
RTVSPropertyOp32
 70
     1
  0
XRECORD
  5
1A7
102
{ACAD_REACTORS
330
1A6
102
}
330
1A6
100
AcDbXrecord
280
     1
102
RTVSPropertyOp0
 70
     1
102
RTVSPropertyOp1
 70
     1
102
RTVSPropertyOp2
 70
     1
102
RTVSPropertyOp3
 70
     1
102
RTVSPropertyOp4
 70
     1
102
RTVSPropertyOp5
 70
     1
102
RTVSPropertyOp6
 70
     1
102
RTVSPropertyOp7
 70
     1
102
RTVSPropertyOp8
 70
     1
102
RTVSPropertyOp9
 70
     1
102
RTVSPropertyOp10
 70
     1
102
RTVSPropertyOp11
 70
     1
102
RTVSPropertyOp12
 70
     1
102
RTVSPropertyOp13
 70
     1
102
RTVSPropertyOp14
 70
     1
102
RTVSPropertyOp15
 70
     1
102
RTVSPropertyOp16
 70
     1
102
RTVSPropertyOp17
 70
     1
102
RTVSPropertyOp18
 70
     1
102
RTVSPropertyOp19
 70
     1
102
RTVSPropertyOp20
 70
     1
102
RTVSPropertyOp21
 70
     1
102
RTVSPropertyOp22
 70
     1
102
RTVSPropertyOp23
 70
     1
102
RTVSPropertyOp24
 70
     1
102
RTVSPropertyOp25
 70
     1
102
RTVSPropertyOp26
 70
     1
102
RTVSPropertyOp27
 70
     1
102
RTVSPropertyOp28
 70
     1
102
RTVSPropertyOp29
 70
     1
102
RTVSPropertyOp30
 70
     1
102
RTVSPropertyOp31
 70
     1
102
RTVSPropertyOp32
 70
     1
  0
XRECORD
  5
1A9
102
{ACAD_REACTORS
330
1A8
102
}
330
1A8
100
AcDbXrecord
280
     1
102
RTVSPropertyOp0
 70
     1
102
RTVSPropertyOp1
 70
     1
102
RTVSPropertyOp2
 70
     1
102
RTVSPropertyOp3
 70
     1
102
RTVSPropertyOp4
 70
     1
102
RTVSPropertyOp5
 70
     1
102
RTVSPropertyOp6
 70
     1
102
RTVSPropertyOp7
 70
     1
102
RTVSPropertyOp8
 70
     1
102
RTVSPropertyOp9
 70
     1
102
RTVSPropertyOp10
 70
     1
102
RTVSPropertyOp11
 70
     1
102
RTVSPropertyOp12
 70
     1
102
RTVSPropertyOp13
 70
     1
102
RTVSPropertyOp14
 70
     1
102
RTVSPropertyOp15
 70
     1
102
RTVSPropertyOp16
 70
     1
102
RTVSPropertyOp17
 70
     1
102
RTVSPropertyOp18
 70
     1
102
RTVSPropertyOp19
 70
     1
102
RTVSPropertyOp20
 70
     1
102
RTVSPropertyOp21
 70
     1
102
RTVSPropertyOp22
 70
     1
102
RTVSPropertyOp23
 70
     1
102
RTVSPropertyOp24
 70
     1
102
RTVSPropertyOp25
 70
     1
102
RTVSPropertyOp26
 70
     1
102
RTVSPropertyOp27
 70
     1
102
RTVSPropertyOp28
 70
     1
102
RTVSPropertyOp29
 70
     1
102
RTVSPropertyOp30
 70
     1
102
RTVSPropertyOp31
 70
     1
102
RTVSPropertyOp32
 70
     1
  0
XRECORD
  5
1B1
102
{ACAD_REACTORS
330
1B0
102
}
330
1B0
100
AcDbXrecord
280
     1
102
RTVSPropertyOp0
 70
     1
102
RTVSPropertyOp1
 70
     1
102
RTVSPropertyOp2
 70
     1
102
RTVSPropertyOp3
 70
     1
102
RTVSPropertyOp4
 70
     1
102
RTVSPropertyOp5
 70
     1
102
RTVSPropertyOp6
 70
     1
102
RTVSPropertyOp7
 70
     1
102
RTVSPropertyOp8
 70
     1
102
RTVSPropertyOp9
 70
     1
102
RTVSPropertyOp10
 70
     1
102
RTVSPropertyOp11
 70
     1
102
RTVSPropertyOp12
 70
     1
102
RTVSPropertyOp13
 70
     1
102
RTVSPropertyOp14
 70
     1
102
RTVSPropertyOp15
 70
     1
102
RTVSPropertyOp16
 70
     1
102
RTVSPropertyOp17
 70
     1
102
RTVSPropertyOp18
 70
     1
102
RTVSPropertyOp19
 70
     1
102
RTVSPropertyOp20
 70
     1
102
RTVSPropertyOp21
 70
     1
102
RTVSPropertyOp22
 70
     1
102
RTVSPropertyOp23
 70
     1
102
RTVSPropertyOp24
 70
     1
102
RTVSPropertyOp25
 70
     1
102
RTVSPropertyOp26
 70
     1
102
RTVSPropertyOp27
 70
     1
102
RTVSPropertyOp28
 70
     1
102
RTVSPropertyOp29
 70
     1
102
RTVSPropertyOp30
 70
     1
102
RTVSPropertyOp31
 70
     1
102
RTVSPropertyOp32
 70
     1
  0
XRECORD
  5
195
102
{ACAD_REACTORS
330
194
102
}
330
194
100
AcDbXrecord
280
     1
102
RTVSPropertyOp0
 70
     1
102
RTVSPropertyOp1
 70
     1
102
RTVSPropertyOp2
 70
     1
102
RTVSPropertyOp3
 70
     1
102
RTVSPropertyOp4
 70
     1
102
RTVSPropertyOp5
 70
     1
102
RTVSPropertyOp6
 70
     1
102
RTVSPropertyOp7
 70
     1
102
RTVSPropertyOp8
 70
     1
102
RTVSPropertyOp9
 70
     1
102
RTVSPropertyOp10
 70
     1
102
RTVSPropertyOp11
 70
     1
102
RTVSPropertyOp12
 70
     1
102
RTVSPropertyOp13
 70
     1
102
RTVSPropertyOp14
 70
     1
102
RTVSPropertyOp15
 70
     1
102
RTVSPropertyOp16
 70
     1
102
RTVSPropertyOp17
 70
     1
102
RTVSPropertyOp18
 70
     1
102
RTVSPropertyOp19
 70
     1
102
RTVSPropertyOp20
 70
     1
102
RTVSPropertyOp21
 70
     1
102
RTVSPropertyOp22
 70
     1
102
RTVSPropertyOp23
 70
     1
102
RTVSPropertyOp24
 70
     1
102
RTVSPropertyOp25
 70
     1
102
RTVSPropertyOp26
 70
     1
102
RTVSPropertyOp27
 70
     1
102
RTVSPropertyOp28
 70
     1
102
RTVSPropertyOp29
 70
     1
102
RTVSPropertyOp30
 70
     1
102
RTVSPropertyOp31
 70
     1
102
RTVSPropertyOp32
 70
     1
  0
XRECORD
  5
197
102
{ACAD_REACTORS
330
196
102
}
330
196
100
AcDbXrecord
280
     1
102
RTVSPropertyOp0
 70
     1
102
RTVSPropertyOp1
 70
     1
102
RTVSPropertyOp2
 70
     1
102
RTVSPropertyOp3
 70
     1
102
RTVSPropertyOp4
 70
     1
102
RTVSPropertyOp5
 70
     1
102
RTVSPropertyOp6
 70
     1
102
RTVSPropertyOp7
 70
     1
102
RTVSPropertyOp8
 70
     1
102
RTVSPropertyOp9
 70
     1
102
RTVSPropertyOp10
 70
     1
102
RTVSPropertyOp11
 70
     1
102
RTVSPropertyOp12
 70
     1
102
RTVSPropertyOp13
 70
     1
102
RTVSPropertyOp14
 70
     1
102
RTVSPropertyOp15
 70
     1
102
RTVSPropertyOp16
 70
     1
102
RTVSPropertyOp17
 70
     1
102
RTVSPropertyOp18
 70
     1
102
RTVSPropertyOp19
 70
     1
102
RTVSPropertyOp20
 70
     1
102
RTVSPropertyOp21
 70
     1
102
RTVSPropertyOp22
 70
     1
102
RTVSPropertyOp23
 70
     1
102
RTVSPropertyOp24
 70
     1
102
RTVSPropertyOp25
 70
     1
102
RTVSPropertyOp26
 70
     1
102
RTVSPropertyOp27
 70
     1
102
RTVSPropertyOp28
 70
     1
102
RTVSPropertyOp29
 70
     1
102
RTVSPropertyOp30
 70
     1
102
RTVSPropertyOp31
 70
     1
102
RTVSPropertyOp32
 70
     1
  0
XRECORD
  5
199
102
{ACAD_REACTORS
330
198
102
}
330
198
100
AcDbXrecord
280
     1
102
RTVSPropertyOp0
 70
     1
102
RTVSPropertyOp1
 70
     1
102
RTVSPropertyOp2
 70
     1
102
RTVSPropertyOp3
 70
     1
102
RTVSPropertyOp4
 70
     1
102
RTVSPropertyOp5
 70
     1
102
RTVSPropertyOp6
 70
     1
102
RTVSPropertyOp7
 70
     1
102
RTVSPropertyOp8
 70
     1
102
RTVSPropertyOp9
 70
     1
102
RTVSPropertyOp10
 70
     1
102
RTVSPropertyOp11
 70
     1
102
RTVSPropertyOp12
 70
     1
102
RTVSPropertyOp13
 70
     1
102
RTVSPropertyOp14
 70
     1
102
RTVSPropertyOp15
 70
     1
102
RTVSPropertyOp16
 70
     1
102
RTVSPropertyOp17
 70
     1
102
RTVSPropertyOp18
 70
     1
102
RTVSPropertyOp19
 70
     1
102
RTVSPropertyOp20
 70
     1
102
RTVSPropertyOp21
 70
     1
102
RTVSPropertyOp22
 70
     1
102
RTVSPropertyOp23
 70
     1
102
RTVSPropertyOp24
 70
     1
102
RTVSPropertyOp25
 70
     1
102
RTVSPropertyOp26
 70
     1
102
RTVSPropertyOp27
 70
     1
102
RTVSPropertyOp28
 70
     1
102
RTVSPropertyOp29
 70
     1
102
RTVSPropertyOp30
 70
     1
102
RTVSPropertyOp31
 70
     1
102
RTVSPropertyOp32
 70
     1
  0
XRECORD
  5
19B
102
{ACAD_REACTORS
330
19A
102
}
330
19A
100
AcDbXrecord
280
     1
102
RTVSPropertyOp0
 70
     1
102
RTVSPropertyOp1
 70
     1
102
RTVSPropertyOp2
 70
     1
102
RTVSPropertyOp3
 70
     1
102
RTVSPropertyOp4
 70
     1
102
RTVSPropertyOp5
 70
     1
102
RTVSPropertyOp6
 70
     1
102
RTVSPropertyOp7
 70
     1
102
RTVSPropertyOp8
 70
     1
102
RTVSPropertyOp9
 70
     1
102
RTVSPropertyOp10
 70
     1
102
RTVSPropertyOp11
 70
     1
102
RTVSPropertyOp12
 70
     1
102
RTVSPropertyOp13
 70
     1
102
RTVSPropertyOp14
 70
     1
102
RTVSPropertyOp15
 70
     1
102
RTVSPropertyOp16
 70
     1
102
RTVSPropertyOp17
 70
     1
102
RTVSPropertyOp18
 70
     1
102
RTVSPropertyOp19
 70
     1
102
RTVSPropertyOp20
 70
     1
102
RTVSPropertyOp21
 70
     1
102
RTVSPropertyOp22
 70
     1
102
RTVSPropertyOp23
 70
     1
102
RTVSPropertyOp24
 70
     1
102
RTVSPropertyOp25
 70
     1
102
RTVSPropertyOp26
 70
     1
102
RTVSPropertyOp27
 70
     1
102
RTVSPropertyOp28
 70
     1
102
RTVSPropertyOp29
 70
     1
102
RTVSPropertyOp30
 70
     1
102
RTVSPropertyOp31
 70
     1
102
RTVSPropertyOp32
 70
     1
  0
XRECORD
  5
1AF
102
{ACAD_REACTORS
330
1AE
102
}
330
1AE
100
AcDbXrecord
280
     1
102
RTVSPropertyOp0
 70
     1
102
RTVSPropertyOp1
 70
     1
102
RTVSPropertyOp2
 70
     1
102
RTVSPropertyOp3
 70
     1
102
RTVSPropertyOp4
 70
     1
102
RTVSPropertyOp5
 70
     1
102
RTVSPropertyOp6
 70
     1
102
RTVSPropertyOp7
 70
     1
102
RTVSPropertyOp8
 70
     1
102
RTVSPropertyOp9
 70
     1
102
RTVSPropertyOp10
 70
     1
102
RTVSPropertyOp11
 70
     1
102
RTVSPropertyOp12
 70
     1
102
RTVSPropertyOp13
 70
     1
102
RTVSPropertyOp14
 70
     1
102
RTVSPropertyOp15
 70
     1
102
RTVSPropertyOp16
 70
     1
102
RTVSPropertyOp17
 70
     1
102
RTVSPropertyOp18
 70
     1
102
RTVSPropertyOp19
 70
     1
102
RTVSPropertyOp20
 70
     1
102
RTVSPropertyOp21
 70
     1
102
RTVSPropertyOp22
 70
     1
102
RTVSPropertyOp23
 70
     1
102
RTVSPropertyOp24
 70
     1
102
RTVSPropertyOp25
 70
     1
102
RTVSPropertyOp26
 70
     1
102
RTVSPropertyOp27
 70
     1
102
RTVSPropertyOp28
 70
     1
102
RTVSPropertyOp29
 70
     1
102
RTVSPropertyOp30
 70
     1
102
RTVSPropertyOp31
 70
     1
102
RTVSPropertyOp32
 70
     1
  0
XRECORD
  5
1A5
102
{ACAD_REACTORS
330
1A4
102
}
330
1A4
100
AcDbXrecord
280
     1
102
RTVSPropertyOp0
 70
     1
102
RTVSPropertyOp1
 70
     1
102
RTVSPropertyOp2
 70
     1
102
RTVSPropertyOp3
 70
     1
102
RTVSPropertyOp4
 70
     1
102
RTVSPropertyOp5
 70
     1
102
RTVSPropertyOp6
 70
     1
102
RTVSPropertyOp7
 70
     1
102
RTVSPropertyOp8
 70
     1
102
RTVSPropertyOp9
 70
     1
102
RTVSPropertyOp10
 70
     1
102
RTVSPropertyOp11
 70
     1
102
RTVSPropertyOp12
 70
     1
102
RTVSPropertyOp13
 70
     1
102
RTVSPropertyOp14
 70
     1
102
RTVSPropertyOp15
 70
     1
102
RTVSPropertyOp16
 70
     1
102
RTVSPropertyOp17
 70
     1
102
RTVSPropertyOp18
 70
     1
102
RTVSPropertyOp19
 70
     1
102
RTVSPropertyOp20
 70
     1
102
RTVSPropertyOp21
 70
     1
102
RTVSPropertyOp22
 70
     1
102
RTVSPropertyOp23
 70
     1
102
RTVSPropertyOp24
 70
     1
102
RTVSPropertyOp25
 70
     1
102
RTVSPropertyOp26
 70
     1
102
RTVSPropertyOp27
 70
     1
102
RTVSPropertyOp28
 70
     1
102
RTVSPropertyOp29
 70
     1
102
RTVSPropertyOp30
 70
     1
102
RTVSPropertyOp31
 70
     1
102
RTVSPropertyOp32
 70
     1
  0
XRECORD
  5
1AD
102
{ACAD_REACTORS
330
1AC
102
}
330
1AC
100
AcDbXrecord
280
     1
102
RTVSPropertyOp0
 70
     1
102
RTVSPropertyOp1
 70
     1
102
RTVSPropertyOp2
 70
     1
102
RTVSPropertyOp3
 70
     1
102
RTVSPropertyOp4
 70
     1
102
RTVSPropertyOp5
 70
     1
102
RTVSPropertyOp6
 70
     1
102
RTVSPropertyOp7
 70
     1
102
RTVSPropertyOp8
 70
     1
102
RTVSPropertyOp9
 70
     1
102
RTVSPropertyOp10
 70
     1
102
RTVSPropertyOp11
 70
     1
102
RTVSPropertyOp12
 70
     1
102
RTVSPropertyOp13
 70
     1
102
RTVSPropertyOp14
 70
     1
102
RTVSPropertyOp15
 70
     1
102
RTVSPropertyOp16
 70
     1
102
RTVSPropertyOp17
 70
     1
102
RTVSPropertyOp18
 70
     1
102
RTVSPropertyOp19
 70
     1
102
RTVSPropertyOp20
 70
     1
102
RTVSPropertyOp21
 70
     1
102
RTVSPropertyOp22
 70
     1
102
RTVSPropertyOp23
 70
     1
102
RTVSPropertyOp24
 70
     1
102
RTVSPropertyOp25
 70
     1
102
RTVSPropertyOp26
 70
     1
102
RTVSPropertyOp27
 70
     1
102
RTVSPropertyOp28
 70
     1
102
RTVSPropertyOp29
 70
     1
102
RTVSPropertyOp30
 70
     1
102
RTVSPropertyOp31
 70
     1
102
RTVSPropertyOp32
 70
     1
  0
ENDSEC
  0
EOF
