  0
SECTION
  2
HEADER
  9
$ACADVER
  1
AC1009
  9
$INSBASE
 10
0.0
 20
0.0
 30
0.0
  9
$EXTMIN
 10
-71.198284620190861
 20
-124.8127328125052
 30
-0.0015258207003583
  9
$EXTMAX
 10
89.678934378234771
 20
60.805980370924992
 30
0.0000000349246037
  9
$LIMMIN
 10
0.0
 20
0.0
  9
$LIMMAX
 10
420.0
 20
297.0
  9
$ORTHOMODE
 70
     0
  9
$REGENMODE
 70
     1
  9
$FILLMODE
 70
     1
  9
$QTEXTMODE
 70
     0
  9
$MIRRTEXT
 70
     0
  9
$DRAGMODE
 70
     2
  9
$LTSCALE
 40
1.0
  9
$OSMODE
 70
     0
  9
$ATTMODE
 70
     1
  9
$TEXTSIZE
 40
35.0
  9
$TRACEWID
 40
1.0
  9
$TEXTSTYLE
  7
ARIAL
  9
$CLAYER
  8
0
  9
$CELTYPE
  6
CONTINUOUS
  9
$CECOLOR
 62
   256
  9
$DIMSCALE
 40
1.0
  9
$DIMASZ
 40
1.8
  9
$DIMEXO
 40
1.8
  9
$DIMDLI
 40
5.0
  9
$DIMRND
 40
0.0
  9
$DIMDLE
 40
1.8
  9
$DIMEXE
 40
1.8
  9
$DIMTP
 40
0.0
  9
$DIMTM
 40
0.0
  9
$DIMTXT
 40
2.0
  9
$DIMCEN
 40
1.8
  9
$DIMTSZ
 40
0.0
  9
$DIMTOL
 70
     0
  9
$DIMLIM
 70
     0
  9
$DIMTIH
 70
     0
  9
$DIMTOH
 70
     0
  9
$DIMSE1
 70
     0
  9
$DIMSE2
 70
     0
  9
$DIMTAD
 70
     1
  9
$DIMZIN
 70
     0
  9
$DIMBLK
  1

  9
$DIMASO
 70
     1
  9
$DIMSHO
 70
     1
  9
$DIMPOST
  1
mm
  9
$DIMAPOST
  1
mm
  9
$DIMALT
 70
     0
  9
$DIMALTD
 70
     2
  9
$DIMALTF
 40
0.0394
  9
$DIMLFAC
 40
1.0
  9
$DIMTOFL
 70
     0
  9
$DIMTVP
 40
0.0
  9
$DIMTIX
 70
     0
  9
$DIMSOXD
 70
     0
  9
$DIMSAH
 70
     0
  9
$DIMBLK1
  1

  9
$DIMBLK2
  1

  9
$DIMSTYLE
  2
1_TO_1
  9
$DIMCLRD
 70
   256
  9
$DIMCLRE
 70
   256
  9
$DIMCLRT
 70
   256
  9
$DIMTFAC
 40
1.0
  9
$DIMGAP
 40
1.0
  9
$LUNITS
 70
     2
  9
$LUPREC
 70
     1
  9
$SKETCHINC
 40
1.0
  9
$FILLETRAD
 40
0.0
  9
$AUNITS
 70
     1
  9
$AUPREC
 70
     4
  9
$MENU
  1
acad
  9
$ELEVATION
 40
0.0
  9
$PELEVATION
 40
0.0
  9
$THICKNESS
 40
0.0
  9
$LIMCHECK
 70
     0
  9
$BLIPMODE
 70
     0
  9
$CHAMFERA
 40
10.0
  9
$CHAMFERB
 40
10.0
  9
$SKPOLY
 70
     0
  9
$TDCREATE
 40
2450935.42424213
  9
$TDUPDATE
 40
2457100.7057025349
  9
$TDINDWG
 40
7.6582197454000003
  9
$TDUSRTIMER
 40
7.6582197454000003
  9
$USRTIMER
 70
     1
  9
$ANGBASE
 50
0.0
  9
$ANGDIR
 70
     0
  9
$PDMODE
 70
     0
  9
$PDSIZE
 40
-1.0
  9
$PLINEWID
 40
0.0
  9
$COORDS
 70
     2
  9
$SPLFRAME
 70
     0
  9
$SPLINETYPE
 70
     6
  9
$SPLINESEGS
 70
     8
  9
$ATTDIA
 70
     0
  9
$ATTREQ
 70
     1
  9
$HANDLING
 70
     1
  9
$HANDSEED
  5
8000040F
  9
$SURFTAB1
 70
     6
  9
$SURFTAB2
 70
     6
  9
$SURFTYPE
 70
     6
  9
$SURFU
 70
     6
  9
$SURFV
 70
     6
  9
$UCSNAME
  2

  9
$UCSORG
 10
0.0
 20
0.0
 30
0.0
  9
$UCSXDIR
 10
1.0
 20
0.0
 30
0.0
  9
$UCSYDIR
 10
0.0
 20
1.0
 30
0.0
  9
$PUCSNAME
  2

  9
$PUCSORG
 10
0.0
 20
0.0
 30
0.0
  9
$PUCSXDIR
 10
1.0
 20
0.0
 30
0.0
  9
$PUCSYDIR
 10
0.0
 20
1.0
 30
0.0
  9
$USERI1
 70
    50
  9
$USERI2
 70
     1
  9
$USERI3
 70
     0
  9
$USERI4
 70
     2
  9
$USERI5
 70
     0
  9
$USERR1
 40
50.0
  9
$USERR2
 40
0.0
  9
$USERR3
 40
50.0
  9
$USERR4
 40
100.0
  9
$USERR5
 40
100.0
  9
$WORLDVIEW
 70
     1
  9
$SHADEDGE
 70
     3
  9
$SHADEDIF
 70
    70
  9
$TILEMODE
 70
     1
  9
$MAXACTVP
 70
    16
  9
$PLIMCHECK
 70
     0
  9
$PEXTMIN
 10
0.0
 20
0.0
 30
0.0
  9
$PEXTMAX
 10
0.0
 20
0.0
 30
0.0
  9
$PLIMMIN
 10
0.0
 20
0.0
  9
$PLIMMAX
 10
12.0
 20
9.0
  9
$UNITMODE
 70
     0
  9
$VISRETAIN
 70
     0
  9
$PLINEGEN
 70
     0
  9
$PSLTSCALE
 70
     1
  0
ENDSEC
  0
SECTION
  2
TABLES
  0
TABLE
  2
VPORT
 70
     1
  0
VPORT
  2
*ACTIVE
 70
     0
 10
0.0
 20
0.0
 11
1.0
 21
1.0
 12
9.2403248790219443
 22
-32.00337622079013
 13
0.0
 23
0.0
 14
1.0
 24
1.0
 15
10.0
 25
10.0
 16
0.0
 26
0.0
 36
1.0
 17
0.0
 27
0.0
 37
0.0
 40
186.8799954927174
 41
1.0918367346938771
 42
50.0
 43
0.0
 44
0.0
 50
0.0
 51
0.0
 71
     0
 72
   100
 73
     1
 74
     1
 75
     0
 76
     0
 77
     0
 78
     0
  0
ENDTAB
  0
TABLE
  2
LTYPE
 70
     4
  0
LTYPE
  2
CONTINUOUS
 70
     0
  3
Solid line
 72
    65
 73
     0
 40
0.0
  0
LTYPE
  2
PHANTOM
 70
     0
  3
Phantom ______  __  __  ______  __  __  ______
 72
    65
 73
     6
 40
63.5
 49
31.75
 49
-6.3499999999999988
 49
6.3499999999999988
 49
-6.3499999999999988
 49
6.3499999999999988
 49
-6.3499999999999988
  0
LTYPE
  2
DIVIDE2
 70
     0
  3
Divide (.5x) __..__..__..__..__..__..__..__.._
 72
    65
 73
     6
 40
15.875
 49
6.3499999999999988
 49
-3.1749999999999989
 49
0.0
 49
-3.1749999999999989
 49
0.0
 49
-3.1749999999999989
  0
LTYPE
  2
CENTER
 70
     0
  3
Center ____ _ ____ _ ____ _ ____ _ ____ _ ____
 72
    65
 73
     4
 40
50.799999999999997
 49
31.75
 49
-6.3499999999999988
 49
6.3499999999999988
 49
-6.3499999999999988
  0
ENDTAB
  0
TABLE
  2
LAYER
 70
    15
  0
LAYER
  2
0
 70
     0
 62
     7
  6
CONTINUOUS
  0
LAYER
  2
DEFPOINTS
 70
     0
 62
     7
  6
CONTINUOUS
  0
ENDTAB
  0
TABLE
  2
STYLE
 70
     5
  0
STYLE
  2
STANDARD
 70
     0
 40
0.0
 41
1.0
 50
0.0
 71
     0
 42
3.5
  3
txt
  4

  0
STYLE
  2
2_5
 70
     0
 40
2.5
 41
1.0
 50
0.0
 71
     0
 42
2.5
  3
txt
  4

  0
STYLE
  2
ARIAL
 70
     0
 40
0.0
 41
1.0
 50
0.0
 71
     0
 42
35.0
  3
txt
  4

  0
ENDTAB
  0
TABLE
  2
VIEW
 70
     5
  0
VIEW
  2
A
 70
     1
 40
27750.0
 10
17125.0
 20
13875.0
 41
34250.0
 11
0.0
 21
0.0
 31
1.0
 12
0.0
 22
0.0
 32
0.0
 42
50.0
 43
0.0
 44
0.0
 50
0.0
 71
     0
  0
VIEW
  2
MS-A
 70
     1
 40
27750.0
 10
17125.0
 20
13875.0
 41
34250.0
 11
0.0
 21
0.0
 31
1.0
 12
0.0
 22
0.0
 32
0.0
 42
50.0
 43
0.0
 44
0.0
 50
0.0
 71
     0
  0
VIEW
  2
PS-A
 70
     1
 40
560.0
 10
394.84013230429991
 20
280.0
 41
789.68026460859983
 11
0.0
 21
0.0
 31
1.0
 12
0.0
 22
0.0
 32
0.0
 42
50.0
 43
0.0
 44
0.0
 50
0.0
 71
     0
  0
VIEW
  2
VA
 70
     1
 40
560.0
 10
392.50000000000011
 20
280.0
 41
785.00000000000023
 11
0.0
 21
0.0
 31
1.0
 12
0.0
 22
0.0
 32
0.0
 42
50.0
 43
0.0
 44
0.0
 50
0.0
 71
     0
  0
ENDTAB
  0
TABLE
  2
UCS
 70
     0
  0
ENDTAB
  0
TABLE
  2
APPID
 70
    16
  0
APPID
  2
ACAD
 70
     0
  0
APPID
  2
CONTENTTABDATA
 70
     0
  0
APPID
  2
CONTENTCURRENTTAB
 70
     0
  0
APPID
  2
CONTENTBLOCKICON
 70
     0
  0
APPID
  2
CONTENTBLOCKDESCRIPTION
 70
     0
  0
APPID
  2
ACAD_MLEADERVER
 70
     0
  0
APPID
  2
ACAD_PSEXT
 70
     0
  0
APPID
  2
ACADANNOPO
 70
     0
  0
APPID
  2
ACAD_EXEMPT_FROM_CAD_STANDARDS
 70
     0
  0
APPID
  2
ACAD_DSTYLE_DIMEXT_ENABLED
 70
     0
  0
APPID
  2
ACAD_DSTYLE_DIMEXT_LENGTH
 70
     0
  0
APPID
  2
ACAD_NAV_VCDISPLAY
 70
     0
  0
APPID
  2
ACADANNOAV
 70
     0
  0
APPID
  2
ACAUTHENVIRON
 70
     0
  0
APPID
  2
ACDBDYNAMICBLOCKGUID
 70
     0
  0
APPID
  2
ACDBDYNAMICBLOCKTRUENAME
 70
     0
  0
ENDTAB
  0
TABLE
  2
DIMSTYLE
 70
     2
  0
DIMSTYLE
  2
1_TO_1_LEADER
 70
     0
  3

  4

  5
ARCHTICK
  6

  7

 40
1.0
 41
1.8
 42
1.8
 43
5.0
 44
1.8
 45
0.0
 46
1.8
 47
0.0
 48
0.0
140
2.0
141
1.8
142
0.0
143
0.0394
144
1.0
145
0.0
146
1.0
147
1.0
 71
     0
 72
     0
 73
     0
 74
     0
 75
     0
 76
     0
 77
     0
 78
     0
170
     0
171
     2
172
     1
173
     0
174
     1
175
     0
176
     0
177
     0
178
     0
  0
DIMSTYLE
  2
1_TO_1
 70
     0
  3
mm
  4
mm
  5

  6

  7

 40
1.0
 41
1.8
 42
1.8
 43
5.0
 44
1.8
 45
0.0
 46
1.8
 47
0.0
 48
0.0
140
2.0
141
1.8
142
0.0
143
0.0394
144
1.0
145
0.0
146
1.0
147
1.0
 71
     0
 72
     0
 73
     0
 74
     0
 75
     0
 76
     0
 77
     1
 78
     0
170
     0
171
     2
172
     0
173
     0
174
     0
175
     0
176
   256
177
   256
178
   256
  0
ENDTAB
  0
ENDSEC
  0
SECTION
  2
BLOCKS
  0
BLOCK
  8
0
  2
$MODEL_SPACE
 70
     0
 10
0.0
 20
0.0
 30
0.0
  3
$MODEL_SPACE
  1

  0
ENDBLK
  5
FFBBDAE469BA29CD
  8
0
  0
BLOCK
 67
     1
  8
0
  2
$PAPER_SPACE
 70
     0
 10
0.0
 20
0.0
 30
0.0
  3
$PAPER_SPACE
  1

  0
ENDBLK
  5
FFBBDAE469BC0449
 67
     1
  8
0
  0
BLOCK
  8
0
  2
_ARCHTICK
 70
     0
 10
0.0
 20
0.0
 30
0.0
  3
_ARCHTICK
  1

  0
POLYLINE
  5
FFBBDAE469BBFA21
  8
0
  6
BYBLOCK
 62
     0
 66
     1
 10
0.0
 20
0.0
 30
0.0
 40
0.15
 41
0.15
  0
VERTEX
  5
FFBBDAE469BC060D
  8
0
  6
BYBLOCK
 62
     0
 10
-0.5
 20
-0.5
 30
0.0
  0
VERTEX
  5
FFBBDAE469BC060E
  8
0
  6
BYBLOCK
 62
     0
 10
0.5
 20
0.5
 30
0.0
  0
SEQEND
  5
FFBBDAE469BC060F
  8
0
  6
BYBLOCK
 62
     0
  0
ENDBLK
  5
FFBBDAE469BBFA23
  8
0
  0
BLOCK
  8
0
  2
*U6
 70
     1
 10
0.0
 20
0.0
 30
0.0
  3
*U6
  1

  0
SOLID
  5
FFBBDAE469BC0542
  8
0
  6
CONTINUOUS
 10
9.6000522643657842
 20
-22.0
 30
0.0
 11
9.6000522643657842
 21
-22.280532654470271
 31
0.0
 12
16.197924773200331
 22
-22.280532654470271
 32
0.0
 13
16.197924773200331
 23
-22.280532654470271
 33
0.0
210
0.0
220
0.0
230
1.0
  0
SOLID
  5
FFBBDAE469BC0543
  8
0
  6
CONTINUOUS
 10
-9.6000522643657842
 20
-22.0
 30
0.0
 11
-15.86033760993814
 21
-22.0
 31
0.0
 12
-16.197924773200331
 22
-22.280532654470271
 32
0.0
 13
-16.197924773200331
 23
-22.280532654470271
 33
0.0
210
0.0
220
0.0
230
-1.0
  0
SOLID
  5
FFBBDAE469BC0544
  8
0
  6
CONTINUOUS
 10
1.3397669187893371
 20
-22.0
 30
0.0
 11
1.002179755533126
 21
-22.280532654470271
 31
0.0
 12
7.6000522643657851
 22
-22.280532654470271
 32
0.0
 13
7.6000522643657851
 23
-22.280532654470271
 33
0.0
210
0.0
220
0.0
230
1.0
  0
SOLID
  5
FFBBDAE469BC0545
  8
0
  6
CONTINUOUS
 10
-1.3397669187893371
 20
-22.0
 30
0.0
 11
-7.6000522643657851
 21
-22.0
 31
0.0
 12
-7.6000522643657851
 22
-22.280532654470271
 32
0.0
 13
-7.6000522643657851
 23
-22.280532654470271
 33
0.0
210
0.0
220
0.0
230
-1.0
  0
SOLID
  5
FFBBDAE469BC0546
  8
0
  6
CONTINUOUS
 10
9.6000522643657842
 20
-22.280532654470271
 30
0.0
 11
9.6000522643657842
 21
-22.719467345534341
 31
0.0
 12
16.197924773197968
 22
-22.719467345534341
 32
0.0
 13
16.197924773197968
 23
-22.719467345534341
 33
0.0
210
0.0
220
0.0
230
1.0
  0
SOLID
  5
FFBBDAE469BC0547
  8
0
  6
CONTINUOUS
 10
-9.6000522643657842
 20
-22.280532654470271
 30
0.0
 11
-16.197924773196569
 21
-22.280532654470271
 31
0.0
 12
-16.197924773197968
 22
-22.719467345534341
 32
0.0
 13
-16.197924773197968
 23
-22.719467345534341
 33
0.0
210
0.0
220
0.0
230
-1.0
  0
SOLID
  5
FFBBDAE469BC0548
  8
0
  6
CONTINUOUS
 10
1.002179755533126
 20
-22.280532654470271
 30
0.0
 11
1.00217975553612
 21
-22.719467345534341
 31
0.0
 12
7.6000522643657851
 22
-22.719467345534341
 32
0.0
 13
7.6000522643657851
 23
-22.719467345534341
 33
0.0
210
0.0
220
0.0
230
1.0
  0
SOLID
  5
FFBBDAE469BC0549
  8
0
  6
CONTINUOUS
 10
-1.002179755533126
 20
-22.280532654470271
 30
0.0
 11
-7.6000522643657851
 21
-22.280532654470271
 31
0.0
 12
-7.6000522643657851
 22
-22.719467345534341
 32
0.0
 13
-7.6000522643657851
 23
-22.719467345534341
 33
0.0
210
0.0
220
0.0
230
-1.0
  0
SOLID
  5
FFBBDAE469BC054A
  8
0
  6
CONTINUOUS
 10
9.6000522643657842
 20
-22.719467345534341
 30
0.0
 11
9.6000522643657842
 21
-23.000000000000231
 31
0.0
 12
15.86033760994132
 22
-23.000000000000231
 32
0.0
 13
15.86033760994132
 23
-23.000000000000231
 33
0.0
210
0.0
220
0.0
230
1.0
  0
SOLID
  5
FFBBDAE469BC054B
  8
0
  6
CONTINUOUS
 10
-9.6000522643657842
 20
-22.719467345534341
 30
0.0
 11
-16.197924773193879
 21
-22.719467345534341
 31
0.0
 12
-15.86033760994132
 22
-23.000000000000231
 32
0.0
 13
-15.86033760994132
 23
-23.000000000000231
 33
0.0
210
0.0
220
0.0
230
-1.0
  0
SOLID
  5
FFBBDAE469BC054C
  8
0
  6
CONTINUOUS
 10
1.00217975553612
 20
-22.719467345534341
 30
0.0
 11
1.339766918796431
 21
-23.000000000000231
 31
0.0
 12
7.6000522643657851
 22
-23.000000000000231
 32
0.0
 13
7.6000522643657851
 23
-23.000000000000231
 33
0.0
210
0.0
220
0.0
230
1.0
  0
SOLID
  5
FFBBDAE469BC054D
  8
0
  6
CONTINUOUS
 10
-1.00217975553612
 20
-22.719467345534341
 30
0.0
 11
-7.6000522643657851
 21
-22.719467345534341
 31
0.0
 12
-7.6000522643657851
 22
-23.000000000000231
 32
0.0
 13
-7.6000522643657851
 23
-23.000000000000231
 33
0.0
210
0.0
220
0.0
230
-1.0
  0
LINE
  5
FFBBDAE469BC054E
  8
0
  6
CONTINUOUS
 10
9.6000522643657842
 20
-22.0
 30
0.0
 11
9.6000522643657842
 21
-22.280532654470271
 31
0.0
  0
LINE
  5
FFBBDAE469BC054F
  8
0
  6
CONTINUOUS
 10
15.86033760993814
 20
-22.0
 30
0.0
 11
16.197924773200331
 21
-22.280532654470271
 31
0.0
  0
LINE
  5
FFBBDAE469BC0550
  8
0
  6
CONTINUOUS
 10
1.3397669187893371
 20
-22.0
 30
0.0
 11
1.002179755533126
 21
-22.280532654470271
 31
0.0
  0
LINE
  5
FFBBDAE469BC0551
  8
0
  6
CONTINUOUS
 10
7.6000522643657851
 20
-22.0
 30
0.0
 11
7.6000522643657851
 21
-22.280532654470271
 31
0.0
  0
LINE
  5
FFBBDAE469BC0552
  8
0
  6
CONTINUOUS
 10
9.6000522643657842
 20
-22.280532654470271
 30
0.0
 11
9.6000522643657842
 21
-22.719467345534341
 31
0.0
  0
LINE
  5
FFBBDAE469BC0553
  8
0
  6
CONTINUOUS
 10
16.197924773196569
 20
-22.280532654470271
 30
0.0
 11
16.197924773197968
 21
-22.719467345534341
 31
0.0
  0
LINE
  5
FFBBDAE469BC0554
  8
0
  6
CONTINUOUS
 10
1.002179755533126
 20
-22.280532654470271
 30
0.0
 11
1.00217975553612
 21
-22.719467345534341
 31
0.0
  0
LINE
  5
FFBBDAE469BC0555
  8
0
  6
CONTINUOUS
 10
7.6000522643657851
 20
-22.280532654470271
 30
0.0
 11
7.6000522643657851
 21
-22.719467345534341
 31
0.0
  0
LINE
  5
FFBBDAE469BC0556
  8
0
  6
CONTINUOUS
 10
9.6000522643657842
 20
-22.719467345534341
 30
0.0
 11
9.6000522643657842
 21
-23.000000000000231
 31
0.0
  0
LINE
  5
FFBBDAE469BC0557
  8
0
  6
CONTINUOUS
 10
16.197924773193879
 20
-22.719467345534341
 30
0.0
 11
15.86033760994132
 21
-23.000000000000231
 31
0.0
  0
LINE
  5
FFBBDAE469BC0558
  8
0
  6
CONTINUOUS
 10
1.00217975553612
 20
-22.719467345534341
 30
0.0
 11
1.339766918796431
 21
-23.000000000000231
 31
0.0
  0
LINE
  5
FFBBDAE469BC0559
  8
0
  6
CONTINUOUS
 10
7.6000522643657851
 20
-22.719467345534341
 30
0.0
 11
7.6000522643657851
 21
-23.000000000000231
 31
0.0
  0
ENDBLK
  5
FFBBDAE469BC055B
  8
0
  0
BLOCK
  8
0
  2
*U7
 70
     1
 10
0.0
 20
0.0
 30
0.0
  3
*U7
  1

  0
TEXT
  5
FFBBDAE469BC0584
  8
0
  6
CONTINUOUS
 10
-46.516944652081612
 20
-53.733288572247602
 30
0.0
 40
2.0
  1
Notes:
  7
2_5
  0
TEXT
  5
FFBBDAE469BC0585
  8
0
  6
CONTINUOUS
 10
-46.462425540195852
 20
-57.100728317586388
 30
0.0
 40
2.0
  1
·      
  7
2_5
  0
TEXT
  5
FFBBDAE469BC0586
  8
0
  6
CONTINUOUS
 10
-40.674393817052383
 20
-57.100728317586388
 30
0.0
 40
2.0
  1
Fix panel from the middle of the panel outwards.
  7
2_5
  0
ENDBLK
  5
FFBBDAE469BC0588
  8
0
  0
BLOCK
  8
0
  2
*U8
 70
     1
 10
0.0
 20
0.0
 30
0.0
  3
*U8
  1

  0
TEXT
  5
FFBBDAE469BC058A
  8
DEFPOINTS
  6
CONTINUOUS
 10
-71.183296039188164
 20
-123.6156868595141
 30
0.0
 40
4.0
  1
Intermediate Stud Fixing
  7
2_5
  0
ENDBLK
  5
FFBBDAE469BC058C
  8
0
  0
BLOCK
  8
0
  2
*U9
 70
     1
 10
0.0
 20
0.0
 30
0.0
  3
*U9
  1

  0
SOLID
  5
FFBBDAE469BC0591
  8
0
  6
CONTINUOUS
 10
9.8590631329490073
 20
-12.43971069709751
 30
0.0
 11
8.6000522643662425
 21
-13.760654160229249
 31
0.0
 12
9.3625943952531578
 22
-12.1027851971859
 32
0.0
 13
9.3625943952531578
 23
-12.1027851971859
 33
0.0
  0
POLYLINE
  8
0
  5
7FFFFFFF
  66
     1
 10
0.000000
 20
0.000000
 30
0.000000
  70
     8
  0
VERTEX
  8
0
  5
80000000
 10
9.61083
 20
-12.2712
 30
0.000000
  70
    32
  0
VERTEX
  8
0
  5
80000001
 10
9.85879
 20
-11.9008
 30
0.000000
  70
    32
  0
VERTEX
  8
0
  5
80000002
 10
10.1038
 20
-11.5246
 30
0.000000
  70
    32
  0
VERTEX
  8
0
  5
80000003
 10
10.3458
 20
-11.1429
 30
0.000000
  70
    32
  0
VERTEX
  8
0
  5
80000004
 10
10.5850
 20
-10.7559
 30
0.000000
  70
    32
  0
VERTEX
  8
0
  5
80000005
 10
10.8214
 20
-10.3636
 30
0.000000
  70
    32
  0
VERTEX
  8
0
  5
80000006
 10
11.0551
 20
-9.96622
 30
0.000000
  70
    32
  0
VERTEX
  8
0
  5
80000007
 10
11.2862
 20
-9.56386
 30
0.000000
  70
    32
  0
VERTEX
  8
0
  5
80000008
 10
11.5147
 20
-9.15667
 30
0.000000
  70
    32
  0
VERTEX
  8
0
  5
80000009
 10
11.7408
 20
-8.74478
 30
0.000000
  70
    32
  0
VERTEX
  8
0
  5
8000000A
 10
11.9644
 20
-8.32833
 30
0.000000
  70
    32
  0
VERTEX
  8
0
  5
8000000B
 10
12.1857
 20
-7.90746
 30
0.000000
  70
    32
  0
VERTEX
  8
0
  5
8000000C
 10
12.4047
 20
-7.48231
 30
0.000000
  70
    32
  0
VERTEX
  8
0
  5
8000000D
 10
12.6215
 20
-7.05301
 30
0.000000
  70
    32
  0
VERTEX
  8
0
  5
8000000E
 10
12.8361
 20
-6.61970
 30
0.000000
  70
    32
  0
VERTEX
  8
0
  5
8000000F
 10
13.0488
 20
-6.18251
 30
0.000000
  70
    32
  0
VERTEX
  8
0
  5
80000010
 10
13.2594
 20
-5.74158
 30
0.000000
  70
    32
  0
VERTEX
  8
0
  5
80000011
 10
13.4681
 20
-5.29706
 30
0.000000
  70
    32
  0
VERTEX
  8
0
  5
80000012
 10
13.6750
 20
-4.84906
 30
0.000000
  70
    32
  0
VERTEX
  8
0
  5
80000013
 10
13.8802
 20
-4.39775
 30
0.000000
  70
    32
  0
VERTEX
  8
0
  5
80000014
 10
14.0836
 20
-3.94324
 30
0.000000
  70
    32
  0
VERTEX
  8
0
  5
80000015
 10
14.2854
 20
-3.48567
 30
0.000000
  70
    32
  0
VERTEX
  8
0
  5
80000016
 10
14.4857
 20
-3.02519
 30
0.000000
  70
    32
  0
VERTEX
  8
0
  5
80000017
 10
14.6845
 20
-2.56193
 30
0.000000
  70
    32
  0
VERTEX
  8
0
  5
80000018
 10
14.8819
 20
-2.09602
 30
0.000000
  70
    32
  0
VERTEX
  8
0
  5
80000019
 10
15.0780
 20
-1.62761
 30
0.000000
  70
    32
  0
VERTEX
  8
0
  5
8000001A
 10
15.2728
 20
-1.15682
 30
0.000000
  70
    32
  0
VERTEX
  8
0
  5
8000001B
 10
15.4665
 20
-0.683804
 30
0.000000
  70
    32
  0
VERTEX
  8
0
  5
8000001C
 10
15.6590
 20
-0.208690
 30
0.000000
  70
    32
  0
VERTEX
  8
0
  5
8000001D
 10
15.8505
 20
0.268385
 30
0.000000
  70
    32
  0
VERTEX
  8
0
  5
8000001E
 10
16.0410
 20
0.747284
 30
0.000000
  70
    32
  0
VERTEX
  8
0
  5
8000001F
 10
16.2307
 20
1.22787
 30
0.000000
  70
    32
  0
VERTEX
  8
0
  5
80000020
 10
16.4195
 20
1.71000
 30
0.000000
  70
    32
  0
VERTEX
  8
0
  5
80000021
 10
16.6075
 20
2.19355
 30
0.000000
  70
    32
  0
VERTEX
  8
0
  5
80000022
 10
16.7949
 20
2.67838
 30
0.000000
  70
    32
  0
VERTEX
  8
0
  5
80000023
 10
16.9817
 20
3.16434
 30
0.000000
  70
    32
  0
VERTEX
  8
0
  5
80000024
 10
17.1679
 20
3.65131
 30
0.000000
  70
    32
  0
VERTEX
  8
0
  5
80000025
 10
17.3537
 20
4.13914
 30
0.000000
  70
    32
  0
VERTEX
  8
0
  5
80000026
 10
17.5391
 20
4.62770
 30
0.000000
  70
    32
  0
VERTEX
  8
0
  5
80000027
 10
17.7242
 20
5.11686
 30
0.000000
  70
    32
  0
VERTEX
  8
0
  5
80000028
 10
17.9091
 20
5.60647
 30
0.000000
  70
    32
  0
VERTEX
  8
0
  5
80000029
 10
18.0937
 20
6.09640
 30
0.000000
  70
    32
  0
VERTEX
  8
0
  5
8000002A
 10
18.2783
 20
6.58651
 30
0.000000
  70
    32
  0
VERTEX
  8
0
  5
8000002B
 10
18.4629
 20
7.07667
 30
0.000000
  70
    32
  0
VERTEX
  8
0
  5
8000002C
 10
18.6475
 20
7.56674
 30
0.000000
  70
    32
  0
VERTEX
  8
0
  5
8000002D
 10
18.8322
 20
8.05657
 30
0.000000
  70
    32
  0
VERTEX
  8
0
  5
8000002E
 10
19.0171
 20
8.54605
 30
0.000000
  70
    32
  0
VERTEX
  8
0
  5
8000002F
 10
19.2023
 20
9.03502
 30
0.000000
  70
    32
  0
VERTEX
  8
0
  5
80000030
 10
19.3878
 20
9.52336
 30
0.000000
  70
    32
  0
VERTEX
  8
0
  5
80000031
 10
19.5738
 20
10.0109
 30
0.000000
  70
    32
  0
VERTEX
  8
0
  5
80000032
 10
19.7602
 20
10.4976
 30
0.000000
  70
    32
  0
VERTEX
  8
0
  5
80000033
 10
19.9471
 20
10.9832
 30
0.000000
  70
    32
  0
VERTEX
  8
0
  5
80000034
 10
20.1347
 20
11.4676
 30
0.000000
  70
    32
  0
VERTEX
  8
0
  5
80000035
 10
20.3230
 20
11.9507
 30
0.000000
  70
    32
  0
VERTEX
  8
0
  5
80000036
 10
20.5121
 20
12.4323
 30
0.000000
  70
    32
  0
VERTEX
  8
0
  5
80000037
 10
20.7020
 20
12.9123
 30
0.000000
  70
    32
  0
VERTEX
  8
0
  5
80000038
 10
20.8929
 20
13.3906
 30
0.000000
  70
    32
  0
VERTEX
  8
0
  5
80000039
 10
21.0847
 20
13.8671
 30
0.000000
  70
    32
  0
VERTEX
  8
0
  5
8000003A
 10
21.2776
 20
14.3415
 30
0.000000
  70
    32
  0
VERTEX
  8
0
  5
8000003B
 10
21.4716
 20
14.8138
 30
0.000000
  70
    32
  0
VERTEX
  8
0
  5
8000003C
 10
21.6668
 20
15.2838
 30
0.000000
  70
    32
  0
VERTEX
  8
0
  5
8000003D
 10
21.8634
 20
15.7514
 30
0.000000
  70
    32
  0
VERTEX
  8
0
  5
8000003E
 10
22.0612
 20
16.2164
 30
0.000000
  70
    32
  0
VERTEX
  8
0
  5
8000003F
 10
22.2605
 20
16.6788
 30
0.000000
  70
    32
  0
VERTEX
  8
0
  5
80000040
 10
22.4613
 20
17.1383
 30
0.000000
  70
    32
  0
VERTEX
  8
0
  5
80000041
 10
22.6637
 20
17.5949
 30
0.000000
  70
    32
  0
VERTEX
  8
0
  5
80000042
 10
22.8677
 20
18.0483
 30
0.000000
  70
    32
  0
VERTEX
  8
0
  5
80000043
 10
23.0734
 20
18.4986
 30
0.000000
  70
    32
  0
VERTEX
  8
0
  5
80000044
 10
23.2809
 20
18.9454
 30
0.000000
  70
    32
  0
VERTEX
  8
0
  5
80000045
 10
23.4903
 20
19.3888
 30
0.000000
  70
    32
  0
VERTEX
  8
0
  5
80000046
 10
23.7015
 20
19.8285
 30
0.000000
  70
    32
  0
VERTEX
  8
0
  5
80000047
 10
23.9148
 20
20.2644
 30
0.000000
  70
    32
  0
VERTEX
  8
0
  5
80000048
 10
24.1302
 20
20.6964
 30
0.000000
  70
    32
  0
VERTEX
  8
0
  5
80000049
 10
24.3478
 20
21.1243
 30
0.000000
  70
    32
  0
VERTEX
  8
0
  5
8000004A
 10
24.5675
 20
21.5480
 30
0.000000
  70
    32
  0
VERTEX
  8
0
  5
8000004B
 10
24.7896
 20
21.9674
 30
0.000000
  70
    32
  0
VERTEX
  8
0
  5
8000004C
 10
25.0140
 20
22.3824
 30
0.000000
  70
    32
  0
VERTEX
  8
0
  5
8000004D
 10
25.2408
 20
22.7927
 30
0.000000
  70
    32
  0
VERTEX
  8
0
  5
8000004E
 10
25.4702
 20
23.1983
 30
0.000000
  70
    32
  0
VERTEX
  8
0
  5
8000004F
 10
25.7021
 20
23.5990
 30
0.000000
  70
    32
  0
VERTEX
  8
0
  5
80000050
 10
25.9367
 20
23.9947
 30
0.000000
  70
    32
  0
VERTEX
  8
0
  5
80000051
 10
26.1741
 20
24.3853
 30
0.000000
  70
    32
  0
VERTEX
  8
0
  5
80000052
 10
26.4142
 20
24.7706
 30
0.000000
  70
    32
  0
VERTEX
  8
0
  5
80000053
 10
26.6572
 20
25.1504
 30
0.000000
  70
    32
  0
VERTEX
  8
0
  5
80000054
 10
26.9032
 20
25.5247
 30
0.000000
  70
    32
  0
VERTEX
  8
0
  5
80000055
 10
27.1522
 20
25.8933
 30
0.000000
  70
    32
  0
VERTEX
  8
0
  5
80000056
 10
27.4042
 20
26.2560
 30
0.000000
  70
    32
  0
VERTEX
  8
0
  5
80000057
 10
27.6595
 20
26.6128
 30
0.000000
  70
    32
  0
VERTEX
  8
0
  5
80000058
 10
27.9179
 20
26.9635
 30
0.000000
  70
    32
  0
VERTEX
  8
0
  5
80000059
 10
28.1797
 20
27.3079
 30
0.000000
  70
    32
  0
VERTEX
  8
0
  5
8000005A
 10
28.4449
 20
27.6459
 30
0.000000
  70
    32
  0
VERTEX
  8
0
  5
8000005B
 10
28.7135
 20
27.9774
 30
0.000000
  70
    32
  0
VERTEX
  8
0
  5
8000005C
 10
28.9856
 20
28.3023
 30
0.000000
  70
    32
  0
VERTEX
  8
0
  5
8000005D
 10
29.2614
 20
28.6204
 30
0.000000
  70
    32
  0
VERTEX
  8
0
  5
8000005E
 10
29.5408
 20
28.9315
 30
0.000000
  70
    32
  0
VERTEX
  8
0
  5
8000005F
 10
29.8240
 20
29.2356
 30
0.000000
  70
    32
  0
VERTEX
  8
0
  5
80000060
 10
30.1109
 20
29.5325
 30
0.000000
  70
    32
  0
VERTEX
  8
0
  5
80000061
 10
30.4018
 20
29.8220
 30
0.000000
  70
    32
  0
VERTEX
  8
0
  5
80000062
 10
30.6966
 20
30.1041
 30
0.000000
  70
    32
  0
VERTEX
  8
0
  5
80000063
 10
30.9955
 20
30.3785
 30
0.000000
  70
    32
  0
VERTEX
  8
0
  5
80000064
 10
31.2984
 20
30.6452
 30
0.000000
  70
    32
  0
VERTEX
  8
0
  5
80000065
 10
31.6056
 20
30.9040
 30
0.000000
  70
    32
  0
VERTEX
  8
0
  5
80000066
 10
31.9170
 20
31.1548
 30
0.000000
  70
    32
  0
VERTEX
  8
0
  5
80000067
 10
32.2327
 20
31.3974
 30
0.000000
  70
    32
  0
VERTEX
  8
0
  5
80000068
 10
32.5528
 20
31.6318
 30
0.000000
  70
    32
  0
VERTEX
  8
0
  5
80000069
 10
32.8774
 20
31.8577
 30
0.000000
  70
    32
  0
VERTEX
  8
0
  5
8000006A
 10
33.2065
 20
32.0750
 30
0.000000
  70
    32
  0
VERTEX
  8
0
  5
8000006B
 10
33.5403
 20
32.2836
 30
0.000000
  70
    32
  0
VERTEX
  8
0
  5
8000006C
 10
33.8787
 20
32.4834
 30
0.000000
  70
    32
  0
VERTEX
  8
0
  5
8000006D
 10
34.2219
 20
32.6742
 30
0.000000
  70
    32
  0
VERTEX
  8
0
  5
8000006E
 10
34.5699
 20
32.8559
 30
0.000000
  70
    32
  0
VERTEX
  8
0
  5
8000006F
 10
34.9228
 20
33.0283
 30
0.000000
  70
    32
  0
VERTEX
  8
0
  5
80000070
 10
35.2807
 20
33.1913
 30
0.000000
  70
    32
  0
VERTEX
  8
0
  5
80000071
 10
35.6437
 20
33.3449
 30
0.000000
  70
    32
  0
VERTEX
  8
0
  5
80000072
 10
36.0117
 20
33.4887
 30
0.000000
  70
    32
  0
VERTEX
  8
0
  5
80000073
 10
36.3850
 20
33.6227
 30
0.000000
  70
    32
  0
VERTEX
  8
0
  5
80000074
 10
36.7635
 20
33.7468
 30
0.000000
  70
    32
  0
VERTEX
  8
0
  5
80000075
 10
37.1474
 20
33.8609
 30
0.000000
  70
    32
  0
VERTEX
  8
0
  5
80000076
 10
37.5366
 20
33.9647
 30
0.000000
  70
    32
  0
VERTEX
  8
0
  5
80000077
 10
37.9314
 20
34.0582
 30
0.000000
  70
    32
  0
VERTEX
  8
0
  5
80000078
 10
38.3317
 20
34.1412
 30
0.000000
  70
    32
  0
VERTEX
  8
0
  5
80000079
 10
38.7376
 20
34.2135
 30
0.000000
  70
    32
  0
VERTEX
  8
0
  5
8000007A
 10
39.1493
 20
34.2751
 30
0.000000
  70
    32
  0
VERTEX
  8
0
  5
8000007B
 10
39.5667
 20
34.3259
 30
0.000000
  70
    32
  0
VERTEX
  8
0
  5
8000007C
 10
39.9900
 20
34.3655
 30
0.000000
  70
    32
  0
VERTEX
  8
0
  5
8000007D
 10
40.4191
 20
34.3940
 30
0.000000
  70
    32
  0
VERTEX
  8
0
  5
8000007E
 10
40.8543
 20
34.4113
 30
0.000000
  70
    32
  0
VERTEX
  8
0
  5
8000007F
 10
41.2955
 20
34.4170
 30
0.000000
  70
    32
  0
SEQEND
  8
0
  5
80000080
  0
ENDBLK
  5
FFBBDAE469BC0594
  8
0
  0
BLOCK
  8
0
  2
*U10
 70
     1
 10
0.0
 20
0.0
 30
0.0
  3
*U10
  1

  0
TEXT
  5
FFBBDAE469BC0596
  8
0
  6
CONTINUOUS
 10
42.156385736942937
 20
35.08300609001347
 30
0.0
 40
2.0
  1
C - 25mm 'T' head stainless steel brad
  7
ARIAL
  0
TEXT
  5
FFBBDAE469BC0597
  8
0
  6
CONTINUOUS
 10
42.11136527309575
 20
31.74967275668013
 30
0.0
 40
2.0
  1
nail
  7
ARIAL
  0
ENDBLK
  5
FFBBDAE469BC0599
  8
0
  0
BLOCK
  8
0
  2
*U11
 70
     1
 10
0.0
 20
0.0
 30
0.0
  3
*U11
  1

  0
SOLID
  5
FFBBDAE469BC059B
  8
0
  6
CONTINUOUS
 10
13.426095161241459
 20
-21.295385202047999
 30
0.0
 11
12.188533121645831
 21
-22.636444558732819
 31
0.0
 12
12.924261746122299
 22
-20.966503424702651
 32
0.0
 13
12.924261746122299
 23
-20.966503424702651
 33
0.0
  0
POLYLINE
  8
0
  5
80000081
  66
     1
 10
0.000000
 20
0.000000
 30
0.000000
  70
     8
  0
VERTEX
  8
0
  5
80000082
 10
13.1752
 20
-21.1309
 30
0.000000
  70
    32
  0
VERTEX
  8
0
  5
80000083
 10
13.3952
 20
-20.7904
 30
0.000000
  70
    32
  0
VERTEX
  8
0
  5
80000084
 10
13.6124
 20
-20.4448
 30
0.000000
  70
    32
  0
VERTEX
  8
0
  5
80000085
 10
13.8268
 20
-20.0940
 30
0.000000
  70
    32
  0
VERTEX
  8
0
  5
80000086
 10
14.0386
 20
-19.7383
 30
0.000000
  70
    32
  0
VERTEX
  8
0
  5
80000087
 10
14.2478
 20
-19.3778
 30
0.000000
  70
    32
  0
VERTEX
  8
0
  5
80000088
 10
14.4544
 20
-19.0125
 30
0.000000
  70
    32
  0
VERTEX
  8
0
  5
80000089
 10
14.6586
 20
-18.6428
 30
0.000000
  70
    32
  0
VERTEX
  8
0
  5
8000008A
 10
14.8604
 20
-18.2685
 30
0.000000
  70
    32
  0
VERTEX
  8
0
  5
8000008B
 10
15.0598
 20
-17.8900
 30
0.000000
  70
    32
  0
VERTEX
  8
0
  5
8000008C
 10
15.2570
 20
-17.5073
 30
0.000000
  70
    32
  0
VERTEX
  8
0
  5
8000008D
 10
15.4520
 20
-17.1205
 30
0.000000
  70
    32
  0
VERTEX
  8
0
  5
8000008E
 10
15.6448
 20
-16.7297
 30
0.000000
  70
    32
  0
VERTEX
  8
0
  5
8000008F
 10
15.8356
 20
-16.3352
 30
0.000000
  70
    32
  0
VERTEX
  8
0
  5
80000090
 10
16.0244
 20
-15.9370
 30
0.000000
  70
    32
  0
VERTEX
  8
0
  5
80000091
 10
16.2113
 20
-15.5352
 30
0.000000
  70
    32
  0
VERTEX
  8
0
  5
80000092
 10
16.3963
 20
-15.1299
 30
0.000000
  70
    32
  0
VERTEX
  8
0
  5
80000093
 10
16.5796
 20
-14.7214
 30
0.000000
  70
    32
  0
VERTEX
  8
0
  5
80000094
 10
16.7611
 20
-14.3097
 30
0.000000
  70
    32
  0
VERTEX
  8
0
  5
80000095
 10
16.9409
 20
-13.8949
 30
0.000000
  70
    32
  0
VERTEX
  8
0
  5
80000096
 10
17.1192
 20
-13.4772
 30
0.000000
  70
    32
  0
VERTEX
  8
0
  5
80000097
 10
17.2960
 20
-13.0567
 30
0.000000
  70
    32
  0
VERTEX
  8
0
  5
80000098
 10
17.4713
 20
-12.6335
 30
0.000000
  70
    32
  0
VERTEX
  8
0
  5
80000099
 10
17.6452
 20
-12.2077
 30
0.000000
  70
    32
  0
VERTEX
  8
0
  5
8000009A
 10
17.8179
 20
-11.7795
 30
0.000000
  70
    32
  0
VERTEX
  8
0
  5
8000009B
 10
17.9892
 20
-11.3490
 30
0.000000
  70
    32
  0
VERTEX
  8
0
  5
8000009C
 10
18.1594
 20
-10.9164
 30
0.000000
  70
    32
  0
VERTEX
  8
0
  5
8000009D
 10
18.3285
 20
-10.4817
 30
0.000000
  70
    32
  0
VERTEX
  8
0
  5
8000009E
 10
18.4966
 20
-10.0450
 30
0.000000
  70
    32
  0
VERTEX
  8
0
  5
8000009F
 10
18.6636
 20
-9.60656
 30
0.000000
  70
    32
  0
VERTEX
  8
0
  5
800000A0
 10
18.8298
 20
-9.16644
 30
0.000000
  70
    32
  0
VERTEX
  8
0
  5
800000A1
 10
18.9951
 20
-8.72476
 30
0.000000
  70
    32
  0
VERTEX
  8
0
  5
800000A2
 10
19.1597
 20
-8.28166
 30
0.000000
  70
    32
  0
VERTEX
  8
0
  5
800000A3
 10
19.3236
 20
-7.83726
 30
0.000000
  70
    32
  0
VERTEX
  8
0
  5
800000A4
 10
19.4868
 20
-7.39169
 30
0.000000
  70
    32
  0
VERTEX
  8
0
  5
800000A5
 10
19.6495
 20
-6.94507
 30
0.000000
  70
    32
  0
VERTEX
  8
0
  5
800000A6
 10
19.8116
 20
-6.49753
 30
0.000000
  70
    32
  0
VERTEX
  8
0
  5
800000A7
 10
19.9734
 20
-6.04919
 30
0.000000
  70
    32
  0
VERTEX
  8
0
  5
800000A8
 10
20.1347
 20
-5.60019
 30
0.000000
  70
    32
  0
VERTEX
  8
0
  5
800000A9
 10
20.2958
 20
-5.15064
 30
0.000000
  70
    32
  0
VERTEX
  8
0
  5
800000AA
 10
20.4567
 20
-4.70067
 30
0.000000
  70
    32
  0
VERTEX
  8
0
  5
800000AB
 10
20.6174
 20
-4.25040
 30
0.000000
  70
    32
  0
VERTEX
  8
0
  5
800000AC
 10
20.7780
 20
-3.79997
 30
0.000000
  70
    32
  0
VERTEX
  8
0
  5
800000AD
 10
20.9385
 20
-3.34950
 30
0.000000
  70
    32
  0
VERTEX
  8
0
  5
800000AE
 10
21.0992
 20
-2.89911
 30
0.000000
  70
    32
  0
VERTEX
  8
0
  5
800000AF
 10
21.2599
 20
-2.44893
 30
0.000000
  70
    32
  0
VERTEX
  8
0
  5
800000B0
 10
21.4208
 20
-1.99908
 30
0.000000
  70
    32
  0
VERTEX
  8
0
  5
800000B1
 10
21.5820
 20
-1.54970
 30
0.000000
  70
    32
  0
VERTEX
  8
0
  5
800000B2
 10
21.7435
 20
-1.10090
 30
0.000000
  70
    32
  0
VERTEX
  8
0
  5
800000B3
 10
21.9054
 20
-0.652816
 30
0.000000
  70
    32
  0
VERTEX
  8
0
  5
800000B4
 10
22.0677
 20
-0.205569
 30
0.000000
  70
    32
  0
VERTEX
  8
0
  5
800000B5
 10
22.2305
 20
0.240715
 30
0.000000
  70
    32
  0
VERTEX
  8
0
  5
800000B6
 10
22.3940
 20
0.685909
 30
0.000000
  70
    32
  0
VERTEX
  8
0
  5
800000B7
 10
22.5580
 20
1.12989
 30
0.000000
  70
    32
  0
VERTEX
  8
0
  5
800000B8
 10
22.7229
 20
1.57253
 30
0.000000
  70
    32
  0
VERTEX
  8
0
  5
800000B9
 10
22.8885
 20
2.01370
 30
0.000000
  70
    32
  0
VERTEX
  8
0
  5
800000BA
 10
23.0549
 20
2.45328
 30
0.000000
  70
    32
  0
VERTEX
  8
0
  5
800000BB
 10
23.2223
 20
2.89114
 30
0.000000
  70
    32
  0
VERTEX
  8
0
  5
800000BC
 10
23.3907
 20
3.32716
 30
0.000000
  70
    32
  0
VERTEX
  8
0
  5
800000BD
 10
23.5602
 20
3.76121
 30
0.000000
  70
    32
  0
VERTEX
  8
0
  5
800000BE
 10
23.7307
 20
4.19317
 30
0.000000
  70
    32
  0
VERTEX
  8
0
  5
800000BF
 10
23.9025
 20
4.62290
 30
0.000000
  70
    32
  0
VERTEX
  8
0
  5
800000C0
 10
24.0756
 20
5.05029
 30
0.000000
  70
    32
  0
VERTEX
  8
0
  5
800000C1
 10
24.2500
 20
5.47521
 30
0.000000
  70
    32
  0
VERTEX
  8
0
  5
800000C2
 10
24.4258
 20
5.89753
 30
0.000000
  70
    32
  0
VERTEX
  8
0
  5
800000C3
 10
24.6030
 20
6.31713
 30
0.000000
  70
    32
  0
VERTEX
  8
0
  5
800000C4
 10
24.7818
 20
6.73388
 30
0.000000
  70
    32
  0
VERTEX
  8
0
  5
800000C5
 10
24.9622
 20
7.14765
 30
0.000000
  70
    32
  0
VERTEX
  8
0
  5
800000C6
 10
25.1443
 20
7.55832
 30
0.000000
  70
    32
  0
VERTEX
  8
0
  5
800000C7
 10
25.3281
 20
7.96577
 30
0.000000
  70
    32
  0
VERTEX
  8
0
  5
800000C8
 10
25.5138
 20
8.36987
 30
0.000000
  70
    32
  0
VERTEX
  8
0
  5
800000C9
 10
25.7013
 20
8.77048
 30
0.000000
  70
    32
  0
VERTEX
  8
0
  5
800000CA
 10
25.8907
 20
9.16750
 30
0.000000
  70
    32
  0
VERTEX
  8
0
  5
800000CB
 10
26.0822
 20
9.56079
 30
0.000000
  70
    32
  0
VERTEX
  8
0
  5
800000CC
 10
26.2758
 20
9.95022
 30
0.000000
  70
    32
  0
VERTEX
  8
0
  5
800000CD
 10
26.4715
 20
10.3357
 30
0.000000
  70
    32
  0
VERTEX
  8
0
  5
800000CE
 10
26.6694
 20
10.7170
 30
0.000000
  70
    32
  0
VERTEX
  8
0
  5
800000CF
 10
26.8696
 20
11.0941
 30
0.000000
  70
    32
  0
VERTEX
  8
0
  5
800000D0
 10
27.0722
 20
11.4669
 30
0.000000
  70
    32
  0
VERTEX
  8
0
  5
800000D1
 10
27.2772
 20
11.8352
 30
0.000000
  70
    32
  0
VERTEX
  8
0
  5
800000D2
 10
27.4847
 20
12.1988
 30
0.000000
  70
    32
  0
VERTEX
  8
0
  5
800000D3
 10
27.6947
 20
12.5578
 30
0.000000
  70
    32
  0
VERTEX
  8
0
  5
800000D4
 10
27.9074
 20
12.9118
 30
0.000000
  70
    32
  0
VERTEX
  8
0
  5
800000D5
 10
28.1227
 20
13.2609
 30
0.000000
  70
    32
  0
VERTEX
  8
0
  5
800000D6
 10
28.3408
 20
13.6049
 30
0.000000
  70
    32
  0
VERTEX
  8
0
  5
800000D7
 10
28.5618
 20
13.9436
 30
0.000000
  70
    32
  0
VERTEX
  8
0
  5
800000D8
 10
28.7856
 20
14.2770
 30
0.000000
  70
    32
  0
VERTEX
  8
0
  5
800000D9
 10
29.0124
 20
14.6049
 30
0.000000
  70
    32
  0
VERTEX
  8
0
  5
800000DA
 10
29.2423
 20
14.9272
 30
0.000000
  70
    32
  0
VERTEX
  8
0
  5
800000DB
 10
29.4752
 20
15.2437
 30
0.000000
  70
    32
  0
VERTEX
  8
0
  5
800000DC
 10
29.7113
 20
15.5544
 30
0.000000
  70
    32
  0
VERTEX
  8
0
  5
800000DD
 10
29.9507
 20
15.8591
 30
0.000000
  70
    32
  0
VERTEX
  8
0
  5
800000DE
 10
30.1933
 20
16.1576
 30
0.000000
  70
    32
  0
VERTEX
  8
0
  5
800000DF
 10
30.4393
 20
16.4500
 30
0.000000
  70
    32
  0
VERTEX
  8
0
  5
800000E0
 10
30.6888
 20
16.7359
 30
0.000000
  70
    32
  0
VERTEX
  8
0
  5
800000E1
 10
30.9418
 20
17.0154
 30
0.000000
  70
    32
  0
VERTEX
  8
0
  5
800000E2
 10
31.1983
 20
17.2882
 30
0.000000
  70
    32
  0
VERTEX
  8
0
  5
800000E3
 10
31.4585
 20
17.5543
 30
0.000000
  70
    32
  0
VERTEX
  8
0
  5
800000E4
 10
31.7224
 20
17.8135
 30
0.000000
  70
    32
  0
VERTEX
  8
0
  5
800000E5
 10
31.9901
 20
18.0658
 30
0.000000
  70
    32
  0
VERTEX
  8
0
  5
800000E6
 10
32.2616
 20
18.3109
 30
0.000000
  70
    32
  0
VERTEX
  8
0
  5
800000E7
 10
32.5371
 20
18.5487
 30
0.000000
  70
    32
  0
VERTEX
  8
0
  5
800000E8
 10
32.8165
 20
18.7792
 30
0.000000
  70
    32
  0
VERTEX
  8
0
  5
800000E9
 10
33.1000
 20
19.0022
 30
0.000000
  70
    32
  0
VERTEX
  8
0
  5
800000EA
 10
33.3876
 20
19.2175
 30
0.000000
  70
    32
  0
VERTEX
  8
0
  5
800000EB
 10
33.6794
 20
19.4252
 30
0.000000
  70
    32
  0
VERTEX
  8
0
  5
800000EC
 10
33.9754
 20
19.6249
 30
0.000000
  70
    32
  0
VERTEX
  8
0
  5
800000ED
 10
34.2758
 20
19.8166
 30
0.000000
  70
    32
  0
VERTEX
  8
0
  5
800000EE
 10
34.5805
 20
20.0002
 30
0.000000
  70
    32
  0
VERTEX
  8
0
  5
800000EF
 10
34.8898
 20
20.1756
 30
0.000000
  70
    32
  0
VERTEX
  8
0
  5
800000F0
 10
35.2035
 20
20.3425
 30
0.000000
  70
    32
  0
VERTEX
  8
0
  5
800000F1
 10
35.5218
 20
20.5010
 30
0.000000
  70
    32
  0
VERTEX
  8
0
  5
800000F2
 10
35.8448
 20
20.6508
 30
0.000000
  70
    32
  0
VERTEX
  8
0
  5
800000F3
 10
36.1726
 20
20.7919
 30
0.000000
  70
    32
  0
VERTEX
  8
0
  5
800000F4
 10
36.5051
 20
20.9241
 30
0.000000
  70
    32
  0
VERTEX
  8
0
  5
800000F5
 10
36.8425
 20
21.0473
 30
0.000000
  70
    32
  0
VERTEX
  8
0
  5
800000F6
 10
37.1848
 20
21.1614
 30
0.000000
  70
    32
  0
VERTEX
  8
0
  5
800000F7
 10
37.5322
 20
21.2662
 30
0.000000
  70
    32
  0
VERTEX
  8
0
  5
800000F8
 10
37.8846
 20
21.3616
 30
0.000000
  70
    32
  0
VERTEX
  8
0
  5
800000F9
 10
38.2421
 20
21.4475
 30
0.000000
  70
    32
  0
VERTEX
  8
0
  5
800000FA
 10
38.6049
 20
21.5238
 30
0.000000
  70
    32
  0
VERTEX
  8
0
  5
800000FB
 10
38.9729
 20
21.5903
 30
0.000000
  70
    32
  0
VERTEX
  8
0
  5
800000FC
 10
39.3462
 20
21.6469
 30
0.000000
  70
    32
  0
VERTEX
  8
0
  5
800000FD
 10
39.7250
 20
21.6935
 30
0.000000
  70
    32
  0
VERTEX
  8
0
  5
800000FE
 10
40.1093
 20
21.7300
 30
0.000000
  70
    32
  0
VERTEX
  8
0
  5
800000FF
 10
40.4990
 20
21.7562
 30
0.000000
  70
    32
  0
VERTEX
  8
0
  5
80000100
 10
40.8945
 20
21.7720
 30
0.000000
  70
    32
  0
VERTEX
  8
0
  5
80000101
 10
41.2955
 20
21.7773
 30
0.000000
  70
    32
  0
SEQEND
  8
0
  5
80000102
  0
ENDBLK
  5
FFBBDAE469BC059E
  8
0
  0
BLOCK
  8
0
  2
*U12
 70
     1
 10
0.0
 20
0.0
 30
0.0
  3
*U12
  1

  0
TEXT
  5
FFBBDAE469BC05A0
  8
0
  6
CONTINUOUS
 10
42.29553989792521
 20
24.12699640031002
 30
0.0
 40
2.0
  1
Apply continuous 6mm bead of Seal n
  7
ARIAL
  0
TEXT
  5
FFBBDAE469BC05A1
  8
0
  6
CONTINUOUS
 10
42.066344809248541
 20
20.759556654971231
 30
0.0
 40
2.0
  1
Flex -1 or Sikaflex 11FC adhesive
  7
ARIAL
  0
TEXT
  5
FFBBDAE469BC05A2
  8
0
  6
CONTINUOUS
 10
42.209591739671467
 20
17.426223321637892
 30
0.0
 40
2.0
  1
sealant
  7
ARIAL
  0
ENDBLK
  5
FFBBDAE469BC05A4
  8
0
  0
BLOCK
  8
0
  2
*U13
 70
     1
 10
0.0
 20
0.0
 30
0.0
  3
*U13
  1

  0
SOLID
  5
FFBBDAE469BC05A6
  8
0
  6
CONTINUOUS
 10
37.969534917157141
 20
0.1034250417620304
 30
0.0
 11
37.098312709310001
 21
-1.500000000001364
 31
0.0
 12
37.402412081566467
 22
0.2993119717792996
 32
0.0
 13
37.402412081566467
 23
0.2993119717792996
 33
0.0
  0
POLYLINE
  8
0
  5
80000103
  66
     1
 10
0.000000
 20
0.000000
 30
0.000000
  70
     8
  0
VERTEX
  8
0
  5
80000104
 10
37.6860
 20
0.201369
 30
0.000000
  70
    32
  0
VERTEX
  8
0
  5
80000105
 10
37.7139
 20
0.284297
 30
0.000000
  70
    32
  0
VERTEX
  8
0
  5
80000106
 10
37.7410
 20
0.368490
 30
0.000000
  70
    32
  0
VERTEX
  8
0
  5
80000107
 10
37.7672
 20
0.453918
 30
0.000000
  70
    32
  0
VERTEX
  8
0
  5
80000108
 10
37.7925
 20
0.540550
 30
0.000000
  70
    32
  0
VERTEX
  8
0
  5
80000109
 10
37.8170
 20
0.628356
 30
0.000000
  70
    32
  0
VERTEX
  8
0
  5
8000010A
 10
37.8407
 20
0.717304
 30
0.000000
  70
    32
  0
VERTEX
  8
0
  5
8000010B
 10
37.8636
 20
0.807365
 30
0.000000
  70
    32
  0
VERTEX
  8
0
  5
8000010C
 10
37.8857
 20
0.898507
 30
0.000000
  70
    32
  0
VERTEX
  8
0
  5
8000010D
 10
37.9070
 20
0.990700
 30
0.000000
  70
    32
  0
VERTEX
  8
0
  5
8000010E
 10
37.9277
 20
1.08391
 30
0.000000
  70
    32
  0
VERTEX
  8
0
  5
8000010F
 10
37.9476
 20
1.17812
 30
0.000000
  70
    32
  0
VERTEX
  8
0
  5
80000110
 10
37.9668
 20
1.27328
 30
0.000000
  70
    32
  0
VERTEX
  8
0
  5
80000111
 10
37.9854
 20
1.36937
 30
0.000000
  70
    32
  0
VERTEX
  8
0
  5
80000112
 10
38.0034
 20
1.46636
 30
0.000000
  70
    32
  0
VERTEX
  8
0
  5
80000113
 10
38.0207
 20
1.56421
 30
0.000000
  70
    32
  0
VERTEX
  8
0
  5
80000114
 10
38.0374
 20
1.66291
 30
0.000000
  70
    32
  0
VERTEX
  8
0
  5
80000115
 10
38.0536
 20
1.76240
 30
0.000000
  70
    32
  0
VERTEX
  8
0
  5
80000116
 10
38.0692
 20
1.86268
 30
0.000000
  70
    32
  0
VERTEX
  8
0
  5
80000117
 10
38.0843
 20
1.96370
 30
0.000000
  70
    32
  0
VERTEX
  8
0
  5
80000118
 10
38.0988
 20
2.06543
 30
0.000000
  70
    32
  0
VERTEX
  8
0
  5
80000119
 10
38.1129
 20
2.16785
 30
0.000000
  70
    32
  0
VERTEX
  8
0
  5
8000011A
 10
38.1265
 20
2.27092
 30
0.000000
  70
    32
  0
VERTEX
  8
0
  5
8000011B
 10
38.1397
 20
2.37461
 30
0.000000
  70
    32
  0
VERTEX
  8
0
  5
8000011C
 10
38.1524
 20
2.47889
 30
0.000000
  70
    32
  0
VERTEX
  8
0
  5
8000011D
 10
38.1648
 20
2.58374
 30
0.000000
  70
    32
  0
VERTEX
  8
0
  5
8000011E
 10
38.1767
 20
2.68911
 30
0.000000
  70
    32
  0
VERTEX
  8
0
  5
8000011F
 10
38.1883
 20
2.79499
 30
0.000000
  70
    32
  0
VERTEX
  8
0
  5
80000120
 10
38.1996
 20
2.90133
 30
0.000000
  70
    32
  0
VERTEX
  8
0
  5
80000121
 10
38.2106
 20
3.00812
 30
0.000000
  70
    32
  0
VERTEX
  8
0
  5
80000122
 10
38.2213
 20
3.11531
 30
0.000000
  70
    32
  0
VERTEX
  8
0
  5
80000123
 10
38.2317
 20
3.22288
 30
0.000000
  70
    32
  0
VERTEX
  8
0
  5
80000124
 10
38.2418
 20
3.33080
 30
0.000000
  70
    32
  0
VERTEX
  8
0
  5
80000125
 10
38.2518
 20
3.43903
 30
0.000000
  70
    32
  0
VERTEX
  8
0
  5
80000126
 10
38.2615
 20
3.54755
 30
0.000000
  70
    32
  0
VERTEX
  8
0
  5
80000127
 10
38.2710
 20
3.65632
 30
0.000000
  70
    32
  0
VERTEX
  8
0
  5
80000128
 10
38.2804
 20
3.76532
 30
0.000000
  70
    32
  0
VERTEX
  8
0
  5
80000129
 10
38.2897
 20
3.87451
 30
0.000000
  70
    32
  0
VERTEX
  8
0
  5
8000012A
 10
38.2988
 20
3.98387
 30
0.000000
  70
    32
  0
VERTEX
  8
0
  5
8000012B
 10
38.3078
 20
4.09335
 30
0.000000
  70
    32
  0
VERTEX
  8
0
  5
8000012C
 10
38.3168
 20
4.20294
 30
0.000000
  70
    32
  0
VERTEX
  8
0
  5
8000012D
 10
38.3257
 20
4.31260
 30
0.000000
  70
    32
  0
VERTEX
  8
0
  5
8000012E
 10
38.3346
 20
4.42231
 30
0.000000
  70
    32
  0
VERTEX
  8
0
  5
8000012F
 10
38.3435
 20
4.53202
 30
0.000000
  70
    32
  0
VERTEX
  8
0
  5
80000130
 10
38.3524
 20
4.64171
 30
0.000000
  70
    32
  0
VERTEX
  8
0
  5
80000131
 10
38.3613
 20
4.75135
 30
0.000000
  70
    32
  0
VERTEX
  8
0
  5
80000132
 10
38.3703
 20
4.86091
 30
0.000000
  70
    32
  0
VERTEX
  8
0
  5
80000133
 10
38.3794
 20
4.97036
 30
0.000000
  70
    32
  0
VERTEX
  8
0
  5
80000134
 10
38.3885
 20
5.07966
 30
0.000000
  70
    32
  0
VERTEX
  8
0
  5
80000135
 10
38.3978
 20
5.18879
 30
0.000000
  70
    32
  0
VERTEX
  8
0
  5
80000136
 10
38.4073
 20
5.29772
 30
0.000000
  70
    32
  0
VERTEX
  8
0
  5
80000137
 10
38.4169
 20
5.40641
 30
0.000000
  70
    32
  0
VERTEX
  8
0
  5
80000138
 10
38.4267
 20
5.51484
 30
0.000000
  70
    32
  0
VERTEX
  8
0
  5
80000139
 10
38.4367
 20
5.62297
 30
0.000000
  70
    32
  0
VERTEX
  8
0
  5
8000013A
 10
38.4469
 20
5.73077
 30
0.000000
  70
    32
  0
VERTEX
  8
0
  5
8000013B
 10
38.4574
 20
5.83822
 30
0.000000
  70
    32
  0
VERTEX
  8
0
  5
8000013C
 10
38.4682
 20
5.94528
 30
0.000000
  70
    32
  0
VERTEX
  8
0
  5
8000013D
 10
38.4792
 20
6.05192
 30
0.000000
  70
    32
  0
VERTEX
  8
0
  5
8000013E
 10
38.4906
 20
6.15811
 30
0.000000
  70
    32
  0
VERTEX
  8
0
  5
8000013F
 10
38.5024
 20
6.26382
 30
0.000000
  70
    32
  0
VERTEX
  8
0
  5
80000140
 10
38.5144
 20
6.36903
 30
0.000000
  70
    32
  0
VERTEX
  8
0
  5
80000141
 10
38.5269
 20
6.47369
 30
0.000000
  70
    32
  0
VERTEX
  8
0
  5
80000142
 10
38.5398
 20
6.57778
 30
0.000000
  70
    32
  0
VERTEX
  8
0
  5
80000143
 10
38.5531
 20
6.68127
 30
0.000000
  70
    32
  0
VERTEX
  8
0
  5
80000144
 10
38.5669
 20
6.78412
 30
0.000000
  70
    32
  0
VERTEX
  8
0
  5
80000145
 10
38.5811
 20
6.88631
 30
0.000000
  70
    32
  0
VERTEX
  8
0
  5
80000146
 10
38.5959
 20
6.98781
 30
0.000000
  70
    32
  0
VERTEX
  8
0
  5
80000147
 10
38.6111
 20
7.08859
 30
0.000000
  70
    32
  0
VERTEX
  8
0
  5
80000148
 10
38.6269
 20
7.18861
 30
0.000000
  70
    32
  0
VERTEX
  8
0
  5
80000149
 10
38.6432
 20
7.28784
 30
0.000000
  70
    32
  0
VERTEX
  8
0
  5
8000014A
 10
38.6602
 20
7.38626
 30
0.000000
  70
    32
  0
VERTEX
  8
0
  5
8000014B
 10
38.6777
 20
7.48383
 30
0.000000
  70
    32
  0
VERTEX
  8
0
  5
8000014C
 10
38.6958
 20
7.58052
 30
0.000000
  70
    32
  0
VERTEX
  8
0
  5
8000014D
 10
38.7146
 20
7.67630
 30
0.000000
  70
    32
  0
VERTEX
  8
0
  5
8000014E
 10
38.7341
 20
7.77115
 30
0.000000
  70
    32
  0
VERTEX
  8
0
  5
8000014F
 10
38.7543
 20
7.86503
 30
0.000000
  70
    32
  0
VERTEX
  8
0
  5
80000150
 10
38.7752
 20
7.95790
 30
0.000000
  70
    32
  0
VERTEX
  8
0
  5
80000151
 10
38.7968
 20
8.04975
 30
0.000000
  70
    32
  0
VERTEX
  8
0
  5
80000152
 10
38.8191
 20
8.14053
 30
0.000000
  70
    32
  0
VERTEX
  8
0
  5
80000153
 10
38.8423
 20
8.23023
 30
0.000000
  70
    32
  0
VERTEX
  8
0
  5
80000154
 10
38.8662
 20
8.31880
 30
0.000000
  70
    32
  0
VERTEX
  8
0
  5
80000155
 10
38.8910
 20
8.40621
 30
0.000000
  70
    32
  0
VERTEX
  8
0
  5
80000156
 10
38.9166
 20
8.49245
 30
0.000000
  70
    32
  0
VERTEX
  8
0
  5
80000157
 10
38.9431
 20
8.57747
 30
0.000000
  70
    32
  0
VERTEX
  8
0
  5
80000158
 10
38.9704
 20
8.66124
 30
0.000000
  70
    32
  0
VERTEX
  8
0
  5
80000159
 10
38.9987
 20
8.74374
 30
0.000000
  70
    32
  0
VERTEX
  8
0
  5
8000015A
 10
39.0279
 20
8.82494
 30
0.000000
  70
    32
  0
VERTEX
  8
0
  5
8000015B
 10
39.0580
 20
8.90479
 30
0.000000
  70
    32
  0
VERTEX
  8
0
  5
8000015C
 10
39.0892
 20
8.98328
 30
0.000000
  70
    32
  0
VERTEX
  8
0
  5
8000015D
 10
39.1213
 20
9.06038
 30
0.000000
  70
    32
  0
VERTEX
  8
0
  5
8000015E
 10
39.1544
 20
9.13604
 30
0.000000
  70
    32
  0
VERTEX
  8
0
  5
8000015F
 10
39.1886
 20
9.21024
 30
0.000000
  70
    32
  0
VERTEX
  8
0
  5
80000160
 10
39.2239
 20
9.28296
 30
0.000000
  70
    32
  0
VERTEX
  8
0
  5
80000161
 10
39.2602
 20
9.35415
 30
0.000000
  70
    32
  0
VERTEX
  8
0
  5
80000162
 10
39.2976
 20
9.42380
 30
0.000000
  70
    32
  0
VERTEX
  8
0
  5
80000163
 10
39.3362
 20
9.49186
 30
0.000000
  70
    32
  0
VERTEX
  8
0
  5
80000164
 10
39.3759
 20
9.55831
 30
0.000000
  70
    32
  0
VERTEX
  8
0
  5
80000165
 10
39.4167
 20
9.62312
 30
0.000000
  70
    32
  0
VERTEX
  8
0
  5
80000166
 10
39.4588
 20
9.68625
 30
0.000000
  70
    32
  0
VERTEX
  8
0
  5
80000167
 10
39.5021
 20
9.74768
 30
0.000000
  70
    32
  0
VERTEX
  8
0
  5
80000168
 10
39.5466
 20
9.80737
 30
0.000000
  70
    32
  0
VERTEX
  8
0
  5
80000169
 10
39.5924
 20
9.86530
 30
0.000000
  70
    32
  0
VERTEX
  8
0
  5
8000016A
 10
39.6395
 20
9.92144
 30
0.000000
  70
    32
  0
VERTEX
  8
0
  5
8000016B
 10
39.6878
 20
9.97575
 30
0.000000
  70
    32
  0
VERTEX
  8
0
  5
8000016C
 10
39.7375
 20
10.0282
 30
0.000000
  70
    32
  0
VERTEX
  8
0
  5
8000016D
 10
39.7885
 20
10.0788
 30
0.000000
  70
    32
  0
VERTEX
  8
0
  5
8000016E
 10
39.8409
 20
10.1274
 30
0.000000
  70
    32
  0
VERTEX
  8
0
  5
8000016F
 10
39.8947
 20
10.1741
 30
0.000000
  70
    32
  0
VERTEX
  8
0
  5
80000170
 10
39.9499
 20
10.2188
 30
0.000000
  70
    32
  0
VERTEX
  8
0
  5
80000171
 10
40.0065
 20
10.2615
 30
0.000000
  70
    32
  0
VERTEX
  8
0
  5
80000172
 10
40.0646
 20
10.3022
 30
0.000000
  70
    32
  0
VERTEX
  8
0
  5
80000173
 10
40.1241
 20
10.3408
 30
0.000000
  70
    32
  0
VERTEX
  8
0
  5
80000174
 10
40.1852
 20
10.3773
 30
0.000000
  70
    32
  0
VERTEX
  8
0
  5
80000175
 10
40.2478
 20
10.4116
 30
0.000000
  70
    32
  0
VERTEX
  8
0
  5
80000176
 10
40.3119
 20
10.4438
 30
0.000000
  70
    32
  0
VERTEX
  8
0
  5
80000177
 10
40.3776
 20
10.4738
 30
0.000000
  70
    32
  0
VERTEX
  8
0
  5
80000178
 10
40.4448
 20
10.5016
 30
0.000000
  70
    32
  0
VERTEX
  8
0
  5
80000179
 10
40.5137
 20
10.5271
 30
0.000000
  70
    32
  0
VERTEX
  8
0
  5
8000017A
 10
40.5842
 20
10.5504
 30
0.000000
  70
    32
  0
VERTEX
  8
0
  5
8000017B
 10
40.6563
 20
10.5713
 30
0.000000
  70
    32
  0
VERTEX
  8
0
  5
8000017C
 10
40.7301
 20
10.5899
 30
0.000000
  70
    32
  0
VERTEX
  8
0
  5
8000017D
 10
40.8057
 20
10.6061
 30
0.000000
  70
    32
  0
VERTEX
  8
0
  5
8000017E
 10
40.8829
 20
10.6199
 30
0.000000
  70
    32
  0
VERTEX
  8
0
  5
8000017F
 10
40.9619
 20
10.6312
 30
0.000000
  70
    32
  0
VERTEX
  8
0
  5
80000180
 10
41.0426
 20
10.6401
 30
0.000000
  70
    32
  0
VERTEX
  8
0
  5
80000181
 10
41.1251
 20
10.6465
 30
0.000000
  70
    32
  0
VERTEX
  8
0
  5
80000182
 10
41.2094
 20
10.6503
 30
0.000000
  70
    32
  0
VERTEX
  8
0
  5
80000183
 10
41.2955
 20
10.6516
 30
0.000000
  70
    32
  0
SEQEND
  8
0
  5
80000184
  0
ENDBLK
  5
FFBBDAE469BC05A9
  8
0
  0
BLOCK
  8
0
  2
*U14
 70
     1
 10
0.0
 20
0.0
 30
0.0
  3
*U14
  1

  0
TEXT
  5
FFBBDAE469BC05AB
  8
0
  6
CONTINUOUS
 10
42.220505791513197
 20
11.629336369674039
 30
0.0
 40
2.0
  1
James Hardie rigid air
  7
ARIAL
  0
TEXT
  5
FFBBDAE469BC05AC
  8
0
  6
CONTINUOUS
 10
42.112729529575951
 20
8.2618966243352503
 30
0.0
 40
2.0
  1
barrier/Building underlay
  7
ARIAL
  0
ENDBLK
  5
FFBBDAE469BC05AE
  8
0
  0
BLOCK
  8
0
  2
*U15
 70
     1
 10
0.0
 20
0.0
 30
0.0
  3
*U15
  1

  0
SOLID
  5
FFBBDAE469BC05B0
  8
0
  6
CONTINUOUS
 10
18.558878129141512
 20
50.808745082394317
 30
0.0
 11
16.977724101015149
 21
51.71976206321289
 31
0.0
 12
18.768875310589351
 22
51.370795955344413
 32
0.0
 13
18.768875310589351
 23
51.370795955344413
 33
0.0
  0
POLYLINE
  8
0
  5
80000185
  66
     1
 10
0.000000
 20
0.000000
 30
0.000000
  70
     8
  0
VERTEX
  8
0
  5
80000186
 10
18.6639
 20
51.0898
 30
0.000000
  70
    32
  0
VERTEX
  8
0
  5
80000187
 10
18.8420
 20
51.0227
 30
0.000000
  70
    32
  0
VERTEX
  8
0
  5
80000188
 10
19.0199
 20
50.9545
 30
0.000000
  70
    32
  0
VERTEX
  8
0
  5
80000189
 10
19.1977
 20
50.8854
 30
0.000000
  70
    32
  0
VERTEX
  8
0
  5
8000018A
 10
19.3752
 20
50.8153
 30
0.000000
  70
    32
  0
VERTEX
  8
0
  5
8000018B
 10
19.5526
 20
50.7443
 30
0.000000
  70
    32
  0
VERTEX
  8
0
  5
8000018C
 10
19.7298
 20
50.6723
 30
0.000000
  70
    32
  0
VERTEX
  8
0
  5
8000018D
 10
19.9069
 20
50.5994
 30
0.000000
  70
    32
  0
VERTEX
  8
0
  5
8000018E
 10
20.0838
 20
50.5257
 30
0.000000
  70
    32
  0
VERTEX
  8
0
  5
8000018F
 10
20.2606
 20
50.4511
 30
0.000000
  70
    32
  0
VERTEX
  8
0
  5
80000190
 10
20.4372
 20
50.3757
 30
0.000000
  70
    32
  0
VERTEX
  8
0
  5
80000191
 10
20.6136
 20
50.2994
 30
0.000000
  70
    32
  0
VERTEX
  8
0
  5
80000192
 10
20.7899
 20
50.2224
 30
0.000000
  70
    32
  0
VERTEX
  8
0
  5
80000193
 10
20.9661
 20
50.1447
 30
0.000000
  70
    32
  0
VERTEX
  8
0
  5
80000194
 10
21.1422
 20
50.0662
 30
0.000000
  70
    32
  0
VERTEX
  8
0
  5
80000195
 10
21.3181
 20
49.9870
 30
0.000000
  70
    32
  0
VERTEX
  8
0
  5
80000196
 10
21.4939
 20
49.9072
 30
0.000000
  70
    32
  0
VERTEX
  8
0
  5
80000197
 10
21.6696
 20
49.8267
 30
0.000000
  70
    32
  0
VERTEX
  8
0
  5
80000198
 10
21.8452
 20
49.7455
 30
0.000000
  70
    32
  0
VERTEX
  8
0
  5
80000199
 10
22.0206
 20
49.6638
 30
0.000000
  70
    32
  0
VERTEX
  8
0
  5
8000019A
 10
22.1960
 20
49.5815
 30
0.000000
  70
    32
  0
VERTEX
  8
0
  5
8000019B
 10
22.3712
 20
49.4986
 30
0.000000
  70
    32
  0
VERTEX
  8
0
  5
8000019C
 10
22.5464
 20
49.4152
 30
0.000000
  70
    32
  0
VERTEX
  8
0
  5
8000019D
 10
22.7215
 20
49.3313
 30
0.000000
  70
    32
  0
VERTEX
  8
0
  5
8000019E
 10
22.8965
 20
49.2469
 30
0.000000
  70
    32
  0
VERTEX
  8
0
  5
8000019F
 10
23.0714
 20
49.1621
 30
0.000000
  70
    32
  0
VERTEX
  8
0
  5
800001A0
 10
23.2462
 20
49.0768
 30
0.000000
  70
    32
  0
VERTEX
  8
0
  5
800001A1
 10
23.4210
 20
48.9911
 30
0.000000
  70
    32
  0
VERTEX
  8
0
  5
800001A2
 10
23.5956
 20
48.9051
 30
0.000000
  70
    32
  0
VERTEX
  8
0
  5
800001A3
 10
23.7703
 20
48.8187
 30
0.000000
  70
    32
  0
VERTEX
  8
0
  5
800001A4
 10
23.9448
 20
48.7320
 30
0.000000
  70
    32
  0
VERTEX
  8
0
  5
800001A5
 10
24.1193
 20
48.6449
 30
0.000000
  70
    32
  0
VERTEX
  8
0
  5
800001A6
 10
24.2938
 20
48.5576
 30
0.000000
  70
    32
  0
VERTEX
  8
0
  5
800001A7
 10
24.4682
 20
48.4700
 30
0.000000
  70
    32
  0
VERTEX
  8
0
  5
800001A8
 10
24.6425
 20
48.3822
 30
0.000000
  70
    32
  0
VERTEX
  8
0
  5
800001A9
 10
24.8169
 20
48.2942
 30
0.000000
  70
    32
  0
VERTEX
  8
0
  5
800001AA
 10
24.9912
 20
48.2060
 30
0.000000
  70
    32
  0
VERTEX
  8
0
  5
800001AB
 10
25.1654
 20
48.1177
 30
0.000000
  70
    32
  0
VERTEX
  8
0
  5
800001AC
 10
25.3397
 20
48.0292
 30
0.000000
  70
    32
  0
VERTEX
  8
0
  5
800001AD
 10
25.5139
 20
47.9406
 30
0.000000
  70
    32
  0
VERTEX
  8
0
  5
800001AE
 10
25.6881
 20
47.8519
 30
0.000000
  70
    32
  0
VERTEX
  8
0
  5
800001AF
 10
25.8623
 20
47.7632
 30
0.000000
  70
    32
  0
VERTEX
  8
0
  5
800001B0
 10
26.0365
 20
47.6744
 30
0.000000
  70
    32
  0
VERTEX
  8
0
  5
800001B1
 10
26.2107
 20
47.5856
 30
0.000000
  70
    32
  0
VERTEX
  8
0
  5
800001B2
 10
26.3849
 20
47.4969
 30
0.000000
  70
    32
  0
VERTEX
  8
0
  5
800001B3
 10
26.5591
 20
47.4082
 30
0.000000
  70
    32
  0
VERTEX
  8
0
  5
800001B4
 10
26.7333
 20
47.3195
 30
0.000000
  70
    32
  0
VERTEX
  8
0
  5
800001B5
 10
26.9075
 20
47.2310
 30
0.000000
  70
    32
  0
VERTEX
  8
0
  5
800001B6
 10
27.0818
 20
47.1425
 30
0.000000
  70
    32
  0
VERTEX
  8
0
  5
800001B7
 10
27.2561
 20
47.0542
 30
0.000000
  70
    32
  0
VERTEX
  8
0
  5
800001B8
 10
27.4304
 20
46.9661
 30
0.000000
  70
    32
  0
VERTEX
  8
0
  5
800001B9
 10
27.6047
 20
46.8781
 30
0.000000
  70
    32
  0
VERTEX
  8
0
  5
800001BA
 10
27.7791
 20
46.7904
 30
0.000000
  70
    32
  0
VERTEX
  8
0
  5
800001BB
 10
27.9535
 20
46.7029
 30
0.000000
  70
    32
  0
VERTEX
  8
0
  5
800001BC
 10
28.1280
 20
46.6157
 30
0.000000
  70
    32
  0
VERTEX
  8
0
  5
800001BD
 10
28.3025
 20
46.5287
 30
0.000000
  70
    32
  0
VERTEX
  8
0
  5
800001BE
 10
28.4771
 20
46.4421
 30
0.000000
  70
    32
  0
VERTEX
  8
0
  5
800001BF
 10
28.6517
 20
46.3558
 30
0.000000
  70
    32
  0
VERTEX
  8
0
  5
800001C0
 10
28.8264
 20
46.2699
 30
0.000000
  70
    32
  0
VERTEX
  8
0
  5
800001C1
 10
29.0012
 20
46.1844
 30
0.000000
  70
    32
  0
VERTEX
  8
0
  5
800001C2
 10
29.1761
 20
46.0992
 30
0.000000
  70
    32
  0
VERTEX
  8
0
  5
800001C3
 10
29.3510
 20
46.0145
 30
0.000000
  70
    32
  0
VERTEX
  8
0
  5
800001C4
 10
29.5260
 20
45.9303
 30
0.000000
  70
    32
  0
VERTEX
  8
0
  5
800001C5
 10
29.7011
 20
45.8466
 30
0.000000
  70
    32
  0
VERTEX
  8
0
  5
800001C6
 10
29.8763
 20
45.7634
 30
0.000000
  70
    32
  0
VERTEX
  8
0
  5
800001C7
 10
30.0516
 20
45.6807
 30
0.000000
  70
    32
  0
VERTEX
  8
0
  5
800001C8
 10
30.2270
 20
45.5985
 30
0.000000
  70
    32
  0
VERTEX
  8
0
  5
800001C9
 10
30.4025
 20
45.5170
 30
0.000000
  70
    32
  0
VERTEX
  8
0
  5
800001CA
 10
30.5781
 20
45.4361
 30
0.000000
  70
    32
  0
VERTEX
  8
0
  5
800001CB
 10
30.7538
 20
45.3558
 30
0.000000
  70
    32
  0
VERTEX
  8
0
  5
800001CC
 10
30.9297
 20
45.2761
 30
0.000000
  70
    32
  0
VERTEX
  8
0
  5
800001CD
 10
31.1056
 20
45.1972
 30
0.000000
  70
    32
  0
VERTEX
  8
0
  5
800001CE
 10
31.2817
 20
45.1190
 30
0.000000
  70
    32
  0
VERTEX
  8
0
  5
800001CF
 10
31.4580
 20
45.0414
 30
0.000000
  70
    32
  0
VERTEX
  8
0
  5
800001D0
 10
31.6343
 20
44.9647
 30
0.000000
  70
    32
  0
VERTEX
  8
0
  5
800001D1
 10
31.8108
 20
44.8887
 30
0.000000
  70
    32
  0
VERTEX
  8
0
  5
800001D2
 10
31.9875
 20
44.8136
 30
0.000000
  70
    32
  0
VERTEX
  8
0
  5
800001D3
 10
32.1643
 20
44.7393
 30
0.000000
  70
    32
  0
VERTEX
  8
0
  5
800001D4
 10
32.3412
 20
44.6658
 30
0.000000
  70
    32
  0
VERTEX
  8
0
  5
800001D5
 10
32.5184
 20
44.5932
 30
0.000000
  70
    32
  0
VERTEX
  8
0
  5
800001D6
 10
32.6956
 20
44.5216
 30
0.000000
  70
    32
  0
VERTEX
  8
0
  5
800001D7
 10
32.8731
 20
44.4508
 30
0.000000
  70
    32
  0
VERTEX
  8
0
  5
800001D8
 10
33.0507
 20
44.3811
 30
0.000000
  70
    32
  0
VERTEX
  8
0
  5
800001D9
 10
33.2285
 20
44.3123
 30
0.000000
  70
    32
  0
VERTEX
  8
0
  5
800001DA
 10
33.4065
 20
44.2445
 30
0.000000
  70
    32
  0
VERTEX
  8
0
  5
800001DB
 10
33.5847
 20
44.1777
 30
0.000000
  70
    32
  0
VERTEX
  8
0
  5
800001DC
 10
33.7630
 20
44.1120
 30
0.000000
  70
    32
  0
VERTEX
  8
0
  5
800001DD
 10
33.9416
 20
44.0474
 30
0.000000
  70
    32
  0
VERTEX
  8
0
  5
800001DE
 10
34.1204
 20
43.9839
 30
0.000000
  70
    32
  0
VERTEX
  8
0
  5
800001DF
 10
34.2993
 20
43.9215
 30
0.000000
  70
    32
  0
VERTEX
  8
0
  5
800001E0
 10
34.4785
 20
43.8603
 30
0.000000
  70
    32
  0
VERTEX
  8
0
  5
800001E1
 10
34.6579
 20
43.8003
 30
0.000000
  70
    32
  0
VERTEX
  8
0
  5
800001E2
 10
34.8375
 20
43.7414
 30
0.000000
  70
    32
  0
VERTEX
  8
0
  5
800001E3
 10
35.0173
 20
43.6838
 30
0.000000
  70
    32
  0
VERTEX
  8
0
  5
800001E4
 10
35.1974
 20
43.6275
 30
0.000000
  70
    32
  0
VERTEX
  8
0
  5
800001E5
 10
35.3776
 20
43.5724
 30
0.000000
  70
    32
  0
VERTEX
  8
0
  5
800001E6
 10
35.5582
 20
43.5186
 30
0.000000
  70
    32
  0
VERTEX
  8
0
  5
800001E7
 10
35.7389
 20
43.4662
 30
0.000000
  70
    32
  0
VERTEX
  8
0
  5
800001E8
 10
35.9199
 20
43.4151
 30
0.000000
  70
    32
  0
VERTEX
  8
0
  5
800001E9
 10
36.1012
 20
43.3654
 30
0.000000
  70
    32
  0
VERTEX
  8
0
  5
800001EA
 10
36.2827
 20
43.3171
 30
0.000000
  70
    32
  0
VERTEX
  8
0
  5
800001EB
 10
36.4644
 20
43.2702
 30
0.000000
  70
    32
  0
VERTEX
  8
0
  5
800001EC
 10
36.6465
 20
43.2248
 30
0.000000
  70
    32
  0
VERTEX
  8
0
  5
800001ED
 10
36.8287
 20
43.1809
 30
0.000000
  70
    32
  0
VERTEX
  8
0
  5
800001EE
 10
37.0113
 20
43.1384
 30
0.000000
  70
    32
  0
VERTEX
  8
0
  5
800001EF
 10
37.1942
 20
43.0975
 30
0.000000
  70
    32
  0
VERTEX
  8
0
  5
800001F0
 10
37.3773
 20
43.0581
 30
0.000000
  70
    32
  0
VERTEX
  8
0
  5
800001F1
 10
37.5607
 20
43.0204
 30
0.000000
  70
    32
  0
VERTEX
  8
0
  5
800001F2
 10
37.7444
 20
42.9842
 30
0.000000
  70
    32
  0
VERTEX
  8
0
  5
800001F3
 10
37.9284
 20
42.9496
 30
0.000000
  70
    32
  0
VERTEX
  8
0
  5
800001F4
 10
38.1127
 20
42.9167
 30
0.000000
  70
    32
  0
VERTEX
  8
0
  5
800001F5
 10
38.2972
 20
42.8855
 30
0.000000
  70
    32
  0
VERTEX
  8
0
  5
800001F6
 10
38.4821
 20
42.8560
 30
0.000000
  70
    32
  0
VERTEX
  8
0
  5
800001F7
 10
38.6674
 20
42.8282
 30
0.000000
  70
    32
  0
VERTEX
  8
0
  5
800001F8
 10
38.8529
 20
42.8021
 30
0.000000
  70
    32
  0
VERTEX
  8
0
  5
800001F9
 10
39.0387
 20
42.7778
 30
0.000000
  70
    32
  0
VERTEX
  8
0
  5
800001FA
 10
39.2249
 20
42.7554
 30
0.000000
  70
    32
  0
VERTEX
  8
0
  5
800001FB
 10
39.4114
 20
42.7347
 30
0.000000
  70
    32
  0
VERTEX
  8
0
  5
800001FC
 10
39.5982
 20
42.7159
 30
0.000000
  70
    32
  0
VERTEX
  8
0
  5
800001FD
 10
39.7854
 20
42.6990
 30
0.000000
  70
    32
  0
VERTEX
  8
0
  5
800001FE
 10
39.9729
 20
42.6839
 30
0.000000
  70
    32
  0
VERTEX
  8
0
  5
800001FF
 10
40.1608
 20
42.6708
 30
0.000000
  70
    32
  0
VERTEX
  8
0
  5
80000200
 10
40.3490
 20
42.6597
 30
0.000000
  70
    32
  0
VERTEX
  8
0
  5
80000201
 10
40.5376
 20
42.6505
 30
0.000000
  70
    32
  0
VERTEX
  8
0
  5
80000202
 10
40.7265
 20
42.6433
 30
0.000000
  70
    32
  0
VERTEX
  8
0
  5
80000203
 10
40.9158
 20
42.6381
 30
0.000000
  70
    32
  0
VERTEX
  8
0
  5
80000204
 10
41.1055
 20
42.6350
 30
0.000000
  70
    32
  0
VERTEX
  8
0
  5
80000205
 10
41.2955
 20
42.6340
 30
0.000000
  70
    32
  0
SEQEND
  8
0
  5
80000206
  0
ENDBLK
  5
FFBBDAE469BC05B3
  8
0
  0
BLOCK
  8
0
  2
*U16
 70
     1
 10
0.0
 20
0.0
 30
0.0
  3
*U16
  1

  0
TEXT
  5
FFBBDAE469BC05B5
  8
0
  6
CONTINUOUS
 10
42.170028301745127
 20
41.63397815629525
 30
0.0
 40
2.0
  1
Stud
  7
ARIAL
  0
ENDBLK
  5
FFBBDAE469BC05B7
  8
0
  0
BLOCK
  8
0
  2
*U17
 70
     1
 10
0.0
 20
0.0
 30
0.0
  3
*U17
  1

  0
SOLID
  5
FFBBDAE469BC05B9
  8
0
  6
CONTINUOUS
 10
25.920929990790491
 20
-34.539660465464827
 30
0.0
 11
24.94141702452271
 21
-33.000000000000682
 31
0.0
 12
26.367332684115741
 22
-34.13875569448804
 32
0.0
 13
26.367332684115741
 23
-34.13875569448804
 33
0.0
  0
POLYLINE
  8
0
  5
80000207
  66
     1
 10
0.000000
 20
0.000000
 30
0.000000
  70
     8
  0
VERTEX
  8
0
  5
80000208
 10
26.1441
 20
-34.3392
 30
0.000000
  70
    32
  0
VERTEX
  8
0
  5
80000209
 10
26.1867
 20
-34.3872
 30
0.000000
  70
    32
  0
VERTEX
  8
0
  5
8000020A
 10
26.2290
 20
-34.4360
 30
0.000000
  70
    32
  0
VERTEX
  8
0
  5
8000020B
 10
26.2710
 20
-34.4854
 30
0.000000
  70
    32
  0
VERTEX
  8
0
  5
8000020C
 10
26.3127
 20
-34.5356
 30
0.000000
  70
    32
  0
VERTEX
  8
0
  5
8000020D
 10
26.3540
 20
-34.5864
 30
0.000000
  70
    32
  0
VERTEX
  8
0
  5
8000020E
 10
26.3951
 20
-34.6379
 30
0.000000
  70
    32
  0
VERTEX
  8
0
  5
8000020F
 10
26.4358
 20
-34.6900
 30
0.000000
  70
    32
  0
VERTEX
  8
0
  5
80000210
 10
26.4763
 20
-34.7428
 30
0.000000
  70
    32
  0
VERTEX
  8
0
  5
80000211
 10
26.5166
 20
-34.7961
 30
0.000000
  70
    32
  0
VERTEX
  8
0
  5
80000212
 10
26.5565
 20
-34.8501
 30
0.000000
  70
    32
  0
VERTEX
  8
0
  5
80000213
 10
26.5962
 20
-34.9046
 30
0.000000
  70
    32
  0
VERTEX
  8
0
  5
80000214
 10
26.6357
 20
-34.9597
 30
0.000000
  70
    32
  0
VERTEX
  8
0
  5
80000215
 10
26.6749
 20
-35.0154
 30
0.000000
  70
    32
  0
VERTEX
  8
0
  5
80000216
 10
26.7139
 20
-35.0715
 30
0.000000
  70
    32
  0
VERTEX
  8
0
  5
80000217
 10
26.7526
 20
-35.1282
 30
0.000000
  70
    32
  0
VERTEX
  8
0
  5
80000218
 10
26.7912
 20
-35.1853
 30
0.000000
  70
    32
  0
VERTEX
  8
0
  5
80000219
 10
26.8295
 20
-35.2429
 30
0.000000
  70
    32
  0
VERTEX
  8
0
  5
8000021A
 10
26.8676
 20
-35.3009
 30
0.000000
  70
    32
  0
VERTEX
  8
0
  5
8000021B
 10
26.9056
 20
-35.3594
 30
0.000000
  70
    32
  0
VERTEX
  8
0
  5
8000021C
 10
26.9433
 20
-35.4183
 30
0.000000
  70
    32
  0
VERTEX
  8
0
  5
8000021D
 10
26.9809
 20
-35.4776
 30
0.000000
  70
    32
  0
VERTEX
  8
0
  5
8000021E
 10
27.0183
 20
-35.5373
 30
0.000000
  70
    32
  0
VERTEX
  8
0
  5
8000021F
 10
27.0556
 20
-35.5973
 30
0.000000
  70
    32
  0
VERTEX
  8
0
  5
80000220
 10
27.0927
 20
-35.6577
 30
0.000000
  70
    32
  0
VERTEX
  8
0
  5
80000221
 10
27.1297
 20
-35.7184
 30
0.000000
  70
    32
  0
VERTEX
  8
0
  5
80000222
 10
27.1665
 20
-35.7794
 30
0.000000
  70
    32
  0
VERTEX
  8
0
  5
80000223
 10
27.2032
 20
-35.8406
 30
0.000000
  70
    32
  0
VERTEX
  8
0
  5
80000224
 10
27.2397
 20
-35.9022
 30
0.000000
  70
    32
  0
VERTEX
  8
0
  5
80000225
 10
27.2762
 20
-35.9640
 30
0.000000
  70
    32
  0
VERTEX
  8
0
  5
80000226
 10
27.3125
 20
-36.0261
 30
0.000000
  70
    32
  0
VERTEX
  8
0
  5
80000227
 10
27.3488
 20
-36.0883
 30
0.000000
  70
    32
  0
VERTEX
  8
0
  5
80000228
 10
27.3849
 20
-36.1508
 30
0.000000
  70
    32
  0
VERTEX
  8
0
  5
80000229
 10
27.4210
 20
-36.2135
 30
0.000000
  70
    32
  0
VERTEX
  8
0
  5
8000022A
 10
27.4570
 20
-36.2763
 30
0.000000
  70
    32
  0
VERTEX
  8
0
  5
8000022B
 10
27.4930
 20
-36.3393
 30
0.000000
  70
    32
  0
VERTEX
  8
0
  5
8000022C
 10
27.5289
 20
-36.4024
 30
0.000000
  70
    32
  0
VERTEX
  8
0
  5
8000022D
 10
27.5647
 20
-36.4656
 30
0.000000
  70
    32
  0
VERTEX
  8
0
  5
8000022E
 10
27.6005
 20
-36.5289
 30
0.000000
  70
    32
  0
VERTEX
  8
0
  5
8000022F
 10
27.6362
 20
-36.5923
 30
0.000000
  70
    32
  0
VERTEX
  8
0
  5
80000230
 10
27.6720
 20
-36.6557
 30
0.000000
  70
    32
  0
VERTEX
  8
0
  5
80000231
 10
27.7077
 20
-36.7192
 30
0.000000
  70
    32
  0
VERTEX
  8
0
  5
80000232
 10
27.7434
 20
-36.7827
 30
0.000000
  70
    32
  0
VERTEX
  8
0
  5
80000233
 10
27.7791
 20
-36.8462
 30
0.000000
  70
    32
  0
VERTEX
  8
0
  5
80000234
 10
27.8148
 20
-36.9097
 30
0.000000
  70
    32
  0
VERTEX
  8
0
  5
80000235
 10
27.8505
 20
-36.9732
 30
0.000000
  70
    32
  0
VERTEX
  8
0
  5
80000236
 10
27.8862
 20
-37.0366
 30
0.000000
  70
    32
  0
VERTEX
  8
0
  5
80000237
 10
27.9220
 20
-37.1000
 30
0.000000
  70
    32
  0
VERTEX
  8
0
  5
80000238
 10
27.9578
 20
-37.1632
 30
0.000000
  70
    32
  0
VERTEX
  8
0
  5
80000239
 10
27.9937
 20
-37.2264
 30
0.000000
  70
    32
  0
VERTEX
  8
0
  5
8000023A
 10
28.0296
 20
-37.2895
 30
0.000000
  70
    32
  0
VERTEX
  8
0
  5
8000023B
 10
28.0655
 20
-37.3524
 30
0.000000
  70
    32
  0
VERTEX
  8
0
  5
8000023C
 10
28.1015
 20
-37.4152
 30
0.000000
  70
    32
  0
VERTEX
  8
0
  5
8000023D
 10
28.1377
 20
-37.4778
 30
0.000000
  70
    32
  0
VERTEX
  8
0
  5
8000023E
 10
28.1738
 20
-37.5402
 30
0.000000
  70
    32
  0
VERTEX
  8
0
  5
8000023F
 10
28.2101
 20
-37.6024
 30
0.000000
  70
    32
  0
VERTEX
  8
0
  5
80000240
 10
28.2465
 20
-37.6643
 30
0.000000
  70
    32
  0
VERTEX
  8
0
  5
80000241
 10
28.2830
 20
-37.7261
 30
0.000000
  70
    32
  0
VERTEX
  8
0
  5
80000242
 10
28.3196
 20
-37.7875
 30
0.000000
  70
    32
  0
VERTEX
  8
0
  5
80000243
 10
28.3563
 20
-37.8487
 30
0.000000
  70
    32
  0
VERTEX
  8
0
  5
80000244
 10
28.3932
 20
-37.9096
 30
0.000000
  70
    32
  0
VERTEX
  8
0
  5
80000245
 10
28.4302
 20
-37.9702
 30
0.000000
  70
    32
  0
VERTEX
  8
0
  5
80000246
 10
28.4674
 20
-38.0305
 30
0.000000
  70
    32
  0
VERTEX
  8
0
  5
80000247
 10
28.5047
 20
-38.0904
 30
0.000000
  70
    32
  0
VERTEX
  8
0
  5
80000248
 10
28.5421
 20
-38.1499
 30
0.000000
  70
    32
  0
VERTEX
  8
0
  5
80000249
 10
28.5798
 20
-38.2091
 30
0.000000
  70
    32
  0
VERTEX
  8
0
  5
8000024A
 10
28.6176
 20
-38.2679
 30
0.000000
  70
    32
  0
VERTEX
  8
0
  5
8000024B
 10
28.6556
 20
-38.3262
 30
0.000000
  70
    32
  0
VERTEX
  8
0
  5
8000024C
 10
28.6938
 20
-38.3841
 30
0.000000
  70
    32
  0
VERTEX
  8
0
  5
8000024D
 10
28.7322
 20
-38.4415
 30
0.000000
  70
    32
  0
VERTEX
  8
0
  5
8000024E
 10
28.7708
 20
-38.4985
 30
0.000000
  70
    32
  0
VERTEX
  8
0
  5
8000024F
 10
28.8097
 20
-38.5550
 30
0.000000
  70
    32
  0
VERTEX
  8
0
  5
80000250
 10
28.8487
 20
-38.6110
 30
0.000000
  70
    32
  0
VERTEX
  8
0
  5
80000251
 10
28.8880
 20
-38.6664
 30
0.000000
  70
    32
  0
VERTEX
  8
0
  5
80000252
 10
28.9275
 20
-38.7213
 30
0.000000
  70
    32
  0
VERTEX
  8
0
  5
80000253
 10
28.9673
 20
-38.7757
 30
0.000000
  70
    32
  0
VERTEX
  8
0
  5
80000254
 10
29.0074
 20
-38.8294
 30
0.000000
  70
    32
  0
VERTEX
  8
0
  5
80000255
 10
29.0477
 20
-38.8826
 30
0.000000
  70
    32
  0
VERTEX
  8
0
  5
80000256
 10
29.0883
 20
-38.9352
 30
0.000000
  70
    32
  0
VERTEX
  8
0
  5
80000257
 10
29.1291
 20
-38.9871
 30
0.000000
  70
    32
  0
VERTEX
  8
0
  5
80000258
 10
29.1703
 20
-39.0384
 30
0.000000
  70
    32
  0
VERTEX
  8
0
  5
80000259
 10
29.2118
 20
-39.0890
 30
0.000000
  70
    32
  0
VERTEX
  8
0
  5
8000025A
 10
29.2535
 20
-39.1389
 30
0.000000
  70
    32
  0
VERTEX
  8
0
  5
8000025B
 10
29.2956
 20
-39.1881
 30
0.000000
  70
    32
  0
VERTEX
  8
0
  5
8000025C
 10
29.3380
 20
-39.2366
 30
0.000000
  70
    32
  0
VERTEX
  8
0
  5
8000025D
 10
29.3807
 20
-39.2844
 30
0.000000
  70
    32
  0
VERTEX
  8
0
  5
8000025E
 10
29.4238
 20
-39.3314
 30
0.000000
  70
    32
  0
VERTEX
  8
0
  5
8000025F
 10
29.4672
 20
-39.3776
 30
0.000000
  70
    32
  0
VERTEX
  8
0
  5
80000260
 10
29.5109
 20
-39.4230
 30
0.000000
  70
    32
  0
VERTEX
  8
0
  5
80000261
 10
29.5551
 20
-39.4677
 30
0.000000
  70
    32
  0
VERTEX
  8
0
  5
80000262
 10
29.5995
 20
-39.5115
 30
0.000000
  70
    32
  0
VERTEX
  8
0
  5
80000263
 10
29.6444
 20
-39.5544
 30
0.000000
  70
    32
  0
VERTEX
  8
0
  5
80000264
 10
29.6897
 20
-39.5965
 30
0.000000
  70
    32
  0
VERTEX
  8
0
  5
80000265
 10
29.7353
 20
-39.6377
 30
0.000000
  70
    32
  0
VERTEX
  8
0
  5
80000266
 10
29.7813
 20
-39.6780
 30
0.000000
  70
    32
  0
VERTEX
  8
0
  5
80000267
 10
29.8278
 20
-39.7174
 30
0.000000
  70
    32
  0
VERTEX
  8
0
  5
80000268
 10
29.8747
 20
-39.7559
 30
0.000000
  70
    32
  0
VERTEX
  8
0
  5
80000269
 10
29.9220
 20
-39.7934
 30
0.000000
  70
    32
  0
VERTEX
  8
0
  5
8000026A
 10
29.9697
 20
-39.8300
 30
0.000000
  70
    32
  0
VERTEX
  8
0
  5
8000026B
 10
30.0178
 20
-39.8655
 30
0.000000
  70
    32
  0
VERTEX
  8
0
  5
8000026C
 10
30.0665
 20
-39.9001
 30
0.000000
  70
    32
  0
VERTEX
  8
0
  5
8000026D
 10
30.1155
 20
-39.9336
 30
0.000000
  70
    32
  0
VERTEX
  8
0
  5
8000026E
 10
30.1651
 20
-39.9661
 30
0.000000
  70
    32
  0
VERTEX
  8
0
  5
8000026F
 10
30.2151
 20
-39.9976
 30
0.000000
  70
    32
  0
VERTEX
  8
0
  5
80000270
 10
30.2655
 20
-40.0279
 30
0.000000
  70
    32
  0
VERTEX
  8
0
  5
80000271
 10
30.3165
 20
-40.0572
 30
0.000000
  70
    32
  0
VERTEX
  8
0
  5
80000272
 10
30.3680
 20
-40.0853
 30
0.000000
  70
    32
  0
VERTEX
  8
0
  5
80000273
 10
30.4199
 20
-40.1124
 30
0.000000
  70
    32
  0
VERTEX
  8
0
  5
80000274
 10
30.4724
 20
-40.1383
 30
0.000000
  70
    32
  0
VERTEX
  8
0
  5
80000275
 10
30.5254
 20
-40.1630
 30
0.000000
  70
    32
  0
VERTEX
  8
0
  5
80000276
 10
30.5790
 20
-40.1865
 30
0.000000
  70
    32
  0
VERTEX
  8
0
  5
80000277
 10
30.6330
 20
-40.2089
 30
0.000000
  70
    32
  0
VERTEX
  8
0
  5
80000278
 10
30.6876
 20
-40.2300
 30
0.000000
  70
    32
  0
VERTEX
  8
0
  5
80000279
 10
30.7428
 20
-40.2499
 30
0.000000
  70
    32
  0
VERTEX
  8
0
  5
8000027A
 10
30.7985
 20
-40.2685
 30
0.000000
  70
    32
  0
VERTEX
  8
0
  5
8000027B
 10
30.8548
 20
-40.2859
 30
0.000000
  70
    32
  0
VERTEX
  8
0
  5
8000027C
 10
30.9116
 20
-40.3020
 30
0.000000
  70
    32
  0
VERTEX
  8
0
  5
8000027D
 10
30.9690
 20
-40.3168
 30
0.000000
  70
    32
  0
VERTEX
  8
0
  5
8000027E
 10
31.0271
 20
-40.3302
 30
0.000000
  70
    32
  0
VERTEX
  8
0
  5
8000027F
 10
31.0857
 20
-40.3423
 30
0.000000
  70
    32
  0
VERTEX
  8
0
  5
80000280
 10
31.1449
 20
-40.3531
 30
0.000000
  70
    32
  0
VERTEX
  8
0
  5
80000281
 10
31.2048
 20
-40.3624
 30
0.000000
  70
    32
  0
VERTEX
  8
0
  5
80000282
 10
31.2652
 20
-40.3704
 30
0.000000
  70
    32
  0
VERTEX
  8
0
  5
80000283
 10
31.3263
 20
-40.3770
 30
0.000000
  70
    32
  0
VERTEX
  8
0
  5
80000284
 10
31.3881
 20
-40.3821
 30
0.000000
  70
    32
  0
VERTEX
  8
0
  5
80000285
 10
31.4504
 20
-40.3858
 30
0.000000
  70
    32
  0
VERTEX
  8
0
  5
80000286
 10
31.5135
 20
-40.3881
 30
0.000000
  70
    32
  0
VERTEX
  8
0
  5
80000287
 10
31.5772
 20
-40.3888
 30
0.000000
  70
    32
  0
SEQEND
  8
0
  5
80000288
  0
ENDBLK
  5
FFBBDAE469BC05BC
  8
0
  0
BLOCK
  8
0
  2
*U18
 70
     1
 10
0.0
 20
0.0
 30
0.0
  3
*U18
  1

  0
TEXT
  5
FFBBDAE469BC05BE
  8
0
  6
CONTINUOUS
 10
32.451643639669577
 20
-41.111871494182139
 30
0.0
 40
2.0
  1
Selected coating
  7
ARIAL
  0
ENDBLK
  5
FFBBDAE469BC05C0
  8
0
  0
BLOCK
  8
0
  2
*U19
 70
     1
 10
0.0
 20
0.0
 30
0.0
  3
*U19
  1

  0
SOLID
  5
FFBBDAE469BC05C2
  8
0
  6
CONTINUOUS
 10
13.60725797439415
 20
-29.616006280433691
 30
0.0
 11
14.787573992311991
 21
-28.22429722396874
 31
0.0
 12
14.122423939621591
 22
-29.923583958868399
 32
0.0
 13
14.122423939621591
 23
-29.923583958868399
 33
0.0
  0
POLYLINE
  8
0
  5
80000289
  66
     1
 10
0.000000
 20
0.000000
 30
0.000000
  70
     8
  0
VERTEX
  8
0
  5
8000028A
 10
13.8648
 20
-29.7698
 30
0.000000
  70
    32
  0
VERTEX
  8
0
  5
8000028B
 10
13.8017
 20
-29.8772
 30
0.000000
  70
    32
  0
VERTEX
  8
0
  5
8000028C
 10
13.7394
 20
-29.9863
 30
0.000000
  70
    32
  0
VERTEX
  8
0
  5
8000028D
 10
13.6781
 20
-30.0969
 30
0.000000
  70
    32
  0
VERTEX
  8
0
  5
8000028E
 10
13.6177
 20
-30.2091
 30
0.000000
  70
    32
  0
VERTEX
  8
0
  5
8000028F
 10
13.5581
 20
-30.3229
 30
0.000000
  70
    32
  0
VERTEX
  8
0
  5
80000290
 10
13.4994
 20
-30.4381
 30
0.000000
  70
    32
  0
VERTEX
  8
0
  5
80000291
 10
13.4414
 20
-30.5548
 30
0.000000
  70
    32
  0
VERTEX
  8
0
  5
80000292
 10
13.3843
 20
-30.6728
 30
0.000000
  70
    32
  0
VERTEX
  8
0
  5
80000293
 10
13.3280
 20
-30.7922
 30
0.000000
  70
    32
  0
VERTEX
  8
0
  5
80000294
 10
13.2724
 20
-30.9130
 30
0.000000
  70
    32
  0
VERTEX
  8
0
  5
80000295
 10
13.2175
 20
-31.0350
 30
0.000000
  70
    32
  0
VERTEX
  8
0
  5
80000296
 10
13.1633
 20
-31.1583
 30
0.000000
  70
    32
  0
VERTEX
  8
0
  5
80000297
 10
13.1098
 20
-31.2827
 30
0.000000
  70
    32
  0
VERTEX
  8
0
  5
80000298
 10
13.0570
 20
-31.4084
 30
0.000000
  70
    32
  0
VERTEX
  8
0
  5
80000299
 10
13.0048
 20
-31.5351
 30
0.000000
  70
    32
  0
VERTEX
  8
0
  5
8000029A
 10
12.9532
 20
-31.6629
 30
0.000000
  70
    32
  0
VERTEX
  8
0
  5
8000029B
 10
12.9023
 20
-31.7918
 30
0.000000
  70
    32
  0
VERTEX
  8
0
  5
8000029C
 10
12.8519
 20
-31.9217
 30
0.000000
  70
    32
  0
VERTEX
  8
0
  5
8000029D
 10
12.8020
 20
-32.0526
 30
0.000000
  70
    32
  0
VERTEX
  8
0
  5
8000029E
 10
12.7527
 20
-32.1843
 30
0.000000
  70
    32
  0
VERTEX
  8
0
  5
8000029F
 10
12.7038
 20
-32.3170
 30
0.000000
  70
    32
  0
VERTEX
  8
0
  5
800002A0
 10
12.6555
 20
-32.4505
 30
0.000000
  70
    32
  0
VERTEX
  8
0
  5
800002A1
 10
12.6076
 20
-32.5848
 30
0.000000
  70
    32
  0
VERTEX
  8
0
  5
800002A2
 10
12.5601
 20
-32.7199
 30
0.000000
  70
    32
  0
VERTEX
  8
0
  5
800002A3
 10
12.5131
 20
-32.8557
 30
0.000000
  70
    32
  0
VERTEX
  8
0
  5
800002A4
 10
12.4664
 20
-32.9922
 30
0.000000
  70
    32
  0
VERTEX
  8
0
  5
800002A5
 10
12.4201
 20
-33.1294
 30
0.000000
  70
    32
  0
VERTEX
  8
0
  5
800002A6
 10
12.3742
 20
-33.2671
 30
0.000000
  70
    32
  0
VERTEX
  8
0
  5
800002A7
 10
12.3285
 20
-33.4054
 30
0.000000
  70
    32
  0
VERTEX
  8
0
  5
800002A8
 10
12.2832
 20
-33.5443
 30
0.000000
  70
    32
  0
VERTEX
  8
0
  5
800002A9
 10
12.2382
 20
-33.6836
 30
0.000000
  70
    32
  0
VERTEX
  8
0
  5
800002AA
 10
12.1934
 20
-33.8234
 30
0.000000
  70
    32
  0
VERTEX
  8
0
  5
800002AB
 10
12.1488
 20
-33.9636
 30
0.000000
  70
    32
  0
VERTEX
  8
0
  5
800002AC
 10
12.1045
 20
-34.1042
 30
0.000000
  70
    32
  0
VERTEX
  8
0
  5
800002AD
 10
12.0603
 20
-34.2450
 30
0.000000
  70
    32
  0
VERTEX
  8
0
  5
800002AE
 10
12.0163
 20
-34.3862
 30
0.000000
  70
    32
  0
VERTEX
  8
0
  5
800002AF
 10
11.9725
 20
-34.5277
 30
0.000000
  70
    32
  0
VERTEX
  8
0
  5
800002B0
 10
11.9287
 20
-34.6693
 30
0.000000
  70
    32
  0
VERTEX
  8
0
  5
800002B1
 10
11.8851
 20
-34.8111
 30
0.000000
  70
    32
  0
VERTEX
  8
0
  5
800002B2
 10
11.8415
 20
-34.9531
 30
0.000000
  70
    32
  0
VERTEX
  8
0
  5
800002B3
 10
11.7980
 20
-35.0951
 30
0.000000
  70
    32
  0
VERTEX
  8
0
  5
800002B4
 10
11.7545
 20
-35.2372
 30
0.000000
  70
    32
  0
VERTEX
  8
0
  5
800002B5
 10
11.7111
 20
-35.3794
 30
0.000000
  70
    32
  0
VERTEX
  8
0
  5
800002B6
 10
11.6676
 20
-35.5214
 30
0.000000
  70
    32
  0
VERTEX
  8
0
  5
800002B7
 10
11.6241
 20
-35.6635
 30
0.000000
  70
    32
  0
VERTEX
  8
0
  5
800002B8
 10
11.5805
 20
-35.8054
 30
0.000000
  70
    32
  0
VERTEX
  8
0
  5
800002B9
 10
11.5368
 20
-35.9471
 30
0.000000
  70
    32
  0
VERTEX
  8
0
  5
800002BA
 10
11.4930
 20
-36.0887
 30
0.000000
  70
    32
  0
VERTEX
  8
0
  5
800002BB
 10
11.4491
 20
-36.2301
 30
0.000000
  70
    32
  0
VERTEX
  8
0
  5
800002BC
 10
11.4051
 20
-36.3712
 30
0.000000
  70
    32
  0
VERTEX
  8
0
  5
800002BD
 10
11.3609
 20
-36.5120
 30
0.000000
  70
    32
  0
VERTEX
  8
0
  5
800002BE
 10
11.3165
 20
-36.6524
 30
0.000000
  70
    32
  0
VERTEX
  8
0
  5
800002BF
 10
11.2718
 20
-36.7925
 30
0.000000
  70
    32
  0
VERTEX
  8
0
  5
800002C0
 10
11.2270
 20
-36.9321
 30
0.000000
  70
    32
  0
VERTEX
  8
0
  5
800002C1
 10
11.1818
 20
-37.0713
 30
0.000000
  70
    32
  0
VERTEX
  8
0
  5
800002C2
 10
11.1364
 20
-37.2100
 30
0.000000
  70
    32
  0
VERTEX
  8
0
  5
800002C3
 10
11.0907
 20
-37.3481
 30
0.000000
  70
    32
  0
VERTEX
  8
0
  5
800002C4
 10
11.0446
 20
-37.4857
 30
0.000000
  70
    32
  0
VERTEX
  8
0
  5
800002C5
 10
10.9982
 20
-37.6226
 30
0.000000
  70
    32
  0
VERTEX
  8
0
  5
800002C6
 10
10.9514
 20
-37.7589
 30
0.000000
  70
    32
  0
VERTEX
  8
0
  5
800002C7
 10
10.9042
 20
-37.8944
 30
0.000000
  70
    32
  0
VERTEX
  8
0
  5
800002C8
 10
10.8566
 20
-38.0293
 30
0.000000
  70
    32
  0
VERTEX
  8
0
  5
800002C9
 10
10.8086
 20
-38.1633
 30
0.000000
  70
    32
  0
VERTEX
  8
0
  5
800002CA
 10
10.7601
 20
-38.2965
 30
0.000000
  70
    32
  0
VERTEX
  8
0
  5
800002CB
 10
10.7111
 20
-38.4289
 30
0.000000
  70
    32
  0
VERTEX
  8
0
  5
800002CC
 10
10.6615
 20
-38.5604
 30
0.000000
  70
    32
  0
VERTEX
  8
0
  5
800002CD
 10
10.6115
 20
-38.6909
 30
0.000000
  70
    32
  0
VERTEX
  8
0
  5
800002CE
 10
10.5609
 20
-38.8205
 30
0.000000
  70
    32
  0
VERTEX
  8
0
  5
800002CF
 10
10.5097
 20
-38.9490
 30
0.000000
  70
    32
  0
VERTEX
  8
0
  5
800002D0
 10
10.4580
 20
-39.0765
 30
0.000000
  70
    32
  0
VERTEX
  8
0
  5
800002D1
 10
10.4056
 20
-39.2029
 30
0.000000
  70
    32
  0
VERTEX
  8
0
  5
800002D2
 10
10.3525
 20
-39.3281
 30
0.000000
  70
    32
  0
VERTEX
  8
0
  5
800002D3
 10
10.2988
 20
-39.4522
 30
0.000000
  70
    32
  0
VERTEX
  8
0
  5
800002D4
 10
10.2444
 20
-39.5751
 30
0.000000
  70
    32
  0
VERTEX
  8
0
  5
800002D5
 10
10.1893
 20
-39.6967
 30
0.000000
  70
    32
  0
VERTEX
  8
0
  5
800002D6
 10
10.1334
 20
-39.8170
 30
0.000000
  70
    32
  0
VERTEX
  8
0
  5
800002D7
 10
10.0768
 20
-39.9359
 30
0.000000
  70
    32
  0
VERTEX
  8
0
  5
800002D8
 10
10.0194
 20
-40.0535
 30
0.000000
  70
    32
  0
VERTEX
  8
0
  5
800002D9
 10
9.96126
 20
-40.1697
 30
0.000000
  70
    32
  0
VERTEX
  8
0
  5
800002DA
 10
9.90224
 20
-40.2844
 30
0.000000
  70
    32
  0
VERTEX
  8
0
  5
800002DB
 10
9.84238
 20
-40.3977
 30
0.000000
  70
    32
  0
VERTEX
  8
0
  5
800002DC
 10
9.78165
 20
-40.5094
 30
0.000000
  70
    32
  0
VERTEX
  8
0
  5
800002DD
 10
9.72002
 20
-40.6195
 30
0.000000
  70
    32
  0
VERTEX
  8
0
  5
800002DE
 10
9.65748
 20
-40.7280
 30
0.000000
  70
    32
  0
VERTEX
  8
0
  5
800002DF
 10
9.59400
 20
-40.8349
 30
0.000000
  70
    32
  0
VERTEX
  8
0
  5
800002E0
 10
9.52956
 20
-40.9400
 30
0.000000
  70
    32
  0
VERTEX
  8
0
  5
800002E1
 10
9.46414
 20
-41.0435
 30
0.000000
  70
    32
  0
VERTEX
  8
0
  5
800002E2
 10
9.39771
 20
-41.1451
 30
0.000000
  70
    32
  0
VERTEX
  8
0
  5
800002E3
 10
9.33026
 20
-41.2450
 30
0.000000
  70
    32
  0
VERTEX
  8
0
  5
800002E4
 10
9.26175
 20
-41.3430
 30
0.000000
  70
    32
  0
VERTEX
  8
0
  5
800002E5
 10
9.19217
 20
-41.4391
 30
0.000000
  70
    32
  0
VERTEX
  8
0
  5
800002E6
 10
9.12150
 20
-41.5333
 30
0.000000
  70
    32
  0
VERTEX
  8
0
  5
800002E7
 10
9.04971
 20
-41.6255
 30
0.000000
  70
    32
  0
VERTEX
  8
0
  5
800002E8
 10
8.97678
 20
-41.7158
 30
0.000000
  70
    32
  0
VERTEX
  8
0
  5
800002E9
 10
8.90268
 20
-41.8039
 30
0.000000
  70
    32
  0
VERTEX
  8
0
  5
800002EA
 10
8.82740
 20
-41.8900
 30
0.000000
  70
    32
  0
VERTEX
  8
0
  5
800002EB
 10
8.75091
 20
-41.9739
 30
0.000000
  70
    32
  0
VERTEX
  8
0
  5
800002EC
 10
8.67320
 20
-42.0557
 30
0.000000
  70
    32
  0
VERTEX
  8
0
  5
800002ED
 10
8.59422
 20
-42.1353
 30
0.000000
  70
    32
  0
VERTEX
  8
0
  5
800002EE
 10
8.51398
 20
-42.2126
 30
0.000000
  70
    32
  0
VERTEX
  8
0
  5
800002EF
 10
8.43243
 20
-42.2876
 30
0.000000
  70
    32
  0
VERTEX
  8
0
  5
800002F0
 10
8.34957
 20
-42.3604
 30
0.000000
  70
    32
  0
VERTEX
  8
0
  5
800002F1
 10
8.26536
 20
-42.4307
 30
0.000000
  70
    32
  0
VERTEX
  8
0
  5
800002F2
 10
8.17979
 20
-42.4986
 30
0.000000
  70
    32
  0
VERTEX
  8
0
  5
800002F3
 10
8.09283
 20
-42.5641
 30
0.000000
  70
    32
  0
VERTEX
  8
0
  5
800002F4
 10
8.00446
 20
-42.6271
 30
0.000000
  70
    32
  0
VERTEX
  8
0
  5
800002F5
 10
7.91465
 20
-42.6876
 30
0.000000
  70
    32
  0
VERTEX
  8
0
  5
800002F6
 10
7.82340
 20
-42.7456
 30
0.000000
  70
    32
  0
VERTEX
  8
0
  5
800002F7
 10
7.73066
 20
-42.8009
 30
0.000000
  70
    32
  0
VERTEX
  8
0
  5
800002F8
 10
7.63642
 20
-42.8535
 30
0.000000
  70
    32
  0
VERTEX
  8
0
  5
800002F9
 10
7.54066
 20
-42.9035
 30
0.000000
  70
    32
  0
VERTEX
  8
0
  5
800002FA
 10
7.44335
 20
-42.9508
 30
0.000000
  70
    32
  0
VERTEX
  8
0
  5
800002FB
 10
7.34448
 20
-42.9953
 30
0.000000
  70
    32
  0
VERTEX
  8
0
  5
800002FC
 10
7.24402
 20
-43.0370
 30
0.000000
  70
    32
  0
VERTEX
  8
0
  5
800002FD
 10
7.14194
 20
-43.0759
 30
0.000000
  70
    32
  0
VERTEX
  8
0
  5
800002FE
 10
7.03822
 20
-43.1119
 30
0.000000
  70
    32
  0
VERTEX
  8
0
  5
800002FF
 10
6.93285
 20
-43.1449
 30
0.000000
  70
    32
  0
VERTEX
  8
0
  5
80000300
 10
6.82580
 20
-43.1750
 30
0.000000
  70
    32
  0
VERTEX
  8
0
  5
80000301
 10
6.71705
 20
-43.2021
 30
0.000000
  70
    32
  0
VERTEX
  8
0
  5
80000302
 10
6.60657
 20
-43.2262
 30
0.000000
  70
    32
  0
VERTEX
  8
0
  5
80000303
 10
6.49434
 20
-43.2472
 30
0.000000
  70
    32
  0
VERTEX
  8
0
  5
80000304
 10
6.38034
 20
-43.2650
 30
0.000000
  70
    32
  0
VERTEX
  8
0
  5
80000305
 10
6.26455
 20
-43.2797
 30
0.000000
  70
    32
  0
VERTEX
  8
0
  5
80000306
 10
6.14694
 20
-43.2912
 30
0.000000
  70
    32
  0
VERTEX
  8
0
  5
80000307
 10
6.02750
 20
-43.2995
 30
0.000000
  70
    32
  0
VERTEX
  8
0
  5
80000308
 10
5.90619
 20
-43.3045
 30
0.000000
  70
    32
  0
VERTEX
  8
0
  5
80000309
 10
5.78301
 20
-43.3062
 30
0.000000
  70
    32
  0
SEQEND
  8
0
  5
8000030A
  0
ENDBLK
  5
FFBBDAE469BC05C5
  8
0
  0
BLOCK
  8
0
  2
*U20
 70
     1
 10
0.0
 20
0.0
 30
0.0
  3
*U20
  1

  0
TEXT
  5
FFBBDAE469BC05C7
  8
0
  6
CONTINUOUS
 10
-15.76133256375463
 20
-44.012171635618493
 30
0.0
 40
2.0
  1
EasyLap
  7
ARIAL
  0
TEXT
  5
FFBBDAE469BC05C8
  8
0
  6
CONTINUOUS
 10
-4.9209505719401729
 20
-42.845504968951829
 30
0.0
 40
1.0
  1
TM
  7
ARIAL
  0
TEXT
  5
FFBBDAE469BC05C9
  8
0
  6
CONTINUOUS
 10
-4.8882084164149351
 20
-43.178838302285158
 30
0.0
 40
1.0
  1

  7
ARIAL
  0
TEXT
  5
FFBBDAE469BC05CA
  8
0
  6
CONTINUOUS
 10
-2.942778675623666
 20
-44.012171635618493
 30
0.0
 40
2.0
  1
 Panel
  7
ARIAL
  0
ENDBLK
  5
FFBBDAE469BC05CC
  8
0
  0
BLOCK
  8
0
  2
*U21
 70
     1
 10
0.0
 20
0.0
 30
0.0
  3
*U21
  1

  0
SOLID
  5
FFBBDAE469BC05CE
  8
0
  6
CONTINUOUS
 10
-28.979249686473342
 20
-17.644344085204661
 30
0.0
 11
-28.471287809207752
 21
-15.891639109675451
 31
0.0
 12
-28.383347430773831
 22
-17.714347668343262
 32
0.0
 13
-28.383347430773831
 23
-17.714347668343262
 33
0.0
  0
POLYLINE
  8
0
  5
8000030B
  66
     1
 10
0.000000
 20
0.000000
 30
0.000000
  70
     8
  0
VERTEX
  8
0
  5
8000030C
 10
-28.6813
 20
-17.6793
 30
0.000000
  70
    32
  0
VERTEX
  8
0
  5
8000030D
 10
-28.7043
 20
-17.8886
 30
0.000000
  70
    32
  0
VERTEX
  8
0
  5
8000030E
 10
-28.7244
 20
-18.1011
 30
0.000000
  70
    32
  0
VERTEX
  8
0
  5
8000030F
 10
-28.7417
 20
-18.3167
 30
0.000000
  70
    32
  0
VERTEX
  8
0
  5
80000310
 10
-28.7563
 20
-18.5354
 30
0.000000
  70
    32
  0
VERTEX
  8
0
  5
80000311
 10
-28.7684
 20
-18.7570
 30
0.000000
  70
    32
  0
VERTEX
  8
0
  5
80000312
 10
-28.7778
 20
-18.9814
 30
0.000000
  70
    32
  0
VERTEX
  8
0
  5
80000313
 10
-28.7847
 20
-19.2087
 30
0.000000
  70
    32
  0
VERTEX
  8
0
  5
80000314
 10
-28.7893
 20
-19.4388
 30
0.000000
  70
    32
  0
VERTEX
  8
0
  5
80000315
 10
-28.7914
 20
-19.6714
 30
0.000000
  70
    32
  0
VERTEX
  8
0
  5
80000316
 10
-28.7913
 20
-19.9067
 30
0.000000
  70
    32
  0
VERTEX
  8
0
  5
80000317
 10
-28.7889
 20
-20.1444
 30
0.000000
  70
    32
  0
VERTEX
  8
0
  5
80000318
 10
-28.7844
 20
-20.3846
 30
0.000000
  70
    32
  0
VERTEX
  8
0
  5
80000319
 10
-28.7778
 20
-20.6271
 30
0.000000
  70
    32
  0
VERTEX
  8
0
  5
8000031A
 10
-28.7692
 20
-20.8719
 30
0.000000
  70
    32
  0
VERTEX
  8
0
  5
8000031B
 10
-28.7587
 20
-21.1188
 30
0.000000
  70
    32
  0
VERTEX
  8
0
  5
8000031C
 10
-28.7462
 20
-21.3679
 30
0.000000
  70
    32
  0
VERTEX
  8
0
  5
8000031D
 10
-28.7320
 20
-21.6190
 30
0.000000
  70
    32
  0
VERTEX
  8
0
  5
8000031E
 10
-28.7160
 20
-21.8721
 30
0.000000
  70
    32
  0
VERTEX
  8
0
  5
8000031F
 10
-28.6983
 20
-22.1270
 30
0.000000
  70
    32
  0
VERTEX
  8
0
  5
80000320
 10
-28.6791
 20
-22.3838
 30
0.000000
  70
    32
  0
VERTEX
  8
0
  5
80000321
 10
-28.6583
 20
-22.6423
 30
0.000000
  70
    32
  0
VERTEX
  8
0
  5
80000322
 10
-28.6360
 20
-22.9024
 30
0.000000
  70
    32
  0
VERTEX
  8
0
  5
80000323
 10
-28.6124
 20
-23.1641
 30
0.000000
  70
    32
  0
VERTEX
  8
0
  5
80000324
 10
-28.5874
 20
-23.4273
 30
0.000000
  70
    32
  0
VERTEX
  8
0
  5
80000325
 10
-28.5612
 20
-23.6919
 30
0.000000
  70
    32
  0
VERTEX
  8
0
  5
80000326
 10
-28.5337
 20
-23.9578
 30
0.000000
  70
    32
  0
VERTEX
  8
0
  5
80000327
 10
-28.5052
 20
-24.2250
 30
0.000000
  70
    32
  0
VERTEX
  8
0
  5
80000328
 10
-28.4756
 20
-24.4934
 30
0.000000
  70
    32
  0
VERTEX
  8
0
  5
80000329
 10
-28.4450
 20
-24.7629
 30
0.000000
  70
    32
  0
VERTEX
  8
0
  5
8000032A
 10
-28.4135
 20
-25.0334
 30
0.000000
  70
    32
  0
VERTEX
  8
0
  5
8000032B
 10
-28.3811
 20
-25.3049
 30
0.000000
  70
    32
  0
VERTEX
  8
0
  5
8000032C
 10
-28.3480
 20
-25.5773
 30
0.000000
  70
    32
  0
VERTEX
  8
0
  5
8000032D
 10
-28.3141
 20
-25.8504
 30
0.000000
  70
    32
  0
VERTEX
  8
0
  5
8000032E
 10
-28.2796
 20
-26.1243
 30
0.000000
  70
    32
  0
VERTEX
  8
0
  5
8000032F
 10
-28.2446
 20
-26.3988
 30
0.000000
  70
    32
  0
VERTEX
  8
0
  5
80000330
 10
-28.2090
 20
-26.6739
 30
0.000000
  70
    32
  0
VERTEX
  8
0
  5
80000331
 10
-28.1730
 20
-26.9495
 30
0.000000
  70
    32
  0
VERTEX
  8
0
  5
80000332
 10
-28.1366
 20
-27.2255
 30
0.000000
  70
    32
  0
VERTEX
  8
0
  5
80000333
 10
-28.1000
 20
-27.5018
 30
0.000000
  70
    32
  0
VERTEX
  8
0
  5
80000334
 10
-28.0631
 20
-27.7784
 30
0.000000
  70
    32
  0
VERTEX
  8
0
  5
80000335
 10
-28.0260
 20
-28.0551
 30
0.000000
  70
    32
  0
VERTEX
  8
0
  5
80000336
 10
-27.9889
 20
-28.3320
 30
0.000000
  70
    32
  0
VERTEX
  8
0
  5
80000337
 10
-27.9517
 20
-28.6089
 30
0.000000
  70
    32
  0
VERTEX
  8
0
  5
80000338
 10
-27.9146
 20
-28.8857
 30
0.000000
  70
    32
  0
VERTEX
  8
0
  5
80000339
 10
-27.8776
 20
-29.1624
 30
0.000000
  70
    32
  0
VERTEX
  8
0
  5
8000033A
 10
-27.8408
 20
-29.4389
 30
0.000000
  70
    32
  0
VERTEX
  8
0
  5
8000033B
 10
-27.8042
 20
-29.7151
 30
0.000000
  70
    32
  0
VERTEX
  8
0
  5
8000033C
 10
-27.7679
 20
-29.9910
 30
0.000000
  70
    32
  0
VERTEX
  8
0
  5
8000033D
 10
-27.7321
 20
-30.2664
 30
0.000000
  70
    32
  0
VERTEX
  8
0
  5
8000033E
 10
-27.6967
 20
-30.5413
 30
0.000000
  70
    32
  0
VERTEX
  8
0
  5
8000033F
 10
-27.6618
 20
-30.8156
 30
0.000000
  70
    32
  0
VERTEX
  8
0
  5
80000340
 10
-27.6275
 20
-31.0893
 30
0.000000
  70
    32
  0
VERTEX
  8
0
  5
80000341
 10
-27.5939
 20
-31.3622
 30
0.000000
  70
    32
  0
VERTEX
  8
0
  5
80000342
 10
-27.5610
 20
-31.6342
 30
0.000000
  70
    32
  0
VERTEX
  8
0
  5
80000343
 10
-27.5289
 20
-31.9054
 30
0.000000
  70
    32
  0
VERTEX
  8
0
  5
80000344
 10
-27.4977
 20
-32.1756
 30
0.000000
  70
    32
  0
VERTEX
  8
0
  5
80000345
 10
-27.4675
 20
-32.4447
 30
0.000000
  70
    32
  0
VERTEX
  8
0
  5
80000346
 10
-27.4382
 20
-32.7128
 30
0.000000
  70
    32
  0
VERTEX
  8
0
  5
80000347
 10
-27.4100
 20
-32.9795
 30
0.000000
  70
    32
  0
VERTEX
  8
0
  5
80000348
 10
-27.3830
 20
-33.2451
 30
0.000000
  70
    32
  0
VERTEX
  8
0
  5
80000349
 10
-27.3571
 20
-33.5092
 30
0.000000
  70
    32
  0
VERTEX
  8
0
  5
8000034A
 10
-27.3326
 20
-33.7719
 30
0.000000
  70
    32
  0
VERTEX
  8
0
  5
8000034B
 10
-27.3094
 20
-34.0331
 30
0.000000
  70
    32
  0
VERTEX
  8
0
  5
8000034C
 10
-27.2876
 20
-34.2927
 30
0.000000
  70
    32
  0
VERTEX
  8
0
  5
8000034D
 10
-27.2673
 20
-34.5506
 30
0.000000
  70
    32
  0
VERTEX
  8
0
  5
8000034E
 10
-27.2486
 20
-34.8067
 30
0.000000
  70
    32
  0
VERTEX
  8
0
  5
8000034F
 10
-27.2315
 20
-35.0610
 30
0.000000
  70
    32
  0
VERTEX
  8
0
  5
80000350
 10
-27.2161
 20
-35.3135
 30
0.000000
  70
    32
  0
VERTEX
  8
0
  5
80000351
 10
-27.2024
 20
-35.5639
 30
0.000000
  70
    32
  0
VERTEX
  8
0
  5
80000352
 10
-27.1906
 20
-35.8123
 30
0.000000
  70
    32
  0
VERTEX
  8
0
  5
80000353
 10
-27.1807
 20
-36.0585
 30
0.000000
  70
    32
  0
VERTEX
  8
0
  5
80000354
 10
-27.1728
 20
-36.3026
 30
0.000000
  70
    32
  0
VERTEX
  8
0
  5
80000355
 10
-27.1668
 20
-36.5443
 30
0.000000
  70
    32
  0
VERTEX
  8
0
  5
80000356
 10
-27.1631
 20
-36.7837
 30
0.000000
  70
    32
  0
VERTEX
  8
0
  5
80000357
 10
-27.1614
 20
-37.0206
 30
0.000000
  70
    32
  0
VERTEX
  8
0
  5
80000358
 10
-27.1621
 20
-37.2550
 30
0.000000
  70
    32
  0
VERTEX
  8
0
  5
80000359
 10
-27.1650
 20
-37.4868
 30
0.000000
  70
    32
  0
VERTEX
  8
0
  5
8000035A
 10
-27.1703
 20
-37.7159
 30
0.000000
  70
    32
  0
VERTEX
  8
0
  5
8000035B
 10
-27.1781
 20
-37.9423
 30
0.000000
  70
    32
  0
VERTEX
  8
0
  5
8000035C
 10
-27.1884
 20
-38.1658
 30
0.000000
  70
    32
  0
VERTEX
  8
0
  5
8000035D
 10
-27.2012
 20
-38.3864
 30
0.000000
  70
    32
  0
VERTEX
  8
0
  5
8000035E
 10
-27.2168
 20
-38.6041
 30
0.000000
  70
    32
  0
VERTEX
  8
0
  5
8000035F
 10
-27.2350
 20
-38.8186
 30
0.000000
  70
    32
  0
VERTEX
  8
0
  5
80000360
 10
-27.2561
 20
-39.0301
 30
0.000000
  70
    32
  0
VERTEX
  8
0
  5
80000361
 10
-27.2800
 20
-39.2383
 30
0.000000
  70
    32
  0
VERTEX
  8
0
  5
80000362
 10
-27.3068
 20
-39.4432
 30
0.000000
  70
    32
  0
VERTEX
  8
0
  5
80000363
 10
-27.3367
 20
-39.6447
 30
0.000000
  70
    32
  0
VERTEX
  8
0
  5
80000364
 10
-27.3696
 20
-39.8428
 30
0.000000
  70
    32
  0
VERTEX
  8
0
  5
80000365
 10
-27.4057
 20
-40.0374
 30
0.000000
  70
    32
  0
VERTEX
  8
0
  5
80000366
 10
-27.4449
 20
-40.2283
 30
0.000000
  70
    32
  0
VERTEX
  8
0
  5
80000367
 10
-27.4875
 20
-40.4156
 30
0.000000
  70
    32
  0
VERTEX
  8
0
  5
80000368
 10
-27.5333
 20
-40.5991
 30
0.000000
  70
    32
  0
VERTEX
  8
0
  5
80000369
 10
-27.5826
 20
-40.7788
 30
0.000000
  70
    32
  0
VERTEX
  8
0
  5
8000036A
 10
-27.6354
 20
-40.9546
 30
0.000000
  70
    32
  0
VERTEX
  8
0
  5
8000036B
 10
-27.6917
 20
-41.1263
 30
0.000000
  70
    32
  0
VERTEX
  8
0
  5
8000036C
 10
-27.7517
 20
-41.2940
 30
0.000000
  70
    32
  0
VERTEX
  8
0
  5
8000036D
 10
-27.8153
 20
-41.4576
 30
0.000000
  70
    32
  0
VERTEX
  8
0
  5
8000036E
 10
-27.8827
 20
-41.6169
 30
0.000000
  70
    32
  0
VERTEX
  8
0
  5
8000036F
 10
-27.9539
 20
-41.7720
 30
0.000000
  70
    32
  0
VERTEX
  8
0
  5
80000370
 10
-28.0290
 20
-41.9226
 30
0.000000
  70
    32
  0
VERTEX
  8
0
  5
80000371
 10
-28.1081
 20
-42.0688
 30
0.000000
  70
    32
  0
VERTEX
  8
0
  5
80000372
 10
-28.1911
 20
-42.2105
 30
0.000000
  70
    32
  0
VERTEX
  8
0
  5
80000373
 10
-28.2783
 20
-42.3476
 30
0.000000
  70
    32
  0
VERTEX
  8
0
  5
80000374
 10
-28.3697
 20
-42.4799
 30
0.000000
  70
    32
  0
VERTEX
  8
0
  5
80000375
 10
-28.4653
 20
-42.6075
 30
0.000000
  70
    32
  0
VERTEX
  8
0
  5
80000376
 10
-28.5652
 20
-42.7303
 30
0.000000
  70
    32
  0
VERTEX
  8
0
  5
80000377
 10
-28.6695
 20
-42.8482
 30
0.000000
  70
    32
  0
VERTEX
  8
0
  5
80000378
 10
-28.7782
 20
-42.9610
 30
0.000000
  70
    32
  0
VERTEX
  8
0
  5
80000379
 10
-28.8915
 20
-43.0688
 30
0.000000
  70
    32
  0
VERTEX
  8
0
  5
8000037A
 10
-29.0093
 20
-43.1714
 30
0.000000
  70
    32
  0
VERTEX
  8
0
  5
8000037B
 10
-29.1317
 20
-43.2688
 30
0.000000
  70
    32
  0
VERTEX
  8
0
  5
8000037C
 10
-29.2589
 20
-43.3609
 30
0.000000
  70
    32
  0
VERTEX
  8
0
  5
8000037D
 10
-29.3909
 20
-43.4476
 30
0.000000
  70
    32
  0
VERTEX
  8
0
  5
8000037E
 10
-29.5277
 20
-43.5289
 30
0.000000
  70
    32
  0
VERTEX
  8
0
  5
8000037F
 10
-29.6695
 20
-43.6046
 30
0.000000
  70
    32
  0
VERTEX
  8
0
  5
80000380
 10
-29.8162
 20
-43.6747
 30
0.000000
  70
    32
  0
VERTEX
  8
0
  5
80000381
 10
-29.9680
 20
-43.7391
 30
0.000000
  70
    32
  0
VERTEX
  8
0
  5
80000382
 10
-30.1250
 20
-43.7978
 30
0.000000
  70
    32
  0
VERTEX
  8
0
  5
80000383
 10
-30.2871
 20
-43.8506
 30
0.000000
  70
    32
  0
VERTEX
  8
0
  5
80000384
 10
-30.4545
 20
-43.8975
 30
0.000000
  70
    32
  0
VERTEX
  8
0
  5
80000385
 10
-30.6272
 20
-43.9383
 30
0.000000
  70
    32
  0
VERTEX
  8
0
  5
80000386
 10
-30.8054
 20
-43.9731
 30
0.000000
  70
    32
  0
VERTEX
  8
0
  5
80000387
 10
-30.9890
 20
-44.0018
 30
0.000000
  70
    32
  0
VERTEX
  8
0
  5
80000388
 10
-31.1782
 20
-44.0242
 30
0.000000
  70
    32
  0
VERTEX
  8
0
  5
80000389
 10
-31.3729
 20
-44.0403
 30
0.000000
  70
    32
  0
VERTEX
  8
0
  5
8000038A
 10
-31.5734
 20
-44.0500
 30
0.000000
  70
    32
  0
VERTEX
  8
0
  5
8000038B
 10
-31.7796
 20
-44.0533
 30
0.000000
  70
    32
  0
SEQEND
  8
0
  5
8000038C
  0
ENDBLK
  5
FFBBDAE469BC05D1
  8
0
  0
BLOCK
  8
0
  2
*U22
 70
     1
 10
0.0
 20
0.0
 30
0.0
  3
*U22
  1

  0
TEXT
  5
FFBBDAE469BC05D3
  8
0
  6
CONTINUOUS
 10
-54.393455381931332
 20
-43.047905889475082
 30
0.0
 40
2.0
  1
70 x 19mm CLD
  7
ARIAL
  0
TEXT
  5
FFBBDAE469BC05D4
  8
0
  6
CONTINUOUS
 62
     0
 10
-34.211019229134607
 20
-41.795205889475078
 30
0.0
 40
1.5161999999999991
  1
®
  7
ARIAL
  0
TEXT
  5
FFBBDAE469BC05D5
  8
0
  6
CONTINUOUS
 62
     0
 10
-34.20791650062165
 20
-42.300605889475079
 30
0.0
 40
1.5161999999999991
  1

  7
ARIAL
  0
TEXT
  5
FFBBDAE469BC05D6
  8
0
  6
CONTINUOUS
 10
-61.936466432408821
 20
-46.53666186214447
 30
0.0
 40
2.0
  1
Structural Cavity Batten
  7
ARIAL
  0
ENDBLK
  5
FFBBDAE469BC05D8
  8
0
  0
BLOCK
  8
0
  2
*U23
 70
     1
 10
0.0
 20
0.0
 30
0.0
  3
*U23
  1

  0
SOLID
  5
FFBBDAE469BC05DA
  8
0
  6
CONTINUOUS
 10
-4.1344295653900316
 20
31.744707891439688
 30
0.0
 11
-2.7999999999997272
 21
30.5
 31
0.0
 12
-4.465987283403428
 22
31.24463841664069
 32
0.0
 13
-4.465987283403428
 23
31.24463841664069
 33
0.0
  0
POLYLINE
  8
0
  5
8000038D
  66
     1
 10
0.000000
 20
0.000000
 30
0.000000
  70
     8
  0
VERTEX
  8
0
  5
8000038E
 10
-4.30021
 20
31.4947
 30
0.000000
  70
    32
  0
VERTEX
  8
0
  5
8000038F
 10
-4.51895
 20
31.6411
 30
0.000000
  70
    32
  0
VERTEX
  8
0
  5
80000390
 10
-4.73702
 20
31.7897
 30
0.000000
  70
    32
  0
VERTEX
  8
0
  5
80000391
 10
-4.95443
 20
31.9405
 30
0.000000
  70
    32
  0
VERTEX
  8
0
  5
80000392
 10
-5.17120
 20
32.0934
 30
0.000000
  70
    32
  0
VERTEX
  8
0
  5
80000393
 10
-5.38735
 20
32.2484
 30
0.000000
  70
    32
  0
VERTEX
  8
0
  5
80000394
 10
-5.60289
 20
32.4055
 30
0.000000
  70
    32
  0
VERTEX
  8
0
  5
80000395
 10
-5.81784
 20
32.5644
 30
0.000000
  70
    32
  0
VERTEX
  8
0
  5
80000396
 10
-6.03221
 20
32.7253
 30
0.000000
  70
    32
  0
VERTEX
  8
0
  5
80000397
 10
-6.24602
 20
32.8881
 30
0.000000
  70
    32
  0
VERTEX
  8
0
  5
80000398
 10
-6.45929
 20
33.0526
 30
0.000000
  70
    32
  0
VERTEX
  8
0
  5
80000399
 10
-6.67203
 20
33.2189
 30
0.000000
  70
    32
  0
VERTEX
  8
0
  5
8000039A
 10
-6.88427
 20
33.3869
 30
0.000000
  70
    32
  0
VERTEX
  8
0
  5
8000039B
 10
-7.09601
 20
33.5565
 30
0.000000
  70
    32
  0
VERTEX
  8
0
  5
8000039C
 10
-7.30727
 20
33.7277
 30
0.000000
  70
    32
  0
VERTEX
  8
0
  5
8000039D
 10
-7.51807
 20
33.9005
 30
0.000000
  70
    32
  0
VERTEX
  8
0
  5
8000039E
 10
-7.72842
 20
34.0747
 30
0.000000
  70
    32
  0
VERTEX
  8
0
  5
8000039F
 10
-7.93835
 20
34.2504
 30
0.000000
  70
    32
  0
VERTEX
  8
0
  5
800003A0
 10
-8.14786
 20
34.4274
 30
0.000000
  70
    32
  0
VERTEX
  8
0
  5
800003A1
 10
-8.35698
 20
34.6057
 30
0.000000
  70
    32
  0
VERTEX
  8
0
  5
800003A2
 10
-8.56572
 20
34.7853
 30
0.000000
  70
    32
  0
VERTEX
  8
0
  5
800003A3
 10
-8.77409
 20
34.9661
 30
0.000000
  70
    32
  0
VERTEX
  8
0
  5
800003A4
 10
-8.98211
 20
35.1480
 30
0.000000
  70
    32
  0
VERTEX
  8
0
  5
800003A5
 10
-9.18981
 20
35.3311
 30
0.000000
  70
    32
  0
VERTEX
  8
0
  5
800003A6
 10
-9.39719
 20
35.5152
 30
0.000000
  70
    32
  0
VERTEX
  8
0
  5
800003A7
 10
-9.60427
 20
35.7003
 30
0.000000
  70
    32
  0
VERTEX
  8
0
  5
800003A8
 10
-9.81107
 20
35.8863
 30
0.000000
  70
    32
  0
VERTEX
  8
0
  5
800003A9
 10
-10.0176
 20
36.0732
 30
0.000000
  70
    32
  0
VERTEX
  8
0
  5
800003AA
 10
-10.2239
 20
36.2609
 30
0.000000
  70
    32
  0
VERTEX
  8
0
  5
800003AB
 10
-10.4299
 20
36.4494
 30
0.000000
  70
    32
  0
VERTEX
  8
0
  5
800003AC
 10
-10.6358
 20
36.6386
 30
0.000000
  70
    32
  0
VERTEX
  8
0
  5
800003AD
 10
-10.8414
 20
36.8285
 30
0.000000
  70
    32
  0
VERTEX
  8
0
  5
800003AE
 10
-11.0468
 20
37.0190
 30
0.000000
  70
    32
  0
VERTEX
  8
0
  5
800003AF
 10
-11.2521
 20
37.2101
 30
0.000000
  70
    32
  0
VERTEX
  8
0
  5
800003B0
 10
-11.4573
 20
37.4017
 30
0.000000
  70
    32
  0
VERTEX
  8
0
  5
800003B1
 10
-11.6622
 20
37.5937
 30
0.000000
  70
    32
  0
VERTEX
  8
0
  5
800003B2
 10
-11.8671
 20
37.7861
 30
0.000000
  70
    32
  0
VERTEX
  8
0
  5
800003B3
 10
-12.0719
 20
37.9788
 30
0.000000
  70
    32
  0
VERTEX
  8
0
  5
800003B4
 10
-12.2766
 20
38.1719
 30
0.000000
  70
    32
  0
VERTEX
  8
0
  5
800003B5
 10
-12.4812
 20
38.3652
 30
0.000000
  70
    32
  0
VERTEX
  8
0
  5
800003B6
 10
-12.6857
 20
38.5586
 30
0.000000
  70
    32
  0
VERTEX
  8
0
  5
800003B7
 10
-12.8903
 20
38.7522
 30
0.000000
  70
    32
  0
VERTEX
  8
0
  5
800003B8
 10
-13.0947
 20
38.9459
 30
0.000000
  70
    32
  0
VERTEX
  8
0
  5
800003B9
 10
-13.2992
 20
39.1395
 30
0.000000
  70
    32
  0
VERTEX
  8
0
  5
800003BA
 10
-13.5037
 20
39.3332
 30
0.000000
  70
    32
  0
VERTEX
  8
0
  5
800003BB
 10
-13.7083
 20
39.5267
 30
0.000000
  70
    32
  0
VERTEX
  8
0
  5
800003BC
 10
-13.9128
 20
39.7201
 30
0.000000
  70
    32
  0
VERTEX
  8
0
  5
800003BD
 10
-14.1175
 20
39.9133
 30
0.000000
  70
    32
  0
VERTEX
  8
0
  5
800003BE
 10
-14.3222
 20
40.1063
 30
0.000000
  70
    32
  0
VERTEX
  8
0
  5
800003BF
 10
-14.5270
 20
40.2989
 30
0.000000
  70
    32
  0
VERTEX
  8
0
  5
800003C0
 10
-14.7319
 20
40.4912
 30
0.000000
  70
    32
  0
VERTEX
  8
0
  5
800003C1
 10
-14.9369
 20
40.6831
 30
0.000000
  70
    32
  0
VERTEX
  8
0
  5
800003C2
 10
-15.1421
 20
40.8745
 30
0.000000
  70
    32
  0
VERTEX
  8
0
  5
800003C3
 10
-15.3474
 20
41.0654
 30
0.000000
  70
    32
  0
VERTEX
  8
0
  5
800003C4
 10
-15.5529
 20
41.2557
 30
0.000000
  70
    32
  0
VERTEX
  8
0
  5
800003C5
 10
-15.7586
 20
41.4454
 30
0.000000
  70
    32
  0
VERTEX
  8
0
  5
800003C6
 10
-15.9645
 20
41.6344
 30
0.000000
  70
    32
  0
VERTEX
  8
0
  5
800003C7
 10
-16.1707
 20
41.8226
 30
0.000000
  70
    32
  0
VERTEX
  8
0
  5
800003C8
 10
-16.3770
 20
42.0101
 30
0.000000
  70
    32
  0
VERTEX
  8
0
  5
800003C9
 10
-16.5837
 20
42.1967
 30
0.000000
  70
    32
  0
VERTEX
  8
0
  5
800003CA
 10
-16.7905
 20
42.3824
 30
0.000000
  70
    32
  0
VERTEX
  8
0
  5
800003CB
 10
-16.9977
 20
42.5672
 30
0.000000
  70
    32
  0
VERTEX
  8
0
  5
800003CC
 10
-17.2052
 20
42.7509
 30
0.000000
  70
    32
  0
VERTEX
  8
0
  5
800003CD
 10
-17.4130
 20
42.9336
 30
0.000000
  70
    32
  0
VERTEX
  8
0
  5
800003CE
 10
-17.6212
 20
43.1152
 30
0.000000
  70
    32
  0
VERTEX
  8
0
  5
800003CF
 10
-17.8296
 20
43.2956
 30
0.000000
  70
    32
  0
VERTEX
  8
0
  5
800003D0
 10
-18.0385
 20
43.4747
 30
0.000000
  70
    32
  0
VERTEX
  8
0
  5
800003D1
 10
-18.2478
 20
43.6526
 30
0.000000
  70
    32
  0
VERTEX
  8
0
  5
800003D2
 10
-18.4574
 20
43.8292
 30
0.000000
  70
    32
  0
VERTEX
  8
0
  5
800003D3
 10
-18.6675
 20
44.0044
 30
0.000000
  70
    32
  0
VERTEX
  8
0
  5
800003D4
 10
-18.8780
 20
44.1781
 30
0.000000
  70
    32
  0
VERTEX
  8
0
  5
800003D5
 10
-19.0889
 20
44.3503
 30
0.000000
  70
    32
  0
VERTEX
  8
0
  5
800003D6
 10
-19.3003
 20
44.5210
 30
0.000000
  70
    32
  0
VERTEX
  8
0
  5
800003D7
 10
-19.5122
 20
44.6901
 30
0.000000
  70
    32
  0
VERTEX
  8
0
  5
800003D8
 10
-19.7246
 20
44.8576
 30
0.000000
  70
    32
  0
VERTEX
  8
0
  5
800003D9
 10
-19.9376
 20
45.0233
 30
0.000000
  70
    32
  0
VERTEX
  8
0
  5
800003DA
 10
-20.1510
 20
45.1872
 30
0.000000
  70
    32
  0
VERTEX
  8
0
  5
800003DB
 10
-20.3650
 20
45.3494
 30
0.000000
  70
    32
  0
VERTEX
  8
0
  5
800003DC
 10
-20.5796
 20
45.5096
 30
0.000000
  70
    32
  0
VERTEX
  8
0
  5
800003DD
 10
-20.7947
 20
45.6680
 30
0.000000
  70
    32
  0
VERTEX
  8
0
  5
800003DE
 10
-21.0105
 20
45.8243
 30
0.000000
  70
    32
  0
VERTEX
  8
0
  5
800003DF
 10
-21.2268
 20
45.9786
 30
0.000000
  70
    32
  0
VERTEX
  8
0
  5
800003E0
 10
-21.4438
 20
46.1309
 30
0.000000
  70
    32
  0
VERTEX
  8
0
  5
800003E1
 10
-21.6614
 20
46.2809
 30
0.000000
  70
    32
  0
VERTEX
  8
0
  5
800003E2
 10
-21.8797
 20
46.4288
 30
0.000000
  70
    32
  0
VERTEX
  8
0
  5
800003E3
 10
-22.0987
 20
46.5745
 30
0.000000
  70
    32
  0
VERTEX
  8
0
  5
800003E4
 10
-22.3183
 20
46.7178
 30
0.000000
  70
    32
  0
VERTEX
  8
0
  5
800003E5
 10
-22.5387
 20
46.8588
 30
0.000000
  70
    32
  0
VERTEX
  8
0
  5
800003E6
 10
-22.7598
 20
46.9973
 30
0.000000
  70
    32
  0
VERTEX
  8
0
  5
800003E7
 10
-22.9817
 20
47.1334
 30
0.000000
  70
    32
  0
VERTEX
  8
0
  5
800003E8
 10
-23.2043
 20
47.2670
 30
0.000000
  70
    32
  0
VERTEX
  8
0
  5
800003E9
 10
-23.4277
 20
47.3980
 30
0.000000
  70
    32
  0
VERTEX
  8
0
  5
800003EA
 10
-23.6518
 20
47.5263
 30
0.000000
  70
    32
  0
VERTEX
  8
0
  5
800003EB
 10
-23.8768
 20
47.6520
 30
0.000000
  70
    32
  0
VERTEX
  8
0
  5
800003EC
 10
-24.1026
 20
47.7750
 30
0.000000
  70
    32
  0
VERTEX
  8
0
  5
800003ED
 10
-24.3293
 20
47.8951
 30
0.000000
  70
    32
  0
VERTEX
  8
0
  5
800003EE
 10
-24.5568
 20
48.0124
 30
0.000000
  70
    32
  0
VERTEX
  8
0
  5
800003EF
 10
-24.7852
 20
48.1268
 30
0.000000
  70
    32
  0
VERTEX
  8
0
  5
800003F0
 10
-25.0145
 20
48.2383
 30
0.000000
  70
    32
  0
VERTEX
  8
0
  5
800003F1
 10
-25.2446
 20
48.3467
 30
0.000000
  70
    32
  0
VERTEX
  8
0
  5
800003F2
 10
-25.4757
 20
48.4521
 30
0.000000
  70
    32
  0
VERTEX
  8
0
  5
800003F3
 10
-25.7078
 20
48.5543
 30
0.000000
  70
    32
  0
VERTEX
  8
0
  5
800003F4
 10
-25.9408
 20
48.6534
 30
0.000000
  70
    32
  0
VERTEX
  8
0
  5
800003F5
 10
-26.1747
 20
48.7493
 30
0.000000
  70
    32
  0
VERTEX
  8
0
  5
800003F6
 10
-26.4097
 20
48.8419
 30
0.000000
  70
    32
  0
VERTEX
  8
0
  5
800003F7
 10
-26.6457
 20
48.9312
 30
0.000000
  70
    32
  0
VERTEX
  8
0
  5
800003F8
 10
-26.8827
 20
49.0170
 30
0.000000
  70
    32
  0
VERTEX
  8
0
  5
800003F9
 10
-27.1207
 20
49.0995
 30
0.000000
  70
    32
  0
VERTEX
  8
0
  5
800003FA
 10
-27.3597
 20
49.1784
 30
0.000000
  70
    32
  0
VERTEX
  8
0
  5
800003FB
 10
-27.5999
 20
49.2538
 30
0.000000
  70
    32
  0
VERTEX
  8
0
  5
800003FC
 10
-27.8411
 20
49.3256
 30
0.000000
  70
    32
  0
VERTEX
  8
0
  5
800003FD
 10
-28.0834
 20
49.3937
 30
0.000000
  70
    32
  0
VERTEX
  8
0
  5
800003FE
 10
-28.3269
 20
49.4581
 30
0.000000
  70
    32
  0
VERTEX
  8
0
  5
800003FF
 10
-28.5715
 20
49.5188
 30
0.000000
  70
    32
  0
VERTEX
  8
0
  5
80000400
 10
-28.8172
 20
49.5756
 30
0.000000
  70
    32
  0
VERTEX
  8
0
  5
80000401
 10
-29.0641
 20
49.6286
 30
0.000000
  70
    32
  0
VERTEX
  8
0
  5
80000402
 10
-29.3122
 20
49.6776
 30
0.000000
  70
    32
  0
VERTEX
  8
0
  5
80000403
 10
-29.5615
 20
49.7227
 30
0.000000
  70
    32
  0
VERTEX
  8
0
  5
80000404
 10
-29.8120
 20
49.7637
 30
0.000000
  70
    32
  0
VERTEX
  8
0
  5
80000405
 10
-30.0637
 20
49.8006
 30
0.000000
  70
    32
  0
VERTEX
  8
0
  5
80000406
 10
-30.3167
 20
49.8334
 30
0.000000
  70
    32
  0
VERTEX
  8
0
  5
80000407
 10
-30.5709
 20
49.8620
 30
0.000000
  70
    32
  0
VERTEX
  8
0
  5
80000408
 10
-30.8265
 20
49.8864
 30
0.000000
  70
    32
  0
VERTEX
  8
0
  5
80000409
 10
-31.0833
 20
49.9064
 30
0.000000
  70
    32
  0
VERTEX
  8
0
  5
8000040A
 10
-31.3414
 20
49.9221
 30
0.000000
  70
    32
  0
VERTEX
  8
0
  5
8000040B
 10
-31.6009
 20
49.9333
 30
0.000000
  70
    32
  0
VERTEX
  8
0
  5
8000040C
 10
-31.8617
 20
49.9401
 30
0.000000
  70
    32
  0
VERTEX
  8
0
  5
8000040D
 10
-32.1239
 20
49.9424
 30
0.000000
  70
    32
  0
SEQEND
  8
0
  5
8000040E
  0
ENDBLK
  5
FFBBDAE469BC05DD
  8
0
  0
BLOCK
  8
0
  2
*U24
 70
     1
 10
0.0
 20
0.0
 30
0.0
  3
*U24
  1

  0
TEXT
  5
FFBBDAE469BC05DF
  8
0
  6
CONTINUOUS
 10
-61.579555215920003
 20
52.599769188679751
 30
0.0
 40
2.0
  1
65 x 2.8mm RounDrive
  7
ARIAL
  0
TEXT
  5
FFBBDAE469BC05E0
  8
0
  6
CONTINUOUS
 10
-56.61229737144523
 20
49.232329443340952
 30
0.0
 40
2.0
  1
ring shank nails for
  7
ARIAL
  0
TEXT
  5
FFBBDAE469BC05E1
  8
0
  6
CONTINUOUS
 10
-48.00383898126789
 20
45.864889698002173
 30
0.0
 40
2.0
  1
batten fixing
  7
ARIAL
  0
ENDBLK
  5
FFBBDAE469BC05E3
  8
0
  0
ENDSEC
  0
SECTION
  2
ENTITIES
  0
POLYLINE
  5
FFBBDAE469BBD6DE
  8
0
  6
CONTINUOUS
 66
     1
 10
0.0
 20
0.0
 30
0.0
  0
VERTEX
  5
FFBBDAE469BC051D
  8
0
  6
CONTINUOUS
 10
-50.218770702162139
 20
-32.0
 30
0.0
  0
VERTEX
  5
FFBBDAE469BC051E
  8
0
  6
CONTINUOUS
 10
54.820166073605378
 20
-32.000000000001592
 30
0.0
  0
SEQEND
  5
FFBBDAE469BC051F
  8
0
  6
CONTINUOUS
  0
POLYLINE
  5
FFBBDAE469BBD6DF
  8
0
  6
CONTINUOUS
 66
     1
 10
0.0
 20
0.0
 30
0.0
  0
VERTEX
  5
FFBBDAE469BC0520
  8
0
  6
CONTINUOUS
 10
-23.900000000000091
 20
59.421862866373431
 30
0.0
  0
VERTEX
  5
FFBBDAE469BC0521
  8
0
  6
CONTINUOUS
 10
-23.900000000000091
 20
0.0
 30
0.0
  0
VERTEX
  5
FFBBDAE469BC0522
  8
0
  6
CONTINUOUS
 10
-2.7999999999997272
 20
0.0
 30
0.0
  0
SEQEND
  5
FFBBDAE469BC0523
  8
0
  6
CONTINUOUS
  0
LINE
  5
FFBBDAE469BBD6E0
  8
0
  6
CONTINUOUS
 10
-23.900000000000091
 20
0.0
 30
0.0
 11
-4.0932989187178634
 21
59.421862866373417
 31
0.0
  0
LINE
  5
FFBBDAE469BBD6E1
  8
0
  6
CONTINUOUS
 10
1.2051468597581381
 20
59.421862866373431
 30
0.0
 11
21.099999999999909
 21
0.0
 31
0.0
  0
LINE
  5
FFBBDAE469BBD6E6
  8
0
  6
PHANTOM
 10
-50.218770702162139
 20
-1.5000000000004541
 30
0.0
 11
-2.7999999999997272
 21
-1.5000000000018181
 31
0.0
  0
POLYLINE
  5
FFBBDAE469BBD6E8
  8
0
  6
CONTINUOUS
 66
     1
 10
0.0
 20
0.0
 30
0.0
  0
VERTEX
  5
FFBBDAE469BC0524
  8
0
  6
CONTINUOUS
 10
54.820166073605378
 20
-23.0
 30
0.0
  0
VERTEX
  5
FFBBDAE469BC0525
  8
0
  6
CONTINUOUS
 10
9.6000522643662407
 20
-23.0
 30
0.0
  0
SEQEND
  5
FFBBDAE469BC0526
  8
0
  6
CONTINUOUS
  0
POLYLINE
  5
FFBBDAE469BBD6E9
  8
0
  6
CONTINUOUS
 66
     1
 10
0.0
 20
0.0
 30
0.0
  0
VERTEX
  5
FFBBDAE469BC0527
  8
0
  6
CONTINUOUS
 10
9.6000522643662407
 20
-22.0
 30
0.0
  0
VERTEX
  5
FFBBDAE469BC0528
  8
0
  6
CONTINUOUS
 10
33.599999999999909
 20
-22.0
 30
0.0
  0
VERTEX
  5
FFBBDAE469BC0529
  8
0
  6
CONTINUOUS
 10
33.599999999999909
 20
-2.9999999999986349
 30
0.0
  0
VERTEX
  5
FFBBDAE469BC052A
  8
0
  6
CONTINUOUS
 10
4.7516443694721602
 20
-2.9999999999986349
 30
0.0
  0
SEQEND
  5
FFBBDAE469BC052B
  8
0
  6
CONTINUOUS
  0
POLYLINE
  5
FFBBDAE469BBDFF5
  8
0
  6
CONTINUOUS
 66
     1
 10
0.0
 20
0.0
 30
0.0
  0
VERTEX
  5
FFBBDAE469BC052C
  8
0
  6
CONTINUOUS
 10
-2.7999999999997272
 20
-2.9999999999986349
 30
0.0
  0
VERTEX
  5
FFBBDAE469BC052D
  8
0
  6
CONTINUOUS
 10
-36.400000000000091
 20
-2.9999999999986349
 30
0.0
  0
VERTEX
  5
FFBBDAE469BC052E
  8
0
  6
CONTINUOUS
 10
-36.400000000000091
 20
-22.0
 30
0.0
  0
VERTEX
  5
FFBBDAE469BC052F
  8
0
  6
CONTINUOUS
 10
7.6000522643662398
 20
-22.0
 30
0.0
  0
SEQEND
  5
FFBBDAE469BC0530
  8
0
  6
CONTINUOUS
  0
POLYLINE
  5
FFBBDAE469BBDFF8
  8
0
  6
CONTINUOUS
 66
     1
 10
0.0
 20
0.0
 30
0.0
  0
VERTEX
  5
FFBBDAE469BC0531
  8
0
  6
CONTINUOUS
 10
0.0
 20
0.0
 30
0.0
  0
VERTEX
  5
FFBBDAE469BC0532
  8
0
  6
CONTINUOUS
 10
21.099999999999909
 20
0.0
 30
0.0
  0
VERTEX
  5
FFBBDAE469BC0533
  8
0
  6
CONTINUOUS
 10
21.099999999999909
 20
59.421862866373417
 30
0.0
  0
SEQEND
  5
FFBBDAE469BC0534
  8
0
  6
CONTINUOUS
  0
POLYLINE
  5
FFBBDAE469BBE91B
  8
0
  6
CONTINUOUS
 66
     1
 10
0.0
 20
0.0
 30
0.0
  0
VERTEX
  5
FFBBDAE469BC0535
  8
0
  6
CONTINUOUS
 10
4.7516443694721602
 20
-2.9999999999986349
 30
0.0
  0
VERTEX
  5
FFBBDAE469BC0536
  8
0
  6
CONTINUOUS
 10
0.0
 20
-2.9999999999986349
 30
0.0
  0
SEQEND
  5
FFBBDAE469BC0537
  8
0
  6
CONTINUOUS
  0
LINE
  5
FFBBDAE469BBE91C
  8
0
  6
PHANTOM
 10
0.0000000000004547
 20
-1.5000000000004541
 30
0.0
 11
54.820166073605378
 21
-1.5000000000018181
 31
0.0
  0
POLYLINE
  5
FFBBDAE469BBEA4F
  8
0
  6
CONTINUOUS
 66
     1
 10
0.0
 20
0.0
 30
0.0
  0
VERTEX
  5
FFBBDAE469BC0538
  8
0
  6
CONTINUOUS
 10
7.6000522643662398
 20
-6.0000000000009086
 30
0.0
  0
VERTEX
  5
FFBBDAE469BC0539
  8
0
  6
CONTINUOUS
 10
9.6000522643662407
 20
-6.0000000000009086
 30
0.0
  0
VERTEX
  5
FFBBDAE469BC053A
  8
0
  6
CONTINUOUS
 10
9.6000522643662407
 20
-32.000000000000909
 30
0.0
  0
VERTEX
  5
FFBBDAE469BC053B
  8
0
  6
CONTINUOUS
 10
7.6000522643662398
 20
-32.000000000000909
 30
0.0
  0
VERTEX
  5
FFBBDAE469BC053C
  8
0
  6
CONTINUOUS
 10
7.6000522643662398
 20
-6.0000000000009086
 30
0.0
  0
SEQEND
  5
FFBBDAE469BC053D
  8
0
  6
CONTINUOUS
  0
LINE
  5
FFBBDAE469BBEA50
  8
0
  6
CENTER
 10
8.6000522643662407
 20
-32.000000000000909
 30
0.0
 11
8.6000522643662407
 21
-6.0000000000009086
 31
0.0
  0
LINE
  5
FFBBDAE469BBEA51
  8
0
  6
CONTINUOUS
 10
7.6000522643662398
 20
-30.000000000000909
 30
0.0
 11
9.6000522643662407
 21
-30.000000000000909
 31
0.0
  0
LINE
  5
FFBBDAE469BBEA52
  8
0
  6
CONTINUOUS
 10
7.6000522643662398
 20
-10.000000000000909
 30
0.0
 11
9.6000522643662407
 21
-10.000000000000909
 31
0.0
  0
POLYLINE
  5
FFBBDAE469BBEA5C
  8
0
  6
CONTINUOUS
 66
     1
 10
0.0
 20
0.0
 30
0.0
  0
VERTEX
  5
FFBBDAE469BC053E
  8
0
  6
CONTINUOUS
 10
7.6000522643662398
 20
-23.0
 30
0.0
  0
VERTEX
  5
FFBBDAE469BC053F
  8
0
  6
CONTINUOUS
 10
-50.218770702162139
 20
-23.0
 30
0.0
  0
SEQEND
  5
FFBBDAE469BC0540
  8
0
  6
CONTINUOUS
  0
ARC
  5
FFBBDAE469BBEC78
  8
0
  6
CONTINUOUS
 10
1.469909591578016
 20
-22.499999999999091
 30
0.0
 40
0.5166595738777647
 50
75.410470987396806
 51
284.58952901254952
  0
ARC
  5
FFBBDAE469BBEC79
  8
0
  6
CONTINUOUS
 10
15.73019493715446
 20
-22.500000000000458
 30
0.0
 40
0.5166595738780994
 50
255.41047098736831
 51
104.58952901254941
  0
INSERT
  5
FFBBDAE469BBEDEF
  8
0
  6
CONTINUOUS
  2
*U6
 10
0.0
 20
0.0
 30
0.0
1001
ACAD
1002
{
1000
R14_HATCH_DATA
1000
FFBBDAE469BBEDEF
1011
1.0
1021
0.0
1031
0.0
1021
0.0
1031
0.0
1011
0.0
1021
0.0
1031
0.0
1021
1.0
1031
0.0
1011
0.0
1021
0.0
1031
0.0
1021
0.0
1031
1.0
1040
0.0
1010
0.0
1020
0.0
1030
1.0
1000
SOLID
1070
     1
1070
     0
1071
        2
1071
        7
1070
     1
1070
     1
1071
        4
1040
9.6000522643657842
1040
-22.0
1040
0.0
1040
9.6000522643657842
1040
-23.000000000000231
1040
0.0
1040
15.86033760994132
1040
-23.000000000000231
1040
0.7730338021845195
1040
15.86033760993814
1040
-22.0
1040
0.0
1071
        0
1071
        7
1070
     1
1070
     1
1071
        4
1040
7.6000522643657851
1040
-22.999999999999769
1040
0.0
1040
7.6000522643657851
1040
-22.0
1040
0.0
1040
1.3397669187893371
1040
-22.0
1040
0.7730338021860687
1040
1.3397669187961581
1040
-23.0
1040
0.0
1071
        0
1070
     0
1070
     1
1040
0.0305837183826334
1071
        2
1040
12.366845249675411
1040
-22.211481847610461
1040
0.0
1040
6.8595656619968386
1040
-22.578486421012709
1040
0.0
1002
}
  0
POLYLINE
  5
FFBBDAE469BBEE56
  8
0
  6
DIVIDE2
 66
     1
 10
0.0
 20
0.0
 30
0.0
  0
VERTEX
  5
FFBBDAE469BC055C
  8
0
  6
DIVIDE2
 10
-50.218770702162139
 20
-33.0
 30
0.0
  0
VERTEX
  5
FFBBDAE469BC055D
  8
0
  6
DIVIDE2
 10
54.820166073605378
 20
-33.000000000001592
 30
0.0
  0
SEQEND
  5
FFBBDAE469BC055E
  8
0
  6
DIVIDE2
  0
LINE
  5
FFBBDAE469BBEF0B
  8
0
  6
CENTER
 10
-1.4000000000000901
 20
-24.52179476537049
 30
0.0
 11
-1.4000000000000901
 21
46.073418545082859
 31
0.0
  0
LINE
  5
FFBBDAE469BBEF0C
  8
0
  6
CONTINUOUS
 10
-4.9000000000000901
 20
-22.0
 30
0.0
 11
2.0999999999999091
 21
-22.0
 31
0.0
  0
LINE
  5
FFBBDAE469BBEF0D
  8
0
  6
CONTINUOUS
 10
-2.7999999999997272
 20
39.352875309428782
 30
0.0
 11
-1.4000000000000901
 21
43.0
 31
0.0
  0
LINE
  5
FFBBDAE469BBEF0E
  8
0
  6
CONTINUOUS
 10
-2.7999999999997272
 20
-20.93730669589468
 30
0.0
 11
-2.7999999999997272
 21
39.352875309429237
 31
0.0
  0
LINE
  5
FFBBDAE469BBEF0F
  8
0
  6
CONTINUOUS
 10
0.0
 20
-20.93730669589468
 30
0.0
 11
0.0
 21
39.352875309428782
 31
0.0
  0
LINE
  5
FFBBDAE469BBEF10
  8
0
  6
CONTINUOUS
 10
0.0
 20
39.352875309428782
 30
0.0
 11
-1.4000000000000901
 21
43.0
 31
0.0
  0
LINE
  5
FFBBDAE469BBEF11
  8
0
  6
CONTINUOUS
 10
-4.9000000000000901
 20
-21.5
 30
0.0
 11
2.0999999999999091
 21
-21.5
 31
0.0
  0
LINE
  5
FFBBDAE469BBEF12
  8
0
  6
CONTINUOUS
 10
-4.9000000000000901
 20
-22.0
 30
0.0
 11
-4.9000000000000901
 21
-21.5
 31
0.0
  0
LINE
  5
FFBBDAE469BBEF13
  8
0
  6
CONTINUOUS
 10
2.0999999999999091
 20
-22.0
 30
0.0
 11
2.0999999999999091
 21
-21.5
 31
0.0
  0
LINE
  5
FFBBDAE469BBEF14
  8
0
  6
CONTINUOUS
 10
0.0
 20
-20.93730669589468
 30
0.0
 11
2.0999999999999091
 21
-21.5
 31
0.0
  0
LINE
  5
FFBBDAE469BBEF15
  8
0
  6
CONTINUOUS
 10
-2.7999999999997272
 20
-20.93730669589468
 30
0.0
 11
-4.9000000000000901
 21
-21.5
 31
0.0
  0
LINE
  5
FFBBDAE469BBEF16
  8
0
  6
CONTINUOUS
 10
-2.7999999999997272
 20
-20.93730669589468
 30
0.0
 11
0.0
 21
-20.93730669589468
 31
0.0
  0
LINE
  5
FFBBDAE469BBEF17
  8
0
  6
CONTINUOUS
 10
-2.2782889278983021
 20
-17.0
 30
0.0
 11
-0.52171107210188
 21
-17.0
 31
0.0
  0
LINE
  5
FFBBDAE469BBEF18
  8
0
  6
CONTINUOUS
 10
-2.2782889278983021
 20
-9.0
 30
0.0
 11
-0.52171107210188
 21
-9.0
 31
0.0
  0
LINE
  5
FFBBDAE469BBEF19
  8
0
  6
CONTINUOUS
 10
-2.2782889278983021
 20
-15.69999999999982
 30
0.0
 11
-0.52171107210188
 21
-15.69999999999982
 31
0.0
  0
LINE
  5
FFBBDAE469BBEF1A
  8
0
  6
CONTINUOUS
 10
-2.2782889278983021
 20
-14.400000000000089
 30
0.0
 11
-0.52171107210188
 21
-14.400000000000089
 31
0.0
  0
LINE
  5
FFBBDAE469BBEF1B
  8
0
  6
CONTINUOUS
 10
-2.2782889278983021
 20
-13.099999999999911
 30
0.0
 11
-0.52171107210188
 21
-13.099999999999911
 31
0.0
  0
LINE
  5
FFBBDAE469BBEF1C
  8
0
  6
CONTINUOUS
 10
-2.2782889278983021
 20
-11.80000000000018
 30
0.0
 11
-0.52171107210188
 21
-11.80000000000018
 31
0.0
  0
LINE
  5
FFBBDAE469BBEF1D
  8
0
  6
CONTINUOUS
 10
-2.2782889278983021
 20
-10.5
 30
0.0
 11
-0.52171107210188
 21
-10.5
 31
0.0
  0
LINE
  5
FFBBDAE469BBEF1E
  8
0
  6
CONTINUOUS
 10
-3.1500000000000901
 20
8.0
 30
0.0
 11
0.349999999999909
 21
8.0
 31
0.0
  0
LINE
  5
FFBBDAE469BBEF1F
  8
0
  6
CONTINUOUS
 10
-3.1500000000000901
 20
9.5
 30
0.0
 11
0.349999999999909
 21
9.5
 31
0.0
  0
LINE
  5
FFBBDAE469BBEF20
  8
0
  6
CONTINUOUS
 10
-3.1500000000000901
 20
11.0
 30
0.0
 11
0.349999999999909
 21
11.0
 31
0.0
  0
LINE
  5
FFBBDAE469BBEF21
  8
0
  6
CONTINUOUS
 10
-3.1500000000000901
 20
12.5
 30
0.0
 11
0.349999999999909
 21
12.5
 31
0.0
  0
LINE
  5
FFBBDAE469BBEF22
  8
0
  6
CONTINUOUS
 10
-3.1500000000000901
 20
14.0
 30
0.0
 11
0.349999999999909
 21
14.0
 31
0.0
  0
LINE
  5
FFBBDAE469BBEF23
  8
0
  6
CONTINUOUS
 10
-3.1500000000000901
 20
15.5
 30
0.0
 11
0.349999999999909
 21
15.5
 31
0.0
  0
LINE
  5
FFBBDAE469BBEF24
  8
0
  6
CONTINUOUS
 10
-3.1500000000000901
 20
17.0
 30
0.0
 11
0.349999999999909
 21
17.0
 31
0.0
  0
LINE
  5
FFBBDAE469BBEF25
  8
0
  6
CONTINUOUS
 10
-3.1500000000000901
 20
18.5
 30
0.0
 11
0.349999999999909
 21
18.5
 31
0.0
  0
LINE
  5
FFBBDAE469BBEF26
  8
0
  6
CONTINUOUS
 10
-3.1500000000000901
 20
20.0
 30
0.0
 11
0.349999999999909
 21
20.0
 31
0.0
  0
LINE
  5
FFBBDAE469BBEF27
  8
0
  6
CONTINUOUS
 10
-3.1500000000000901
 20
21.5
 30
0.0
 11
0.349999999999909
 21
21.5
 31
0.0
  0
LINE
  5
FFBBDAE469BBEF28
  8
0
  6
CONTINUOUS
 10
-3.1500000000000901
 20
23.0
 30
0.0
 11
0.349999999999909
 21
23.0
 31
0.0
  0
LINE
  5
FFBBDAE469BBEF29
  8
0
  6
CONTINUOUS
 10
-3.1500000000000901
 20
24.5
 30
0.0
 11
0.349999999999909
 21
24.5
 31
0.0
  0
LINE
  5
FFBBDAE469BBEF2A
  8
0
  6
CONTINUOUS
 10
-3.1500000000000901
 20
26.0
 30
0.0
 11
0.349999999999909
 21
26.0
 31
0.0
  0
LINE
  5
FFBBDAE469BBEF2B
  8
0
  6
CONTINUOUS
 10
-3.1500000000000901
 20
27.5
 30
0.0
 11
0.349999999999909
 21
27.5
 31
0.0
  0
LINE
  5
FFBBDAE469BBEF2C
  8
0
  6
CONTINUOUS
 10
-3.1500000000000901
 20
29.0
 30
0.0
 11
0.349999999999909
 21
29.0
 31
0.0
  0
LINE
  5
FFBBDAE469BBEF2D
  8
0
  6
CONTINUOUS
 10
-3.1500000000000901
 20
30.5
 30
0.0
 11
0.349999999999909
 21
30.5
 31
0.0
  0
LINE
  5
FFBBDAE469BBEF2E
  8
0
  6
CONTINUOUS
 10
-3.1500000000000901
 20
32.0
 30
0.0
 11
0.349999999999909
 21
32.0
 31
0.0
  0
LINE
  5
FFBBDAE469BBEF2F
  8
0
  6
CONTINUOUS
 10
-3.1500000000000901
 20
33.5
 30
0.0
 11
0.349999999999909
 21
33.5
 31
0.0
  0
LINE
  5
FFBBDAE469BBEF30
  8
0
  6
CONTINUOUS
 10
-3.1500000000000901
 20
35.0
 30
0.0
 11
0.349999999999909
 21
35.0
 31
0.0
  0
LINE
  5
FFBBDAE469BBEF31
  8
0
  6
CONTINUOUS
 10
-3.1500000000000901
 20
36.5
 30
0.0
 11
0.349999999999909
 21
36.5
 31
0.0
  0
LINE
  5
FFBBDAE469BBEF32
  8
0
  6
CONTINUOUS
 10
-3.1500000000000901
 20
38.0
 30
0.0
 11
0.349999999999909
 21
38.0
 31
0.0
  0
LINE
  5
FFBBDAE469BBEF33
  8
0
  6
CONTINUOUS
 10
-3.1500000000000901
 20
-5.5
 30
0.0
 11
0.349999999999909
 21
-5.5
 31
0.0
  0
LINE
  5
FFBBDAE469BBEF34
  8
0
  6
CONTINUOUS
 10
-3.1500000000000901
 20
-4.0
 30
0.0
 11
0.349999999999909
 21
-4.0
 31
0.0
  0
LINE
  5
FFBBDAE469BBEF35
  8
0
  6
CONTINUOUS
 10
-3.1500000000000901
 20
-2.5
 30
0.0
 11
0.349999999999909
 21
-2.5
 31
0.0
  0
LINE
  5
FFBBDAE469BBEF36
  8
0
  6
CONTINUOUS
 10
-3.1500000000000901
 20
-1.0
 30
0.0
 11
0.349999999999909
 21
-1.0
 31
0.0
  0
LINE
  5
FFBBDAE469BBEF37
  8
0
  6
CONTINUOUS
 10
-3.1500000000000901
 20
0.5
 30
0.0
 11
0.349999999999909
 21
0.5
 31
0.0
  0
LINE
  5
FFBBDAE469BBEF38
  8
0
  6
CONTINUOUS
 10
-3.1500000000000901
 20
2.0
 30
0.0
 11
0.349999999999909
 21
2.0
 31
0.0
  0
LINE
  5
FFBBDAE469BBEF39
  8
0
  6
CONTINUOUS
 10
-3.1500000000000901
 20
3.5
 30
0.0
 11
0.349999999999909
 21
3.5
 31
0.0
  0
LINE
  5
FFBBDAE469BBEF3A
  8
0
  6
CONTINUOUS
 10
-3.1500000000000901
 20
5.0
 30
0.0
 11
0.349999999999909
 21
5.0
 31
0.0
  0
LINE
  5
FFBBDAE469BBEF3B
  8
0
  6
CONTINUOUS
 10
-3.1500000000000901
 20
6.5
 30
0.0
 11
0.349999999999909
 21
6.5
 31
0.0
  0
INSERT
  5
FFBBDAE469BBF231
  8
0
  6
CONTINUOUS
  2
*U7
 10
0.0
 20
0.0
 30
0.0
  0
INSERT
  5
FFBBDAE469BBF232
  8
0
  6
CONTINUOUS
  2
*U8
 10
0.0
 20
0.0
 30
0.0
  0
INSERT
  5
FFBBDAE469BBF529
  8
0
  6
CONTINUOUS
  2
*U9
 10
0.0
 20
0.0
 30
0.0
1001
ACAD
1000
DSTYLE
1002
{
1070
    40
1040
1.0
1070
    77
1070
     0
1002
}
  0
INSERT
  5
FFBBDAE469BBF52A
  8
0
  6
CONTINUOUS
  2
*U10
 10
0.0
 20
0.0
 30
0.0
  0
INSERT
  5
FFBBDAE469BBF52B
  8
0
  6
CONTINUOUS
  2
*U11
 10
0.0
 20
0.0
 30
0.0
1001
ACAD
1000
DSTYLE
1002
{
1070
    40
1040
1.0
1070
    77
1070
     0
1002
}
  0
INSERT
  5
FFBBDAE469BBF52C
  8
0
  6
CONTINUOUS
  2
*U12
 10
0.0
 20
0.0
 30
0.0
  0
INSERT
  5
FFBBDAE469BBF52D
  8
0
  6
CONTINUOUS
  2
*U13
 10
0.0
 20
0.0
 30
0.0
1001
ACAD
1000
DSTYLE
1002
{
1070
    40
1040
1.0
1070
    77
1070
     0
1002
}
  0
INSERT
  5
FFBBDAE469BBF52E
  8
0
  6
CONTINUOUS
  2
*U14
 10
0.0
 20
0.0
 30
0.0
  0
INSERT
  5
FFBBDAE469BBF52F
  8
0
  6
CONTINUOUS
  2
*U15
 10
0.0
 20
0.0
 30
0.0
1001
ACAD
1000
DSTYLE
1002
{
1070
    40
1040
1.0
1070
    77
1070
     0
1002
}
  0
INSERT
  5
FFBBDAE469BBF530
  8
0
  6
CONTINUOUS
  2
*U16
 10
0.0
 20
0.0
 30
0.0
  0
INSERT
  5
FFBBDAE469BBF531
  8
0
  6
CONTINUOUS
  2
*U17
 10
0.0
 20
0.0
 30
0.0
1001
ACAD
1000
DSTYLE
1002
{
1070
    40
1040
1.0
1070
    77
1070
     0
1002
}
  0
INSERT
  5
FFBBDAE469BBF532
  8
0
  6
CONTINUOUS
  2
*U18
 10
0.0
 20
0.0
 30
0.0
  0
INSERT
  5
FFBBDAE469BBF533
  8
0
  6
CONTINUOUS
  2
*U19
 10
0.0
 20
0.0
 30
0.0
1001
ACAD
1000
DSTYLE
1002
{
1070
    40
1040
1.0
1070
    77
1070
     0
1002
}
  0
INSERT
  5
FFBBDAE469BBF534
  8
0
  6
CONTINUOUS
  2
*U20
 10
0.0
 20
0.0
 30
0.0
  0
INSERT
  5
FFBBDAE469BBF535
  8
0
  6
CONTINUOUS
  2
*U21
 10
0.0
 20
0.0
 30
0.0
1001
ACAD
1000
DSTYLE
1002
{
1070
    40
1040
1.0
1070
    77
1070
     0
1002
}
  0
INSERT
  5
FFBBDAE469BBF536
  8
0
  6
CONTINUOUS
  2
*U22
 10
0.0
 20
0.0
 30
0.0
  0
INSERT
  5
FFBBDAE469BBF537
  8
0
  6
CONTINUOUS
  2
*U23
 10
0.0
 20
0.0
 30
0.0
1001
ACAD
1000
DSTYLE
1002
{
1070
    40
1040
1.0
1070
    77
1070
     0
1002
}
  0
INSERT
  5
FFBBDAE469BBF538
  8
0
  6
CONTINUOUS
  2
*U24
 10
0.0
 20
0.0
 30
0.0
  0
POLYLINE
  5
FFBBDAE469BBFA10
  8
0
  6
CONTINUOUS
 66
     1
 10
0.0
 20
0.0
 30
0.0
  0
VERTEX
  5
FFBBDAE469BC05F8
  8
0
  6
CONTINUOUS
 10
-35.729498383655027
 20
59.421862866373431
 30
0.0
  0
VERTEX
  5
FFBBDAE469BC05F9
  8
0
  6
CONTINUOUS
 10
-2.8568602570289841
 20
59.421862866373431
 30
0.0
  0
VERTEX
  5
FFBBDAE469BC05FA
  8
0
  6
CONTINUOUS
 10
-2.3568602570280741
 20
58.048124156646281
 30
0.0
  0
VERTEX
  5
FFBBDAE469BC05FB
  8
0
  6
CONTINUOUS
 10
-1.3568602570280739
 20
60.79560157610149
 30
0.0
  0
VERTEX
  5
FFBBDAE469BC05FC
  8
0
  6
CONTINUOUS
 10
-0.8568602570289841
 20
59.421862866373431
 30
0.0
  0
VERTEX
  5
FFBBDAE469BC05FD
  8
0
  6
CONTINUOUS
 10
32.015777869597059
 20
59.421862866373431
 30
0.0
  0
SEQEND
  5
FFBBDAE469BC05FE
  8
0
  6
CONTINUOUS
  0
POLYLINE
  5
FFBBDAE469BBFA1C
  8
0
  6
CONTINUOUS
 66
     1
 10
0.0
 20
0.0
 30
0.0
  0
VERTEX
  5
FFBBDAE469BC05FF
  8
0
  6
CONTINUOUS
 10
-50.218770702162139
 20
-40.336092044121862
 30
0.0
  0
VERTEX
  5
FFBBDAE469BC0600
  8
0
  6
CONTINUOUS
 10
-50.218770702162139
 20
-16.814704572926981
 30
0.0
  0
VERTEX
  5
FFBBDAE469BC0601
  8
0
  6
CONTINUOUS
 10
-48.845031992434997
 20
-16.314704572926981
 30
0.0
  0
VERTEX
  5
FFBBDAE469BC0602
  8
0
  6
CONTINUOUS
 10
-51.592509411890212
 20
-15.31470457292698
 30
0.0
  0
VERTEX
  5
FFBBDAE469BC0603
  8
0
  6
CONTINUOUS
 10
-50.218770702162139
 20
-14.81470457292698
 30
0.0
  0
VERTEX
  5
FFBBDAE469BC0604
  8
0
  6
CONTINUOUS
 10
-50.218770702162139
 20
8.7066828982678999
 30
0.0
  0
SEQEND
  5
FFBBDAE469BC0605
  8
0
  6
CONTINUOUS
  0
POLYLINE
  5
FFBBDAE469BBFA1E
  8
0
  6
CONTINUOUS
 66
     1
 10
0.0
 20
0.0
 30
0.0
  0
VERTEX
  5
FFBBDAE469BC0606
  8
0
  6
CONTINUOUS
 10
54.820166073605378
 20
-41.890102881449593
 30
0.0
  0
VERTEX
  5
FFBBDAE469BC0607
  8
0
  6
CONTINUOUS
 10
54.820166073605378
 20
-18.368715410254708
 30
0.0
  0
VERTEX
  5
FFBBDAE469BC0608
  8
0
  6
CONTINUOUS
 10
56.193904783332528
 20
-17.868715410254708
 30
0.0
  0
VERTEX
  5
FFBBDAE469BC0609
  8
0
  6
CONTINUOUS
 10
53.446427363877319
 20
-16.868715410254708
 30
0.0
  0
VERTEX
  5
FFBBDAE469BC060A
  8
0
  6
CONTINUOUS
 10
54.820166073605378
 20
-16.368715410254708
 30
0.0
  0
VERTEX
  5
FFBBDAE469BC060B
  8
0
  6
CONTINUOUS
 10
54.820166073605378
 20
7.1526720609401737
 30
0.0
  0
SEQEND
  5
FFBBDAE469BC060C
  8
0
  6
CONTINUOUS
  0
ENDSEC
  0
EOF
