  0
SECTION
  2
HEADER
  9
$ACADVER
  1
AC1018
  9
$ACADMAINTVER
 70
     0
  9
$DWGCODEPAGE
  3
ANSI_1252
  9
$INSBASE
 10
0.0
 20
0.0
 30
0.0
  9
$EXTMIN
 10
1.000000000000000E+20
 20
1.000000000000000E+20
 30
1.000000000000000E+20
  9
$EXTMAX
 10
-1.000000000000000E+20
 20
-1.000000000000000E+20
 30
-1.000000000000000E+20
  9
$LIMMIN
 10
0.0
 20
0.0
  9
$LIMMAX
 10
12.0
 20
9.0
  9
$ORTHOMODE
 70
     0
  9
$REGENMODE
 70
     1
  9
$FILLMODE
 70
     1
  9
$QTEXTMODE
 70
     0
  9
$MIRRTEXT
 70
     1
  9
$LTSCALE
 40
1.0
  9
$ATTMODE
 70
     1
  9
$TEXTSIZE
 40
0.2
  9
$TRACEWID
 40
0.05
  9
$TEXTSTYLE
  7
Standard
  9
$CLAYER
  8
0
  9
$CELTYPE
  6
ByLayer
  9
$CECOLOR
 62
   256
  9
$CELTSCALE
 40
1.0
  9
$DISPSILH
 70
     0
  9
$DIMSCALE
 40
1.0
  9
$DIMASZ
 40
0.18
  9
$DIMEXO
 40
0.0625
  9
$DIMDLI
 40
0.38
  9
$DIMRND
 40
0.0
  9
$DIMDLE
 40
0.0
  9
$DIMEXE
 40
0.18
  9
$DIMTP
 40
0.0
  9
$DIMTM
 40
0.0
  9
$DIMTXT
 40
0.18
  9
$DIMCEN
 40
0.09
  9
$DIMTSZ
 40
0.0
  9
$DIMTOL
 70
     0
  9
$DIMLIM
 70
     0
  9
$DIMTIH
 70
     1
  9
$DIMTOH
 70
     1
  9
$DIMSE1
 70
     0
  9
$DIMSE2
 70
     0
  9
$DIMTAD
 70
     0
  9
$DIMZIN
 70
     0
  9
$DIMBLK
  1

  9
$DIMASO
 70
     1
  9
$DIMSHO
 70
     1
  9
$DIMPOST
  1

  9
$DIMAPOST
  1

  9
$DIMALT
 70
     0
  9
$DIMALTD
 70
     2
  9
$DIMALTF
 40
25.4
  9
$DIMLFAC
 40
1.0
  9
$DIMTOFL
 70
     0
  9
$DIMTVP
 40
0.0
  9
$DIMTIX
 70
     0
  9
$DIMSOXD
 70
     0
  9
$DIMSAH
 70
     0
  9
$DIMBLK1
  1

  9
$DIMBLK2
  1

  9
$DIMSTYLE
  2
Standard
  9
$DIMCLRD
 70
     0
  9
$DIMCLRE
 70
     0
  9
$DIMCLRT
 70
     0
  9
$DIMTFAC
 40
1.0
  9
$DIMGAP
 40
0.09
  9
$DIMJUST
 70
     0
  9
$DIMSD1
 70
     0
  9
$DIMSD2
 70
     0
  9
$DIMTOLJ
 70
     1
  9
$DIMTZIN
 70
     0
  9
$DIMALTZ
 70
     0
  9
$DIMALTTZ
 70
     0
  9
$DIMUPT
 70
     0
  9
$DIMDEC
 70
     4
  9
$DIMTDEC
 70
     4
  9
$DIMALTU
 70
     2
  9
$DIMALTTD
 70
     2
  9
$DIMTXSTY
  7
Standard
  9
$DIMAUNIT
 70
     0
  9
$DIMADEC
 70
     0
  9
$DIMALTRND
 40
0.0
  9
$DIMAZIN
 70
     0
  9
$DIMDSEP
 70
    46
  9
$DIMATFIT
 70
     3
  9
$DIMFRAC
 70
     0
  9
$DIMLDRBLK
  1

  9
$DIMLUNIT
 70
     2
  9
$DIMLWD
 70
    -2
  9
$DIMLWE
 70
    -2
  9
$DIMTMOVE
 70
     0
  9
$LUNITS
 70
     2
  9
$LUPREC
 70
     4
  9
$SKETCHINC
 40
0.1
  9
$FILLETRAD
 40
0.5
  9
$AUNITS
 70
     0
  9
$AUPREC
 70
     0
  9
$MENU
  1
.
  9
$ELEVATION
 40
0.0
  9
$PELEVATION
 40
0.0
  9
$THICKNESS
 40
0.0
  9
$LIMCHECK
 70
     0
  9
$CHAMFERA
 40
0.5
  9
$CHAMFERB
 40
0.5
  9
$CHAMFERC
 40
1.0
  9
$CHAMFERD
 40
0.0
  9
$SKPOLY
 70
     0
  9
$TDCREATE
 40
2457126.52655647
  9
$TDUCREATE
 40
2457126.02655647
  9
$TDUPDATE
 40
2457126.526557697
  9
$TDUUPDATE
 40
2457126.026557697
  9
$TDINDWG
 40
0.0000000116
  9
$TDUSRTIMER
 40
0.0000000116
  9
$USRTIMER
 70
     1
  9
$ANGBASE
 50
0.0
  9
$ANGDIR
 70
     0
  9
$PDMODE
 70
     0
  9
$PDSIZE
 40
0.0
  9
$PLINEWID
 40
0.0
  9
$SPLFRAME
 70
     0
  9
$SPLINETYPE
 70
     6
  9
$SPLINESEGS
 70
     8
  9
$HANDSEED
  5
232
  9
$SURFTAB1
 70
     6
  9
$SURFTAB2
 70
     6
  9
$SURFTYPE
 70
     6
  9
$SURFU
 70
     6
  9
$SURFV
 70
     6
  9
$UCSBASE
  2

  9
$UCSNAME
  2

  9
$UCSORG
 10
0.0
 20
0.0
 30
0.0
  9
$UCSXDIR
 10
1.0
 20
0.0
 30
0.0
  9
$UCSYDIR
 10
0.0
 20
1.0
 30
0.0
  9
$UCSORTHOREF
  2

  9
$UCSORTHOVIEW
 70
     0
  9
$UCSORGTOP
 10
0.0
 20
0.0
 30
0.0
  9
$UCSORGBOTTOM
 10
0.0
 20
0.0
 30
0.0
  9
$UCSORGLEFT
 10
0.0
 20
0.0
 30
0.0
  9
$UCSORGRIGHT
 10
0.0
 20
0.0
 30
0.0
  9
$UCSORGFRONT
 10
0.0
 20
0.0
 30
0.0
  9
$UCSORGBACK
 10
0.0
 20
0.0
 30
0.0
  9
$PUCSBASE
  2

  9
$PUCSNAME
  2

  9
$PUCSORG
 10
0.0
 20
0.0
 30
0.0
  9
$PUCSXDIR
 10
1.0
 20
0.0
 30
0.0
  9
$PUCSYDIR
 10
0.0
 20
1.0
 30
0.0
  9
$PUCSORTHOREF
  2

  9
$PUCSORTHOVIEW
 70
     0
  9
$PUCSORGTOP
 10
0.0
 20
0.0
 30
0.0
  9
$PUCSORGBOTTOM
 10
0.0
 20
0.0
 30
0.0
  9
$PUCSORGLEFT
 10
0.0
 20
0.0
 30
0.0
  9
$PUCSORGRIGHT
 10
0.0
 20
0.0
 30
0.0
  9
$PUCSORGFRONT
 10
0.0
 20
0.0
 30
0.0
  9
$PUCSORGBACK
 10
0.0
 20
0.0
 30
0.0
  9
$USERI1
 70
     0
  9
$USERI2
 70
     0
  9
$USERI3
 70
     0
  9
$USERI4
 70
     0
  9
$USERI5
 70
     0
  9
$USERR1
 40
0.0
  9
$USERR2
 40
0.0
  9
$USERR3
 40
0.0
  9
$USERR4
 40
0.0
  9
$USERR5
 40
0.0
  9
$WORLDVIEW
 70
     1
  9
$SHADEDGE
 70
     3
  9
$SHADEDIF
 70
    70
  9
$TILEMODE
 70
     1
  9
$MAXACTVP
 70
    64
  9
$PINSBASE
 10
0.0
 20
0.0
 30
0.0
  9
$PLIMCHECK
 70
     0
  9
$PEXTMIN
 10
1.000000000000000E+20
 20
1.000000000000000E+20
 30
1.000000000000000E+20
  9
$PEXTMAX
 10
-1.000000000000000E+20
 20
-1.000000000000000E+20
 30
-1.000000000000000E+20
  9
$PLIMMIN
 10
0.0
 20
0.0
  9
$PLIMMAX
 10
12.0
 20
9.0
  9
$UNITMODE
 70
     0
  9
$VISRETAIN
 70
     1
  9
$PLINEGEN
 70
     0
  9
$PSLTSCALE
 70
     1
  9
$TREEDEPTH
 70
  3020
  9
$CMLSTYLE
  2
Standard
  9
$CMLJUST
 70
     0
  9
$CMLSCALE
 40
1.0
  9
$PROXYGRAPHICS
 70
     1
  9
$MEASUREMENT
 70
     0
  9
$CELWEIGHT
370
    -1
  9
$ENDCAPS
280
     0
  9
$JOINSTYLE
280
     0
  9
$LWDISPLAY
290
     1
  9
$INSUNITS
 70
     4
  9
$HYPERLINKBASE
  1

  9
$STYLESHEET
  1

  9
$XEDIT
290
     1
  9
$CEPSNTYPE
380
     0
  9
$PSTYLEMODE
290
     1
  9
$FINGERPRINTGUID
  2
{23DEB6E6-B0AF-4D6E-AA88-B8495F73A175}
  9
$VERSIONGUID
  2
{FAEB1C32-E019-11D5-929B-00C0DF256EC4}
  9
$EXTNAMES
290
     1
  9
$PSVPSCALE
 40
0.0
  9
$OLESTARTUP
290
     0
  9
$SORTENTS
280
   127
  9
$INDEXCTL
280
     0
  9
$HIDETEXT
280
     1
  9
$XCLIPFRAME
290
     0
  9
$HALOGAP
280
     0
  9
$OBSCOLOR
 70
   257
  9
$OBSLTYPE
280
     0
  9
$INTERSECTIONDISPLAY
280
     0
  9
$INTERSECTIONCOLOR
 70
   257
  9
$DIMASSOC
280
     2
  9
$PROJECTNAME
  1

  0
ENDSEC
  0
SECTION
  2
CLASSES
  0
CLASS
  1
ACDBDICTIONARYWDFLT
  2
AcDbDictionaryWithDefault
  3
ObjectDBX Classes
 90
        0
 91
        4
280
     0
281
     0
  0
CLASS
  1
VISUALSTYLE
  2
AcDbVisualStyle
  3
ObjectDBX Classes
 90
     4095
 91
        4
280
     0
281
     0
  0
CLASS
  1
MATERIAL
  2
AcDbMaterial
  3
ObjectDBX Classes
 90
     1153
 91
        4
280
     0
281
     0
  0
CLASS
  1
WIPEOUT
  2
AcDbWipeout
  3
WipeOut|AutoCAD Express Tool|expresstools@autodesk.com
 90
      127
 91
        4
280
     0
281
     1
  0
CLASS
  1
SCALE
  2
AcDbScale
  3
ObjectDBX Classes
 90
     1153
 91
        4
280
     0
281
     0
  0
CLASS
  1
DICTIONARYVAR
  2
AcDbDictionaryVar
  3
ObjectDBX Classes
 90
        0
 91
        4
280
     0
281
     0
  0
ENDSEC
  0
SECTION
  2
TABLES
  0
TABLE
  2
VPORT
  5
8
330
0
100
AcDbSymbolTable
 70
     1
  0
VPORT
  5
29
330
8
100
AcDbSymbolTableRecord
100
AcDbViewportTableRecord
  2
*Active
 70
     0
 10
0.0
 20
0.0
 11
1.0
 21
1.0
 12
476.2461431277291
 22
-101.2090220986273
 13
0.0
 23
0.0
 14
0.5
 24
0.5
 15
0.5
 25
0.5
 16
0.0
 26
0.0
 36
1.0
 17
0.0
 27
0.0
 37
0.0
 40
1227.828923185494
 41
0.7912683221861125
 42
50.0
 43
0.0
 44
0.0
 50
0.0
 51
0.0
 71
     0
 72
   100
 73
     1
 74
     3
 75
     0
 76
     0
 77
     0
 78
     0
281
     0
 65
     1
110
0.0
120
0.0
130
0.0
111
1.0
121
0.0
131
0.0
112
0.0
122
1.0
132
0.0
 79
     0
146
0.0
  0
ENDTAB
  0
TABLE
  2
LTYPE
  5
5
330
0
100
AcDbSymbolTable
 70
     4
  0
LTYPE
  5
14
330
5
100
AcDbSymbolTableRecord
100
AcDbLinetypeTableRecord
  2
ByBlock
 70
     0
  3

 72
    65
 73
     0
 40
0.0
  0
LTYPE
  5
15
330
5
100
AcDbSymbolTableRecord
100
AcDbLinetypeTableRecord
  2
ByLayer
 70
     0
  3

 72
    65
 73
     0
 40
0.0
  0
LTYPE
  5
16
330
5
100
AcDbSymbolTableRecord
100
AcDbLinetypeTableRecord
  2
Continuous
 70
     0
  3
Solid line
 72
    65
 73
     0
 40
0.0
  0
LTYPE
  5
130
330
5
100
AcDbSymbolTableRecord
100
AcDbLinetypeTableRecord
  2
Above
 70
     0
  3
- - - - - 
 72
    65
 73
     2
 40
15.0
 49
10.0
 74
     0
 49
-4.999999999999999
 74
     0
  0
LTYPE
  5
1B1
330
5
100
AcDbSymbolTableRecord
100
AcDbLinetypeTableRecord
  2
AStair_dashed
 70
     0
  3
- - - - - 
 72
    65
 73
     2
 40
18.00000000000001
 49
8.000000000000004
 74
     0
 49
-10.0
 74
     0
  0
LTYPE
  5
1BB
330
5
100
AcDbSymbolTableRecord
100
AcDbLinetypeTableRecord
  2
Wipeout_Contour
 70
     0
  3
- - - - - 
 72
    65
 73
     2
 40
1000.0
 49
0.0
 74
     0
 49
-1000.0
 74
     0
  0
ENDTAB
  0
TABLE
  2
LAYER
  5
2
330
0
100
AcDbSymbolTable
 70
     4
  0
LAYER
  5
10
330
2
100
AcDbSymbolTableRecord
100
AcDbLayerTableRecord
  2
0
 70
     0
 62
     7
  6
Continuous
370
    -3
390
F
  0
LAYER
  5
40
330
2
100
AcDbSymbolTableRecord
100
AcDbLayerTableRecord
  2
0_Pen_No__146
 70
     0
 62
     9
420
 13290186
  6
Continuous
370
     5
390
F
  0
LAYER
  5
E7
330
2
100
AcDbSymbolTableRecord
100
AcDbLayerTableRecord
  2
0_Pen_No__1
 70
     0
 62
     7
  6
Continuous
370
    13
390
F
  0
LAYER
  5
1BC
330
2
100
AcDbSymbolTableRecord
100
AcDbLayerTableRecord
  2
Key_ Sections_Pen_No__1
 70
     0
 62
     7
  6
Continuous
370
    13
390
F
  0
ENDTAB
  0
TABLE
  2
STYLE
  5
3
330
0
100
AcDbSymbolTable
 70
     2
  0
STYLE
  5
11
330
3
100
AcDbSymbolTableRecord
100
AcDbTextStyleTableRecord
  2
Standard
 70
     0
 40
0.0
 41
1.0
 50
0.0
 71
     0
 42
0.2
  3
txt
  4

  0
STYLE
  5
1B9
330
3
100
AcDbSymbolTableRecord
100
AcDbTextStyleTableRecord
  2
GENERATED_STYLE_1
 70
     0
 40
0.0
 41
1.0
 50
0.0
 71
     0
 42
0.2
  3

  4

1001
ACAD
1000
Arial
1071
       34
  0
ENDTAB
  0
TABLE
  2
VIEW
  5
6
330
0
100
AcDbSymbolTable
 70
     0
  0
ENDTAB
  0
TABLE
  2
UCS
  5
7
330
0
100
AcDbSymbolTable
 70
     0
  0
ENDTAB
  0
TABLE
  2
APPID
  5
9
330
0
100
AcDbSymbolTable
 70
     1
  0
APPID
  5
12
330
9
100
AcDbSymbolTableRecord
100
AcDbRegAppTableRecord
  2
ACAD
 70
     0
  0
ENDTAB
  0
TABLE
  2
DIMSTYLE
  5
A
330
0
100
AcDbSymbolTable
 70
     2
100
AcDbDimStyleTable
  0
DIMSTYLE
105
27
330
A
100
AcDbSymbolTableRecord
100
AcDbDimStyleTableRecord
  2
Standard
 70
     0
178
     0
340
11
  0
DIMSTYLE
105
1BF
330
A
100
AcDbSymbolTableRecord
100
AcDbDimStyleTableRecord
  2
GENERATED_STYLE__1
 70
     0
 41
9.12
172
     1
178
     0
340
0
341
1C0
  0
ENDTAB
  0
TABLE
  2
BLOCK_RECORD
  5
1
330
0
100
AcDbSymbolTable
 70
     5
  0
BLOCK_RECORD
  5
1F
330
1
100
AcDbSymbolTableRecord
100
AcDbBlockTableRecord
  2
*Model_Space
340
22
  0
BLOCK_RECORD
  5
1B
330
1
100
AcDbSymbolTableRecord
100
AcDbBlockTableRecord
  2
*Paper_Space
340
1E
  0
BLOCK_RECORD
  5
23
330
1
100
AcDbSymbolTableRecord
100
AcDbBlockTableRecord
  2
*Paper_Space0
340
26
  0
BLOCK_RECORD
  5
43
330
1
100
AcDbSymbolTableRecord
100
AcDbBlockTableRecord
  2
Fill_1
340
0
102
{BLKREFS
331
E4
102
}
  0
BLOCK_RECORD
  5
46
330
1
100
AcDbSymbolTableRecord
100
AcDbBlockTableRecord
  2
*X2
340
0
102
{BLKREFS
331
E3
102
}
  0
BLOCK_RECORD
  5
1C0
330
1
100
AcDbSymbolTableRecord
100
AcDbBlockTableRecord
  2
ARROWHEAD_5
340
0
  0
BLOCK_RECORD
  5
1E0
330
1
100
AcDbSymbolTableRecord
100
AcDbBlockTableRecord
  2
DF-44-T Door Sill_STORY_MARKER
340
0
  0
ENDTAB
  0
ENDSEC
  0
SECTION
  2
BLOCKS
  0
BLOCK
  5
20
330
1F
100
AcDbEntity
  8
0
100
AcDbBlockBegin
  2
*Model_Space
 70
     0
 10
0.0
 20
0.0
 30
0.0
  3
*Model_Space
  1

  0
ENDBLK
  5
21
330
1F
100
AcDbEntity
  8
0
100
AcDbBlockEnd
  0
BLOCK
  5
1C
330
1B
100
AcDbEntity
 67
     1
  8
0
100
AcDbBlockBegin
  2
*Paper_Space
 70
     0
 10
0.0
 20
0.0
 30
0.0
  3
*Paper_Space
  1

  0
ENDBLK
  5
1D
330
1B
100
AcDbEntity
 67
     1
  8
0
100
AcDbBlockEnd
  0
BLOCK
  5
24
330
23
100
AcDbEntity
  8
0
100
AcDbBlockBegin
  2
*Paper_Space0
 70
     0
 10
0.0
 20
0.0
 30
0.0
  3
*Paper_Space0
  1

  0
ENDBLK
  5
25
330
23
100
AcDbEntity
  8
0
100
AcDbBlockEnd
  0
BLOCK
  5
44
330
43
100
AcDbEntity
  8
0
100
AcDbBlockBegin
  2
Fill_1
 70
     0
 10
0.0
 20
0.0
 30
0.0
  3
Fill_1
  1

  0
INSERT
  5
E3
330
43
100
AcDbEntity
  8
0_Pen_No__146
  6
Continuous
100
AcDbBlockReference
  2
*X2
 10
0.0
 20
0.0
 30
0.0
  0
ENDBLK
  5
45
330
43
100
AcDbEntity
  8
0
100
AcDbBlockEnd
  0
BLOCK
  5
47
330
46
100
AcDbEntity
  8
0
100
AcDbBlockBegin
  2
*X2
 70
     1
 10
0.0
 20
0.0
 30
0.0
  3
*X2
  1

  0
LINE
  5
49
330
46
100
AcDbEntity
  8
0_Pen_No__146
  6
Continuous
100
AcDbLine
 10
233.847500043128
 20
-415.6206209084088
 30
0.0
 11
241.1945624218451
 21
-406.8647329235589
 31
0.0
  0
LINE
  5
4A
330
46
100
AcDbEntity
  8
0_Pen_No__146
  6
Continuous
100
AcDbLine
 10
233.847500043128
 20
-161.9555042889495
 30
0.0
 11
241.1945624218451
 21
-153.1996163040995
 31
0.0
  0
LINE
  5
4B
330
46
100
AcDbEntity
  8
0_Pen_No__146
  6
Continuous
100
AcDbLine
 10
121.1956157689821
 20
-425.1840722317507
 30
0.0
 11
128.5426781476993
 21
-416.4281842469007
 31
0.0
  0
LINE
  5
4C
330
46
100
AcDbEntity
  8
0_Pen_No__146
  6
Continuous
100
AcDbLine
 10
121.1956157689822
 20
-171.5189556122914
 30
0.0
 11
128.5426781476993
 21
-162.7630676274414
 31
0.0
  0
LINE
  5
4D
330
46
100
AcDbEntity
  8
0_Pen_No__146
  6
Continuous
100
AcDbLine
 10
209.3603643135878
 20
-320.1134164135517
 30
0.0
 11
216.707426692305
 21
-311.3575284287018
 31
0.0
  0
LINE
  5
4E
330
46
100
AcDbEntity
  8
0_Pen_No__146
  6
Continuous
100
AcDbLine
 10
209.3600224504016
 20
-320.1134858595309
 30
0.0
 11
218.4692267697525
 21
-320.9104379712156
 31
0.0
  0
LINE
  5
4F
330
46
100
AcDbEntity
  8
0_Pen_No__146
  6
Continuous
100
AcDbLine
 10
233.847500043128
 20
-415.6206209084088
 30
0.0
 11
242.9567043624789
 21
-416.4175730200934
 31
0.0
  0
LINE
  5
50
330
46
100
AcDbEntity
  8
0_Pen_No__146
  6
Continuous
100
AcDbLine
 10
233.847500043128
 20
-161.9555042889495
 30
0.0
 11
242.9567043624789
 21
-162.7524564006341
 31
0.0
  0
LINE
  5
51
330
46
100
AcDbEntity
  8
0_Pen_No__146
  6
Continuous
100
AcDbLine
 10
121.1952662035907
 20
-425.1840462486239
 30
0.0
 11
130.3044705229416
 21
-425.9809983603084
 31
0.0
  0
LINE
  5
52
330
46
100
AcDbEntity
  8
0_Pen_No__146
  6
Continuous
100
AcDbLine
 10
121.1952662035907
 20
-171.5189296291645
 30
0.0
 11
130.3044705229416
 21
-172.3158817408491
 31
0.0
  0
LINE
  5
53
330
46
100
AcDbEntity
  8
0_Pen_No__146
  6
Continuous
100
AcDbLine
 10
242.956700043128
 20
-416.4175709084088
 30
0.0
 11
241.1946332075194
 21
-406.8647223035764
 31
0.0
  0
LINE
  5
54
330
46
100
AcDbEntity
  8
0_Pen_No__146
  6
Continuous
100
AcDbLine
 10
242.956700043128
 20
-162.7524542889495
 30
0.0
 11
241.1946332075194
 21
-153.199605684117
 31
0.0
  0
LINE
  5
55
330
46
100
AcDbEntity
  8
0_Pen_No__146
  6
Continuous
100
AcDbLine
 10
130.3043173982582
 20
-425.9817414742225
 30
0.0
 11
128.5422505626497
 21
-416.42889286939
 31
0.0
  0
LINE
  5
56
330
46
100
AcDbEntity
  8
0_Pen_No__146
  6
Continuous
100
AcDbLine
 10
130.3043173982582
 20
-172.3166248547631
 30
0.0
 11
128.5422505626497
 21
-162.7637762499307
 31
0.0
  0
LINE
  5
57
330
46
100
AcDbEntity
  8
0_Pen_No__146
  6
Continuous
100
AcDbLine
 10
218.4698183978339
 20
-320.9117287820474
 30
0.0
 11
216.7077515622253
 21
-311.3588801772149
 31
0.0
  0
LINE
  5
58
330
46
100
AcDbEntity
  8
0_Pen_No__146
  6
Continuous
100
AcDbLine
 10
233.847500043128
 20
-385.1406209084088
 30
0.0
 11
245.7177067468442
 21
-372.7693146794348
 31
0.0
  0
LINE
  5
59
330
46
100
AcDbEntity
  8
0_Pen_No__146
  6
Continuous
100
AcDbLine
 10
174.5322389066577
 20
-410.3660176680451
 30
0.0
 11
186.4024456103739
 21
-397.9947114390711
 31
0.0
  0
LINE
  5
5A
330
46
100
AcDbEntity
  8
0_Pen_No__146
  6
Continuous
100
AcDbLine
 10
174.5322389066577
 20
-156.7009010485858
 30
0.0
 11
186.4024456103739
 21
-144.3295948196117
 31
0.0
  0
LINE
  5
5B
330
46
100
AcDbEntity
  8
0_Pen_No__146
  6
Continuous
100
AcDbLine
 10
247.401440043128
 20
-387.2427209084088
 30
0.0
 11
245.7176976423076
 21
-372.7693297187919
 31
0.0
  0
LINE
  5
5C
330
46
100
AcDbEntity
  8
0_Pen_No__146
  6
Continuous
100
AcDbLine
 10
188.0862038609662
 20
-412.4680816497819
 30
0.0
 11
186.4024614601458
 21
-397.994690460165
 31
0.0
  0
LINE
  5
5D
330
46
100
AcDbEntity
  8
0_Pen_No__146
  6
Continuous
100
AcDbLine
 10
188.0862038609662
 20
-158.8029650303226
 30
0.0
 11
186.4024614601458
 21
-144.3295738407057
 31
0.0
  0
LINE
  5
5E
330
46
100
AcDbEntity
  8
0_Pen_No__146
  6
Continuous
100
AcDbLine
 10
233.847500043128
 20
-385.1406209084088
 30
0.0
 11
247.4014540236475
 21
-387.242759698774
 31
0.0
  0
LINE
  5
5F
330
46
100
AcDbEntity
  8
0_Pen_No__146
  6
Continuous
100
AcDbLine
 10
174.5322621376144
 20
-410.3662863927913
 30
0.0
 11
188.0862161181339
 21
-412.4684251831565
 31
0.0
  0
LINE
  5
60
330
46
100
AcDbEntity
  8
0_Pen_No__146
  6
Continuous
100
AcDbLine
 10
174.5322621376144
 20
-156.7011697733319
 30
0.0
 11
188.0862161181339
 21
-158.8033085636972
 31
0.0
  0
LINE
  5
61
330
46
100
AcDbEntity
  8
0_Pen_No__146
  6
Continuous
100
AcDbLine
 10
286.1684634402542
 20
-535.9126784581773
 30
0.0
 11
288.08377213016
 21
-535.1774603361317
 31
0.0
  0
LINE
  5
62
330
46
100
AcDbEntity
  8
0_Pen_No__146
  6
Continuous
100
AcDbLine
 10
286.1684634402542
 20
-282.247561838718
 30
0.0
 11
288.08377213016
 21
-281.5123437166724
 31
0.0
  0
LINE
  5
63
330
46
100
AcDbEntity
  8
0_Pen_No__146
  6
Continuous
100
AcDbLine
 10
155.1747056697359
 20
-343.6068729487754
 30
0.0
 11
165.8455299445989
 21
-339.5107272854727
 31
0.0
  0
LINE
  5
64
330
46
100
AcDbEntity
  8
0_Pen_No__146
  6
Continuous
100
AcDbLine
 10
155.1747056697359
 20
-89.94175632931609
 30
0.0
 11
155.515593941284
 21
-89.81090158190337
 31
0.0
  0
LINE
  5
65
330
46
100
AcDbEntity
  8
0_Pen_No__146
  6
Continuous
100
AcDbLine
 10
221.9626856717483
 20
-499.4518724396627
 30
0.0
 11
222.6773609208648
 21
-499.177534314797
 31
0.0
  0
LINE
  5
66
330
46
100
AcDbEntity
  8
0_Pen_No__146
  6
Continuous
100
AcDbLine
 10
221.9626856717483
 20
-245.7867558202034
 30
0.0
 11
222.6773609208648
 21
-245.5124176953376
 31
0.0
  0
LINE
  5
67
330
46
100
AcDbEntity
  8
0_Pen_No__146
  6
Continuous
100
AcDbLine
 10
118.0937422726096
 20
-454.1199320184663
 30
0.0
 11
128.7645665474727
 21
-450.0237863551636
 31
0.0
  0
LINE
  5
68
330
46
100
AcDbEntity
  8
0_Pen_No__146
  6
Continuous
100
AcDbLine
 10
118.0937422726097
 20
-200.454815399007
 30
0.0
 11
128.7645665474727
 21
-196.3586697357042
 31
0.0
  0
LINE
  5
69
330
46
100
AcDbEntity
  8
0_Pen_No__146
  6
Continuous
100
AcDbLine
 10
286.1687170517162
 20
-535.9129578544765
 30
0.0
 11
288.08377213016
 21
-537.2046788151092
 31
0.0
  0
LINE
  5
6A
330
46
100
AcDbEntity
  8
0_Pen_No__146
  6
Continuous
100
AcDbLine
 10
286.1687170517162
 20
-282.2478412350173
 30
0.0
 11
288.08377213016
 21
-283.5395621956499
 31
0.0
  0
LINE
  5
6B
330
46
100
AcDbEntity
  8
0_Pen_No__146
  6
Continuous
100
AcDbLine
 10
155.1746661412875
 20
-343.6069601470554
 30
0.0
 11
162.7553857047308
 21
-348.7202200563918
 31
0.0
  0
LINE
  5
6C
330
46
100
AcDbEntity
  8
0_Pen_No__146
  6
Continuous
100
AcDbLine
 10
155.1746661412875
 20
-89.94184352759602
 30
0.0
 11
162.7553857047308
 21
-95.05510343693253
 31
0.0
  0
LINE
  5
6D
330
46
100
AcDbEntity
  8
0_Pen_No__146
  6
Continuous
100
AcDbLine
 10
118.0934491326993
 20
-454.1197398204469
 30
0.0
 11
125.6741686961426
 21
-459.2329997297834
 31
0.0
  0
LINE
  5
6E
330
46
100
AcDbEntity
  8
0_Pen_No__146
  6
Continuous
100
AcDbLine
 10
118.0934491326993
 20
-200.4546232009876
 30
0.0
 11
125.6741686961426
 21
-205.567883110324
 31
0.0
  0
LINE
  5
6F
330
46
100
AcDbEntity
  8
0_Pen_No__146
  6
Continuous
100
AcDbLine
 10
221.9626856717483
 20
-501.3060813310717
 30
0.0
 11
222.6769875020542
 21
-499.177260842089
 31
0.0
  0
LINE
  5
70
330
46
100
AcDbEntity
  8
0_Pen_No__146
  6
Continuous
100
AcDbLine
 10
221.9626856717483
 20
-247.6409647116124
 30
0.0
 11
222.6769875020542
 21
-245.5121442226296
 31
0.0
  0
LINE
  5
71
330
46
100
AcDbEntity
  8
0_Pen_No__146
  6
Continuous
100
AcDbLine
 10
125.6740860613739
 20
-459.2329443882436
 30
0.0
 11
128.7641962923806
 21
-450.0235462124544
 31
0.0
  0
LINE
  5
72
330
46
100
AcDbEntity
  8
0_Pen_No__146
  6
Continuous
100
AcDbLine
 10
125.6740860613739
 20
-205.5678277687842
 30
0.0
 11
128.7641962923806
 21
-196.3584295929951
 31
0.0
  0
LINE
  5
73
330
46
100
AcDbEntity
  8
0_Pen_No__146
  6
Continuous
100
AcDbLine
 10
162.7554088334544
 20
-348.7201662787743
 30
0.0
 11
165.8455190644611
 21
-339.5107681029852
 31
0.0
  0
LINE
  5
74
330
46
100
AcDbEntity
  8
0_Pen_No__146
  6
Continuous
100
AcDbLine
 10
162.7554088334544
 20
-95.05504965931499
 30
0.0
 11
163.0545513720458
 21
-94.16352070298149
 31
0.0
  0
POINT
  5
75
330
46
100
AcDbEntity
  8
0_Pen_No__146
  6
Continuous
100
AcDbPoint
 10
239.4069858941932
 20
-517.0866675561924
 30
0.0
  0
POINT
  5
76
330
46
100
AcDbEntity
  8
0_Pen_No__146
  6
Continuous
100
AcDbPoint
 10
239.4069858941933
 20
-263.4215509367332
 30
0.0
  0
POINT
  5
77
330
46
100
AcDbEntity
  8
0_Pen_No__146
  6
Continuous
100
AcDbPoint
 10
237.5538239438382
 20
-314.1545742606251
 30
0.0
  0
POINT
  5
78
330
46
100
AcDbEntity
  8
0_Pen_No__146
  6
Continuous
100
AcDbPoint
 10
15.59113827208992
 20
-60.4894576411657
 30
0.0
  0
POINT
  5
79
330
46
100
AcDbEntity
  8
0_Pen_No__146
  6
Continuous
100
AcDbPoint
 10
235.7006619934831
 20
-364.8875975845169
 30
0.0
  0
POINT
  5
7A
330
46
100
AcDbEntity
  8
0_Pen_No__146
  6
Continuous
100
AcDbPoint
 10
233.847500043128
 20
-415.6206209084088
 30
0.0
  0
POINT
  5
7B
330
46
100
AcDbEntity
  8
0_Pen_No__146
  6
Continuous
100
AcDbPoint
 10
233.847500043128
 20
-161.9555042889494
 30
0.0
  0
POINT
  5
7C
330
46
100
AcDbEntity
  8
0_Pen_No__146
  6
Continuous
100
AcDbPoint
 10
90.71621035875027
 20
-101.4660466477837
 30
0.0
  0
POINT
  5
7D
330
46
100
AcDbEntity
  8
0_Pen_No__146
  6
Continuous
100
AcDbPoint
 10
171.7239332292077
 20
-292.9717512740206
 30
0.0
  0
POINT
  5
7E
330
46
100
AcDbEntity
  8
0_Pen_No__146
  6
Continuous
100
AcDbPoint
 10
231.9943380927729
 20
-466.3536442323007
 30
0.0
  0
POINT
  5
7F
330
46
100
AcDbEntity
  8
0_Pen_No__146
  6
Continuous
100
AcDbPoint
 10
231.9943380927729
 20
-212.6885276128413
 30
0.0
  0
POINT
  5
80
330
46
100
AcDbEntity
  8
0_Pen_No__146
  6
Continuous
100
AcDbPoint
 10
88.86304840839516
 20
-152.1990699716756
 30
0.0
  0
POINT
  5
81
330
46
100
AcDbEntity
  8
0_Pen_No__146
  6
Continuous
100
AcDbPoint
 10
169.8707712788525
 20
-343.7047745979125
 30
0.0
  0
POINT
  5
82
330
46
100
AcDbEntity
  8
0_Pen_No__146
  6
Continuous
100
AcDbPoint
 10
168.0176093284975
 20
-394.4377979218044
 30
0.0
  0
POINT
  5
83
330
46
100
AcDbEntity
  8
0_Pen_No__146
  6
Continuous
100
AcDbPoint
 10
168.0176093284975
 20
-140.772681302345
 30
0.0
  0
POINT
  5
84
330
46
100
AcDbEntity
  8
0_Pen_No__146
  6
Continuous
100
AcDbPoint
 10
166.1644473781424
 20
-445.1708212456962
 30
0.0
  0
POINT
  5
85
330
46
100
AcDbEntity
  8
0_Pen_No__146
  6
Continuous
100
AcDbPoint
 10
166.1644473781424
 20
-191.5057046262369
 30
0.0
  0
POINT
  5
86
330
46
100
AcDbEntity
  8
0_Pen_No__146
  6
Continuous
100
AcDbPoint
 10
164.3112854277873
 20
-495.9038445695882
 30
0.0
  0
POINT
  5
87
330
46
100
AcDbEntity
  8
0_Pen_No__146
  6
Continuous
100
AcDbPoint
 10
164.3112854277873
 20
-242.2387279501288
 30
0.0
  0
POINT
  5
88
330
46
100
AcDbEntity
  8
0_Pen_No__146
  6
Continuous
100
AcDbPoint
 10
275.8793053449692
 20
-554.0918261489446
 30
0.0
  0
POINT
  5
89
330
46
100
AcDbEntity
  8
0_Pen_No__146
  6
Continuous
100
AcDbPoint
 10
275.8793053449692
 20
-300.4267095294853
 30
0.0
  0
POINT
  5
8A
330
46
100
AcDbEntity
  8
0_Pen_No__146
  6
Continuous
100
AcDbPoint
 10
53.91661967322098
 20
-46.7615929100259
 30
0.0
  0
POINT
  5
8B
330
46
100
AcDbEntity
  8
0_Pen_No__146
  6
Continuous
100
AcDbPoint
 10
149.7871565893734
 20
-287.8051138994291
 30
0.0
  0
POINT
  5
8C
330
46
100
AcDbEntity
  8
0_Pen_No__146
  6
Continuous
100
AcDbPoint
 10
235.7875078387858
 20
-360.5350544203569
 30
0.0
  0
POINT
  5
8D
330
46
100
AcDbEntity
  8
0_Pen_No__146
  6
Continuous
100
AcDbPoint
 10
273.9392975493114
 20
-355.5122760175371
 30
0.0
  0
POINT
  5
8E
330
46
100
AcDbEntity
  8
0_Pen_No__146
  6
Continuous
100
AcDbPoint
 10
51.97661187756314
 20
-101.8471593980778
 30
0.0
  0
POINT
  5
8F
330
46
100
AcDbEntity
  8
0_Pen_No__146
  6
Continuous
100
AcDbPoint
 10
109.69535908319
 20
-94.24834217084152
 30
0.0
  0
POINT
  5
90
330
46
100
AcDbEntity
  8
0_Pen_No__146
  6
Continuous
100
AcDbPoint
 10
205.9436364915258
 20
-335.2421326810089
 30
0.0
  0
POINT
  5
91
330
46
100
AcDbEntity
  8
0_Pen_No__146
  6
Continuous
100
AcDbPoint
 10
233.847500043128
 20
-415.6206209084088
 30
0.0
  0
POINT
  5
92
330
46
100
AcDbEntity
  8
0_Pen_No__146
  6
Continuous
100
AcDbPoint
 10
233.847500043128
 20
-161.9555042889495
 30
0.0
  0
POINT
  5
93
330
46
100
AcDbEntity
  8
0_Pen_No__146
  6
Continuous
100
AcDbPoint
 10
165.8518389853424
 20
-395.3504775718806
 30
0.0
  0
POINT
  5
94
330
46
100
AcDbEntity
  8
0_Pen_No__146
  6
Continuous
100
AcDbPoint
 10
165.8518389853424
 20
-141.6853609524212
 30
0.0
  0
POINT
  5
95
330
46
100
AcDbEntity
  8
0_Pen_No__146
  6
Continuous
100
AcDbPoint
 10
204.003628695868
 20
-390.3276991690607
 30
0.0
  0
POINT
  5
96
330
46
100
AcDbEntity
  8
0_Pen_No__146
  6
Continuous
100
AcDbPoint
 10
204.003628695868
 20
-136.6625825496014
 30
0.0
  0
POINT
  5
97
330
46
100
AcDbEntity
  8
0_Pen_No__146
  6
Continuous
100
AcDbPoint
 10
251.4744497425714
 20
-468.1301485720442
 30
0.0
  0
POINT
  5
98
330
46
100
AcDbEntity
  8
0_Pen_No__146
  6
Continuous
100
AcDbPoint
 10
251.4744497425714
 20
-214.4650319525849
 30
0.0
  0
POINT
  5
99
330
46
100
AcDbEntity
  8
0_Pen_No__146
  6
Continuous
100
AcDbPoint
 10
125.760041479159
 20
-455.4588224627523
 30
0.0
  0
POINT
  5
9A
330
46
100
AcDbEntity
  8
0_Pen_No__146
  6
Continuous
100
AcDbPoint
 10
125.760041479159
 20
-201.7937058432929
 30
0.0
  0
POINT
  5
9B
330
46
100
AcDbEntity
  8
0_Pen_No__146
  6
Continuous
100
AcDbPoint
 10
163.9118311896846
 20
-450.4360440599325
 30
0.0
  0
POINT
  5
9C
330
46
100
AcDbEntity
  8
0_Pen_No__146
  6
Continuous
100
AcDbPoint
 10
163.9118311896846
 20
-196.7709274404731
 30
0.0
  0
POINT
  5
9D
330
46
100
AcDbEntity
  8
0_Pen_No__146
  6
Continuous
100
AcDbPoint
 10
221.6305783953114
 20
-442.8372268326962
 30
0.0
  0
POINT
  5
9E
330
46
100
AcDbEntity
  8
0_Pen_No__146
  6
Continuous
100
AcDbPoint
 10
221.6305783953114
 20
-189.1721102132368
 30
0.0
  0
POINT
  5
9F
330
46
100
AcDbEntity
  8
0_Pen_No__146
  6
Continuous
100
AcDbPoint
 10
181.538780889128
 20
-502.9455717235679
 30
0.0
  0
POINT
  5
A0
330
46
100
AcDbEntity
  8
0_Pen_No__146
  6
Continuous
100
AcDbPoint
 10
181.538780889128
 20
-249.2804551041085
 30
0.0
  0
POINT
  5
A1
330
46
100
AcDbEntity
  8
0_Pen_No__146
  6
Continuous
100
AcDbPoint
 10
200.6054086261268
 20
-520.8178053570969
 30
0.0
  0
POINT
  5
A2
330
46
100
AcDbEntity
  8
0_Pen_No__146
  6
Continuous
100
AcDbPoint
 10
200.6054086261268
 20
-267.1526887376376
 30
0.0
  0
POINT
  5
A3
330
46
100
AcDbEntity
  8
0_Pen_No__146
  6
Continuous
100
AcDbPoint
 10
119.251051526004
 20
-263.7154423420335
 30
0.0
  0
POINT
  5
A4
330
46
100
AcDbEntity
  8
0_Pen_No__146
  6
Continuous
100
AcDbPoint
 10
151.3842656114749
 20
-284.1865574200475
 30
0.0
  0
POINT
  5
A5
330
46
100
AcDbEntity
  8
0_Pen_No__146
  6
Continuous
100
AcDbPoint
 10
259.8593800976294
 20
-513.9433125658887
 30
0.0
  0
POINT
  5
A6
330
46
100
AcDbEntity
  8
0_Pen_No__146
  6
Continuous
100
AcDbPoint
 10
259.8593800976294
 20
-260.2781959464295
 30
0.0
  0
POINT
  5
A7
330
46
100
AcDbEntity
  8
0_Pen_No__146
  6
Continuous
100
AcDbPoint
 10
170.2855364580214
 20
-344.6191900678471
 30
0.0
  0
POINT
  5
A8
330
46
100
AcDbEntity
  8
0_Pen_No__146
  6
Continuous
100
AcDbPoint
 10
88.93117935789863
 20
-87.5168270527838
 30
0.0
  0
POINT
  5
A9
330
46
100
AcDbEntity
  8
0_Pen_No__146
  6
Continuous
100
AcDbPoint
 10
221.9626856717483
 20
-425.9323600952211
 30
0.0
  0
POINT
  5
AA
330
46
100
AcDbEntity
  8
0_Pen_No__146
  6
Continuous
100
AcDbPoint
 10
221.9626856717483
 20
-172.2672434757618
 30
0.0
  0
POINT
  5
AB
330
46
100
AcDbEntity
  8
0_Pen_No__146
  6
Continuous
100
AcDbPoint
 10
229.539507929524
 20
-337.744697276639
 30
0.0
  0
POINT
  5
AC
330
46
100
AcDbEntity
  8
0_Pen_No__146
  6
Continuous
100
AcDbPoint
 10
140.6083285716254
 20
-422.495113699617
 30
0.0
  0
POINT
  5
AD
330
46
100
AcDbEntity
  8
0_Pen_No__146
  6
Continuous
100
AcDbPoint
 10
140.6083285716254
 20
-168.8299970801576
 30
0.0
  0
POINT
  5
AE
330
46
100
AcDbEntity
  8
0_Pen_No__146
  6
Continuous
100
AcDbPoint
 10
172.7415426570963
 20
-442.966228777631
 30
0.0
  0
POINT
  5
AF
330
46
100
AcDbEntity
  8
0_Pen_No__146
  6
Continuous
100
AcDbPoint
 10
172.7415426570963
 20
-189.3011121581716
 30
0.0
  0
POINT
  5
B0
330
46
100
AcDbEntity
  8
0_Pen_No__146
  6
Continuous
100
AcDbPoint
 10
281.2166571432508
 20
-419.0578673040129
 30
0.0
  0
POINT
  5
B1
330
46
100
AcDbEntity
  8
0_Pen_No__146
  6
Continuous
100
AcDbPoint
 10
281.2166571432508
 20
-165.3927506845536
 30
0.0
  0
POINT
  5
B2
330
46
100
AcDbEntity
  8
0_Pen_No__146
  6
Continuous
100
AcDbPoint
 10
191.6428135036428
 20
-503.3988614254305
 30
0.0
  0
POINT
  5
B3
330
46
100
AcDbEntity
  8
0_Pen_No__146
  6
Continuous
100
AcDbPoint
 10
191.6428135036428
 20
-249.7337448059713
 30
0.0
  0
POINT
  5
B4
330
46
100
AcDbEntity
  8
0_Pen_No__146
  6
Continuous
100
AcDbPoint
 10
231.9955141285989
 20
-436.0917359864228
 30
0.0
  0
POINT
  5
B5
330
46
100
AcDbEntity
  8
0_Pen_No__146
  6
Continuous
100
AcDbPoint
 10
231.9955141285989
 20
-182.4266193669635
 30
0.0
  0
POINT
  5
B6
330
46
100
AcDbEntity
  8
0_Pen_No__146
  6
Continuous
100
AcDbPoint
 10
250.8967849751454
 20
-496.5243686342225
 30
0.0
  0
POINT
  5
B7
330
46
100
AcDbEntity
  8
0_Pen_No__146
  6
Continuous
100
AcDbPoint
 10
250.8967849751454
 20
-242.8592520147631
 30
0.0
  0
POINT
  5
B8
330
46
100
AcDbEntity
  8
0_Pen_No__146
  6
Continuous
100
AcDbPoint
 10
146.706757260763
 20
-294.1773755325489
 30
0.0
  0
POINT
  5
B9
330
46
100
AcDbEntity
  8
0_Pen_No__146
  6
Continuous
100
AcDbPoint
 10
279.7919341009004
 20
-563.098386772008
 30
0.0
  0
POINT
  5
BA
330
46
100
AcDbEntity
  8
0_Pen_No__146
  6
Continuous
100
AcDbPoint
 10
279.7919341009004
 20
-309.4332701525486
 30
0.0
  0
POINT
  5
BB
330
46
100
AcDbEntity
  8
0_Pen_No__146
  6
Continuous
100
AcDbPoint
 10
57.82924842915218
 20
-55.76815353308931
 30
0.0
  0
POINT
  5
BC
330
46
100
AcDbEntity
  8
0_Pen_No__146
  6
Continuous
100
AcDbPoint
 10
140.4146320346014
 20
-385.1088316684092
 30
0.0
  0
POINT
  5
BD
330
46
100
AcDbEntity
  8
0_Pen_No__146
  6
Continuous
100
AcDbPoint
 10
140.4146320346014
 20
-131.4437150489499
 30
0.0
  0
POINT
  5
BE
330
46
100
AcDbEntity
  8
0_Pen_No__146
  6
Continuous
100
AcDbPoint
 10
176.9319785268068
 20
-418.5708146516129
 30
0.0
  0
POINT
  5
BF
330
46
100
AcDbEntity
  8
0_Pen_No__146
  6
Continuous
100
AcDbPoint
 10
176.9319785268068
 20
-164.9056980321535
 30
0.0
  0
POINT
  5
C0
330
46
100
AcDbEntity
  8
0_Pen_No__146
  6
Continuous
100
AcDbPoint
 10
273.4998088747388
 20
-400.364726288409
 30
0.0
  0
POINT
  5
C1
330
46
100
AcDbEntity
  8
0_Pen_No__146
  6
Continuous
100
AcDbPoint
 10
146.2575019504649
 20
-487.1599621494573
 30
0.0
  0
POINT
  5
C2
330
46
100
AcDbEntity
  8
0_Pen_No__146
  6
Continuous
100
AcDbPoint
 10
146.2575019504649
 20
-233.4948455299979
 30
0.0
  0
POINT
  5
C3
330
46
100
AcDbEntity
  8
0_Pen_No__146
  6
Continuous
100
AcDbPoint
 10
279.3426787906023
 20
-502.4158567694571
 30
0.0
  0
POINT
  5
C4
330
46
100
AcDbEntity
  8
0_Pen_No__146
  6
Continuous
100
AcDbPoint
 10
279.3426787906023
 20
-248.7507401499977
 30
0.0
  0
LINE
  5
C5
330
46
100
AcDbEntity
  8
0_Pen_No__146
  6
Continuous
100
AcDbLine
 10
272.7944703140452
 20
-449.4681268889767
 30
0.0
 11
284.1525196357742
 21
-450.7486016467009
 31
0.0
  0
LINE
  5
C6
330
46
100
AcDbEntity
  8
0_Pen_No__146
  6
Continuous
100
AcDbLine
 10
272.7944703140452
 20
-195.8030102695173
 30
0.0
 11
284.1525196357742
 21
-197.0834850272416
 31
0.0
  0
LINE
  5
C7
330
46
100
AcDbEntity
  8
0_Pen_No__146
  6
Continuous
100
AcDbLine
 10
272.7944703140452
 20
-449.4681268889766
 30
0.0
 11
277.1671150647703
 21
-457.4988624644986
 31
0.0
  0
LINE
  5
C8
330
46
100
AcDbEntity
  8
0_Pen_No__146
  6
Continuous
100
AcDbLine
 10
272.7944703140452
 20
-195.8030102695172
 30
0.0
 11
277.1671150647703
 21
-203.8337458450393
 31
0.0
  0
LINE
  5
C9
330
46
100
AcDbEntity
  8
0_Pen_No__146
  6
Continuous
100
AcDbLine
 10
277.1671144360243
 20
-457.498857697877
 30
0.0
 11
284.1525676237308
 21
-450.7486547555677
 31
0.0
  0
LINE
  5
CA
330
46
100
AcDbEntity
  8
0_Pen_No__146
  6
Continuous
100
AcDbLine
 10
277.1671144360243
 20
-203.8337410784176
 30
0.0
 11
284.1525676237308
 21
-197.0835381361083
 31
0.0
  0
LINE
  5
CB
330
46
100
AcDbEntity
  8
0_Pen_No__146
  6
Continuous
100
AcDbLine
 10
94.10049460552098
 20
-126.5189114307908
 30
0.0
 11
98.02846753301795
 21
-115.7850431308324
 31
0.0
  0
LINE
  5
CC
330
46
100
AcDbEntity
  8
0_Pen_No__146
  6
Continuous
100
AcDbLine
 10
94.1001967945882
 20
-126.5190930948502
 30
0.0
 11
102.9367270944897
 21
-124.1678235954257
 31
0.0
  0
LINE
  5
CD
330
46
100
AcDbEntity
  8
0_Pen_No__146
  6
Continuous
100
AcDbLine
 10
102.9377227663724
 20
-124.1688359461022
 30
0.0
 11
98.02923311810135
 21
-115.7862035807401
 31
0.0
  0
LINE
  5
CE
330
46
100
AcDbEntity
  8
0_Pen_No__146
  6
Continuous
100
AcDbLine
 10
171.2050972520578
 20
-275.6132161264622
 30
0.0
 11
181.8759215269209
 21
-271.5170704631594
 31
0.0
  0
LINE
  5
CF
330
46
100
AcDbEntity
  8
0_Pen_No__146
  6
Continuous
100
AcDbLine
 10
171.2050577236095
 20
-275.6133033247421
 30
0.0
 11
178.7857772870528
 21
-280.7265632340786
 31
0.0
  0
LINE
  5
D0
330
46
100
AcDbEntity
  8
0_Pen_No__146
  6
Continuous
100
AcDbLine
 10
178.7858004157764
 20
-280.7265094564611
 30
0.0
 11
181.875910646783
 21
-271.517111280672
 31
0.0
  0
LINE
  5
D1
330
46
100
AcDbEntity
  8
0_Pen_No__146
  6
Continuous
100
AcDbLine
 10
172.6038269375152
 20
-473.7742743132846
 30
0.0
 11
183.2746512123782
 21
-469.6781286499818
 31
0.0
  0
LINE
  5
D2
330
46
100
AcDbEntity
  8
0_Pen_No__146
  6
Continuous
100
AcDbLine
 10
172.6038269375152
 20
-220.1091576938252
 30
0.0
 11
183.2746512123782
 21
-216.0130120305225
 31
0.0
  0
LINE
  5
D3
330
46
100
AcDbEntity
  8
0_Pen_No__146
  6
Continuous
100
AcDbLine
 10
172.6037874090668
 20
-473.7743615115646
 30
0.0
 11
180.1845069725101
 21
-478.887621420901
 31
0.0
  0
LINE
  5
D4
330
46
100
AcDbEntity
  8
0_Pen_No__146
  6
Continuous
100
AcDbLine
 10
172.6037874090668
 20
-220.1092448921052
 30
0.0
 11
180.1845069725101
 21
-225.2225048014417
 31
0.0
  0
LINE
  5
D5
330
46
100
AcDbEntity
  8
0_Pen_No__146
  6
Continuous
100
AcDbLine
 10
180.1845301012337
 20
-478.8875676432835
 30
0.0
 11
183.2746403322404
 21
-469.6781694674944
 31
0.0
  0
LINE
  5
D6
330
46
100
AcDbEntity
  8
0_Pen_No__146
  6
Continuous
100
AcDbLine
 10
180.1845301012337
 20
-225.2224510238242
 30
0.0
 11
183.2746403322404
 21
-216.013052848035
 31
0.0
  0
LINE
  5
D7
330
46
100
AcDbEntity
  8
0_Pen_No__146
  6
Continuous
100
AcDbLine
 10
260.0474984451553
 20
-332.0491694462762
 30
0.0
 11
270.7183227200183
 21
-327.9530237829734
 31
0.0
  0
LINE
  5
D8
330
46
100
AcDbEntity
  8
0_Pen_No__146
  6
Continuous
100
AcDbLine
 10
38.08481277340706
 20
-78.38405282681678
 30
0.0
 11
48.75563704827007
 21
-74.28790716351402
 31
0.0
  0
LINE
  5
D9
330
46
100
AcDbEntity
  8
0_Pen_No__146
  6
Continuous
100
AcDbLine
 10
260.0474589167069
 20
-332.0492566445561
 30
0.0
 11
267.6281784801503
 21
-337.1625165538925
 31
0.0
  0
LINE
  5
DA
330
46
100
AcDbEntity
  8
0_Pen_No__146
  6
Continuous
100
AcDbLine
 10
38.08477324495868
 20
-78.38414002509673
 30
0.0
 11
45.66549280840199
 21
-83.49739993443322
 31
0.0
  0
LINE
  5
DB
330
46
100
AcDbEntity
  8
0_Pen_No__146
  6
Continuous
100
AcDbLine
 10
267.6282016088738
 20
-337.162462776275
 30
0.0
 11
270.7183118398805
 21
-327.9530646004859
 31
0.0
  0
LINE
  5
DC
330
46
100
AcDbEntity
  8
0_Pen_No__146
  6
Continuous
100
AcDbLine
 10
45.66551593712558
 20
-83.4973461568157
 30
0.0
 11
48.75562616813227
 21
-74.28794798102659
 31
0.0
  0
LINE
  5
DD
330
46
100
AcDbEntity
  8
0_Pen_No__146
  6
Continuous
100
AcDbLine
 10
275.9826767695455
 20
-391.5582435184871
 30
0.0
 11
286.6535010444086
 21
-387.4620978551843
 31
0.0
  0
LINE
  5
DE
330
46
100
AcDbEntity
  8
0_Pen_No__146
  6
Continuous
100
AcDbLine
 10
54.01999109779729
 20
-137.8931268990278
 30
0.0
 11
64.69081537266031
 21
-133.796981235725
 31
0.0
  0
LINE
  5
DF
330
46
100
AcDbEntity
  8
0_Pen_No__146
  6
Continuous
100
AcDbLine
 10
275.9826767695455
 20
-391.5582435184871
 30
0.0
 11
283.5633963329889
 21
-396.6715034278236
 31
0.0
  0
LINE
  5
E0
330
46
100
AcDbEntity
  8
0_Pen_No__146
  6
Continuous
100
AcDbLine
 10
54.01999109779729
 20
-137.8931268990277
 30
0.0
 11
61.6007106612406
 21
-143.0063868083643
 31
0.0
  0
LINE
  5
E1
330
46
100
AcDbEntity
  8
0_Pen_No__146
  6
Continuous
100
AcDbLine
 10
283.5633767695456
 20
-396.671503518487
 30
0.0
 11
286.6534870005523
 21
-387.462105342698
 31
0.0
  0
LINE
  5
E2
330
46
100
AcDbEntity
  8
0_Pen_No__146
  6
Continuous
100
AcDbLine
 10
61.60069109779729
 20
-143.0063868990277
 30
0.0
 11
64.69080132880399
 21
-133.7969887232387
 31
0.0
  0
ENDBLK
  5
48
330
46
100
AcDbEntity
  8
0
100
AcDbBlockEnd
  0
BLOCK
  5
1C1
330
1C0
100
AcDbEntity
  8
0
100
AcDbBlockBegin
  2
ARROWHEAD_5
 70
     0
 10
0.0
 20
0.0
 30
0.0
  3
ARROWHEAD_5
  1

  0
SOLID
  5
1C3
330
1C0
100
AcDbEntity
  8
0
  6
Continuous
 62
     0
370
     0
100
AcDbTrace
 10
-1.0
 20
0.2679
 30
0.0
 11
0.0
 21
0.0
 31
0.0
 12
-1.0
 22
-0.2679
 32
0.0
 13
-1.0
 23
0.2679
 33
0.0
  0
LINE
  5
1C4
330
1C0
100
AcDbEntity
  8
0
  6
Continuous
 62
     0
370
     0
100
AcDbLine
 10
0.0
 20
0.0
 30
0.0
 11
-1.0
 21
0.0
 31
0.0
  0
ENDBLK
  5
1C2
330
1C0
100
AcDbEntity
  8
0
100
AcDbBlockEnd
  0
BLOCK
  5
1E1
330
1E0
100
AcDbEntity
  8
0
100
AcDbBlockBegin
  2
DF-44-T Door Sill_STORY_MARKER
 70
     0
 10
0.0
 20
0.0
 30
0.0
  3
DF-44-T Door Sill_STORY_MARKER
  1

  0
ENDBLK
  5
1E2
330
1E0
100
AcDbEntity
  8
0
100
AcDbBlockEnd
  0
ENDSEC
  0
SECTION
  2
ENTITIES
  0
HATCH
  5
3F
330
1F
100
AcDbEntity
  8
0_Pen_No__146
  6
Continuous
 62
   250
420
  3289650
370
     0
100
AcDbHatch
 10
0.0
 20
0.0
 30
0.0
210
0.0
220
0.0
230
1.0
  2
SOLID
 70
     1
 71
     0
 91
        1
 92
        3
 72
     0
 73
     1
 93
       15
 10
1.891544375623111
 20
-72.69266326263057
 10
1.89154437562309
 20
-270.4273998414438
 10
43.85808591910195
 20
-514.8794779852835
 10
242.052617396921
 20
-680.8047053852163
 10
366.1887022326612
 20
-703.0859452287715
 10
457.046996764
 20
-690.1061888671514
 10
602.7307564561413
 20
-533.002158613075
 10
624.9674892457377
 20
-492.6980804319309
 10
288.0837721301598
 20
-298.1981748197874
 10
288.0837721301598
 20
-576.3491752796616
 10
114.8786915624728
 20
-476.3491749519561
 10
114.8786915624728
 20
-176.3491749519491
 10
50.48975567481433
 20
-139.17420532194
 10
27.31572378121981
 20
-117.0382553231195
 10
20.24014298467968
 20
-96.99077639958986
 97
        0
 75
     0
 76
     1
 98
        0
  0
HATCH
  5
41
330
1F
100
AcDbEntity
  8
0_Pen_No__146
  6
Continuous
 62
   250
420
  3289650
370
     0
100
AcDbHatch
 10
0.0
 20
0.0
 30
0.0
210
0.0
220
0.0
230
1.0
  2
SOLID
 70
     1
 71
     0
 91
        1
 92
        3
 72
     0
 73
     1
 93
       14
 10
314.0480334156492
 20
-182.7430081543649
 10
305.4722387826884
 20
-187.6942455158564
 10
305.4722387826884
 20
-189.3755960998845
 10
293.3478831826972
 20
-182.3755960998895
 10
293.3478831826972
 20
-195.1757556618873
 10
299.4100609826959
 20
-198.6757556618862
 10
299.4100609826959
 20
-192.8755960998866
 10
305.4722387826884
 20
-196.3755960998817
 10
305.4722387826884
 20
-216.3755960998809
 10
299.4100609826959
 20
-212.8755960998859
 10
299.4100609826959
 20
-219.8755960998838
 10
311.5344165826934
 20
-226.8755960998821
 10
311.5344165826934
 20
-191.1942455158583
 10
314.0480334156492
 20
-189.7430081543695
 97
        0
 75
     0
 76
     1
 98
        0
  0
HATCH
  5
42
330
1F
100
AcDbEntity
  8
0_Pen_No__146
  6
Continuous
 62
   250
420
  3289650
370
     0
100
AcDbHatch
 10
0.0
 20
0.0
 30
0.0
210
0.0
220
0.0
230
1.0
  2
SOLID
 70
     1
 71
     0
 91
        1
 92
        3
 72
     0
 73
     1
 93
       28
 10
414.4069996758943
 20
-5.029276390449235
 10
450.6991005690298
 20
-25.99445790441283
 10
461.4278922391346
 20
-19.80018711769804
 10
495.1996485933746
 20
-42.52103534046324
 10
495.1996485933747
 20
331.3925978636066
 10
566.9668143702577
 20
372.8273728540781
 10
566.9668143702577
 20
369.3767524400389
 10
573.7116444323435
 20
373.2708817113372
 10
618.6088858876498
 20
368.2901041306533
 10
625.8907855897113
 20
364.1302133159406
 10
631.4416116187009
 20
354.7988592656878
 10
624.5822063971993
 20
350.6131182297269
 10
627.0259400282162
 20
343.1769946407272
 10
629.7678526366541
 20
337.4300469384647
 10
634.4618785320993
 20
329.7175432857456
 10
644.937798941773
 20
327.0141695115313
 10
675.9633839230046
 20
322.2298494993315
 10
647.0138986917123
 20
373.4069535468655
 10
629.0325026144477
 20
392.1076109512242
 10
595.2274738761873
 20
410.8082615005785
 10
560.2345482962712
 20
409.369752556399
 10
549.914353019479
 20
409.369752556399
 10
525.5935312175477
 20
394.9846356945873
 10
496.689419259775
 20
387.7920704086771
 10
490.9525141388246
 20
388.941051390873
 10
478.7543835766501
 20
393.7360857748072
 10
452.3816738999985
 20
405.1243044329088
 10
414.5113534064861
 20
408.7038985678743
 97
        0
 75
     0
 76
     1
 98
        0
  0
INSERT
  5
E4
330
1F
100
AcDbEntity
  8
0_Pen_No__146
  6
Continuous
100
AcDbBlockReference
  2
Fill_1
 10
0.0
 20
0.0
 30
0.0
  0
HATCH
  5
E5
330
1F
100
AcDbEntity
  8
0_Pen_No__146
  6
Continuous
 62
   250
420
  3289650
370
     0
100
AcDbHatch
 10
0.0
 20
0.0
 30
0.0
210
0.0
220
0.0
230
1.0
  2
SOLID
 70
     1
 71
     0
 91
        1
 92
        3
 72
     0
 73
     1
 93
       15
 10
207.0522441816886
 20
338.1456499254063
 10
188.500907809324
 20
327.4350308301901
 10
188.5009078093231
 20
320.667901031517
 10
139.7025852882331
 20
348.8416257981839
 10
139.7025852882331
 20
297.3233154454102
 10
164.1017465487908
 20
283.2364530620708
 10
164.1017465487908
 20
306.5810386481645
 10
188.5009078093231
 20
292.4941762648388
 10
188.5009078093213
 20
211.9978197885922
 10
164.1017465487908
 20
226.0846821719154
 10
164.1017465487908
 20
197.9109574052356
 10
212.9000690699038
 20
169.7372326385549
 10
212.9000690699034
 20
313.3481684468393
 10
217.0967237318874
 20
315.7711081562198
 10
217.0967237318861
 20
332.3465051120403
 97
        0
 75
     0
 76
     1
 98
        0
  0
LWPOLYLINE
  5
E6
330
1F
100
AcDbEntity
  8
0_Pen_No__1
  6
Continuous
100
AcDbPolyline
 90
       10
 70
   129
 43
0.0
 10
0.0
 20
0.0
 10
1.891544375623111
 20
-72.69266326263057
 10
20.24014298467968
 20
-96.99077639958986
 10
27.31572378121981
 20
-117.0382553231195
 10
50.48975567481433
 20
-139.17420532194
 10
114.8786915624728
 20
-176.3491749519491
 10
114.8786915624728
 20
-476.3491749519561
 10
288.0837721301598
 20
-576.3491752796616
 10
288.0837721301598
 20
-166.3491752796616
 10
210.646351148761
 20
-121.5620281650596
  0
LWPOLYLINE
  5
E8
330
1F
100
AcDbEntity
  8
0_Pen_No__1
  6
Continuous
100
AcDbPolyline
 90
       14
 70
   129
 43
0.0
 10
314.0480334156492
 20
-182.7430081543649
 10
305.4722387826884
 20
-187.6942455158564
 10
305.4722387826884
 20
-189.3755960998845
 10
293.3478831826972
 20
-182.3755960998895
 10
293.3478831826972
 20
-195.1757556618873
 10
299.4100609826959
 20
-198.6757556618862
 10
299.4100609826959
 20
-192.8755960998866
 10
305.4722387826884
 20
-196.3755960998817
 10
305.4722387826884
 20
-216.3755960998809
 10
299.4100609826959
 20
-212.8755960998859
 10
299.4100609826959
 20
-219.8755960998838
 10
311.5344165826934
 20
-226.8755960998821
 10
311.5344165826934
 20
-191.1942455158583
 10
314.0480334156492
 20
-189.7430081543695
  0
LWPOLYLINE
  5
E9
330
1F
100
AcDbEntity
  8
0_Pen_No__1
  6
Continuous
100
AcDbPolyline
 90
        2
 70
   128
 43
0.0
 10
414.5113512098219
 20
441.6796137835665
 10
414.5113512098219
 20
-5.089525160890764
  0
LWPOLYLINE
  5
EA
330
1F
100
AcDbEntity
  8
0_Pen_No__1
  6
Continuous
100
AcDbPolyline
 90
        2
 70
   128
 43
0.0
 10
490.9525146679765
 20
397.9935091423851
 10
490.9525146679765
 20
-39.66366291693471
  0
LWPOLYLINE
  5
EB
330
1F
100
AcDbEntity
  8
0_Pen_No__1
  6
Continuous
100
AcDbPolyline
 90
        2
 70
   128
 43
0.0
 10
525.5935307815089
 20
417.993509207934
 10
525.5935307815089
 20
394.9846324180565
  0
LWPOLYLINE
  5
EC
330
1F
100
AcDbEntity
  8
0_Pen_No__1
  6
Continuous
100
AcDbPolyline
 90
        2
 70
   128
 43
0.0
 10
413.0102284125178
 20
442.9935092898546
 10
490.9525146679765
 20
397.9935091423851
  0
LWPOLYLINE
  5
ED
330
1F
100
AcDbEntity
  8
0_Pen_No__1
  6
Continuous
100
AcDbPolyline
 90
        2
 70
   128
 43
0.0
 10
447.651244526052
 20
462.9935093554033
 10
525.5935307815089
 20
417.993509207934
  0
LWPOLYLINE
  5
EE
330
1F
100
AcDbEntity
  8
0_Pen_No__1
  6
Continuous
100
AcDbPolyline
 90
        2
 70
   128
 43
0.0
 10
482.2922606395845
 20
482.993509420952
 10
560.2345468950423
 20
437.9935092734827
  0
LWPOLYLINE
  5
EF
330
1F
100
AcDbEntity
  8
0_Pen_No__1
  6
Continuous
100
AcDbPolyline
 90
        2
 70
   128
 43
0.0
 10
114.8786915624728
 20
-476.3491749519561
 10
288.0837721301598
 20
-576.3491752796616
  0
LWPOLYLINE
  5
F0
330
1F
100
AcDbEntity
  8
0_Pen_No__1
  6
Continuous
100
AcDbPolyline
 90
        2
 70
   128
 43
0.0
 10
560.2345468950423
 20
437.9935092734827
 10
560.2345468950423
 20
409.3697497658036
  0
LWPOLYLINE
  5
F1
330
1F
100
AcDbEntity
  8
0_Pen_No__1
  6
Continuous
100
AcDbPolyline
 90
        2
 70
   128
 43
0.0
 10
288.0837721301598
 20
-298.1981748197874
 10
624.9674892457377
 20
-492.6980804319309
  0
LWPOLYLINE
  5
F2
330
1F
100
AcDbEntity
  8
0_Pen_No__1
  6
Continuous
100
AcDbPolyline
 90
        2
 70
   128
 43
0.0
 10
633.0942994700341
 20
331.9586711867014
 10
629.7678558272472
 20
337.4300470616975
  0
LWPOLYLINE
  5
F3
330
1F
100
AcDbEntity
  8
0_Pen_No__1
  6
Continuous
100
AcDbPolyline
 90
        2
 70
   128
 43
0.0
 10
629.7678558272472
 20
337.4300470616975
 10
627.0259388254516
 20
343.1769915777008
  0
LWPOLYLINE
  5
F4
330
1F
100
AcDbEntity
  8
0_Pen_No__1
  6
Continuous
100
AcDbPolyline
 90
        2
 70
   128
 43
0.0
 10
627.0259388254516
 20
343.1769915777008
 10
624.9518602250414
 20
349.024886733199
  0
LWPOLYLINE
  5
F5
330
1F
100
AcDbEntity
  8
0_Pen_No__1
  6
Continuous
100
AcDbPolyline
 90
        2
 70
   128
 43
0.0
 10
635.8294624741834
 20
327.4764095014359
 10
633.0942994700341
 20
331.9586711867014
  0
LWPOLYLINE
  5
F6
330
1F
100
AcDbEntity
  8
0_Pen_No__1
  6
Continuous
100
AcDbPolyline
 90
        2
 70
   128
 43
0.0
 10
624.9518602250414
 20
349.024886733199
 10
624.5822048829853
 20
350.613114802976
  0
LWPOLYLINE
  5
F7
330
1F
100
AcDbEntity
  8
0_Pen_No__1
  6
Continuous
100
AcDbPolyline
 90
        2
 70
   128
 43
0.0
 10
299.3325163094071
 20
-200.3623326553546
 10
290.9123952227126
 20
-195.5009734580969
  0
LWPOLYLINE
  5
F8
330
1F
100
AcDbEntity
  8
0_Pen_No__1
  6
Continuous
100
AcDbPolyline
 90
        2
 70
   128
 43
0.0
 10
301.0487563122292
 20
-194.5520236623018
 10
299.3325163094071
 20
-200.3623326553546
  0
LWPOLYLINE
  5
F9
330
1F
100
AcDbEntity
  8
0_Pen_No__1
  6
Continuous
100
AcDbPolyline
 90
        2
 70
   128
 43
0.0
 10
299.9666876971607
 20
-202.1442642404173
 10
294.777976418288
 20
-199.1476526416701
  0
LWPOLYLINE
  5
FA
330
1F
100
AcDbEntity
  8
0_Pen_No__1
  6
Continuous
100
AcDbPolyline
 90
        2
 70
   128
 43
0.0
 10
293.5942786271154
 20
-198.4640373199081
 10
293.5942786271154
 20
-209.7070679787857
  0
LWPOLYLINE
  5
FB
330
1F
100
AcDbEntity
  8
0_Pen_No__1
  6
Continuous
100
AcDbPolyline
 90
        2
 70
   128
 43
0.0
 10
294.777976418288
 20
-210.3904762201441
 10
293.5942786271154
 20
-209.7070679787857
  0
LWPOLYLINE
  5
FC
330
1F
100
AcDbEntity
  8
0_Pen_No__1
  6
Continuous
100
AcDbPolyline
 90
        2
 70
   128
 43
0.0
 10
293.5942786271154
 20
-198.4640373199081
 10
290.9123952227126
 20
-196.915182029224
  0
LWPOLYLINE
  5
FD
330
1F
100
AcDbEntity
  8
0_Pen_No__1
  6
Continuous
100
AcDbPolyline
 90
        2
 70
   128
 43
0.0
 10
294.777976418288
 20
-199.1476526416701
 10
294.777976418288
 20
-210.3904762201441
  0
LWPOLYLINE
  5
FE
330
1F
100
AcDbEntity
  8
0_Pen_No__1
  6
Continuous
100
AcDbPolyline
 90
        2
 70
   128
 43
0.0
 10
290.9123952227126
 20
-196.915182029224
 10
290.9123952227126
 20
-208.1586818665523
  0
LWPOLYLINE
  5
FF
330
1F
100
AcDbEntity
  8
0_Pen_No__1
  6
Continuous
100
AcDbPolyline
 90
        2
 70
   128
 43
0.0
 10
289.72869743154
 20
-175.234181914193
 10
289.72869743154
 20
-207.4752736251938
  0
LWPOLYLINE
  5
100
330
1F
100
AcDbEntity
  8
0_Pen_No__1
  6
Continuous
100
AcDbPolyline
 90
        2
 70
   128
 43
0.0
 10
290.9123952227126
 20
-175.9175901555519
 10
290.9123952227126
 20
-195.5009734580978
  0
LWPOLYLINE
  5
101
330
1F
100
AcDbEntity
  8
0_Pen_No__1
  6
Continuous
100
AcDbPolyline
 90
        2
 70
   128
 43
0.0
 10
290.9123952227126
 20
-175.9175901555519
 10
289.72869743154
 20
-175.234181914193
  0
LWPOLYLINE
  5
102
330
1F
100
AcDbEntity
  8
0_Pen_No__1
  6
Continuous
100
AcDbPolyline
 90
        2
 70
   128
 43
0.0
 10
290.9123952227126
 20
-208.1586818665523
 10
289.72869743154
 20
-207.4752736251938
  0
LWPOLYLINE
  5
103
330
1F
100
AcDbEntity
  8
0_Pen_No__1
  6
Continuous
100
AcDbPolyline
 90
        2
 70
   128
 43
0.0
 10
302.0192295634333
 20
-195.1954095087936
 10
299.9666876971607
 20
-202.1442642404173
  0
LWPOLYLINE
  5
104
330
1F
100
AcDbEntity
  8
0_Pen_No__1
  6
Continuous
100
AcDbPolyline
 90
        2
 70
   128
 43
0.0
 10
311.5344165826934
 20
-191.1942455158587
 10
305.4722387826884
 20
-187.6942455158564
  0
LWPOLYLINE
  5
105
330
1F
100
AcDbEntity
  8
0_Pen_No__1
  6
Continuous
100
AcDbPolyline
 90
        2
 70
   128
 43
0.0
 10
305.4722387826884
 20
-189.3755960998845
 10
293.3478831826972
 20
-182.3755960998895
  0
LWPOLYLINE
  5
106
330
1F
100
AcDbEntity
  8
0_Pen_No__1
  6
Continuous
100
AcDbPolyline
 90
        2
 70
   128
 43
0.0
 10
293.3478831826972
 20
-182.3755960998895
 10
293.3478831826972
 20
-195.1757556618873
  0
LWPOLYLINE
  5
107
330
1F
100
AcDbEntity
  8
0_Pen_No__1
  6
Continuous
100
AcDbPolyline
 90
        2
 70
   128
 43
0.0
 10
293.3478831826972
 20
-195.1757556618873
 10
299.4100609826959
 20
-198.6757556618862
  0
LWPOLYLINE
  5
108
330
1F
100
AcDbEntity
  8
0_Pen_No__1
  6
Continuous
100
AcDbPolyline
 90
        2
 70
   128
 43
0.0
 10
299.4100609826959
 20
-192.8755960998866
 10
305.4722387826884
 20
-196.3755960998817
  0
LWPOLYLINE
  5
109
330
1F
100
AcDbEntity
  8
0_Pen_No__1
  6
Continuous
100
AcDbPolyline
 90
        2
 70
   128
 43
0.0
 10
305.4722387826884
 20
-196.3755960998817
 10
305.4722387826884
 20
-216.3755960998809
  0
LWPOLYLINE
  5
10A
330
1F
100
AcDbEntity
  8
0_Pen_No__1
  6
Continuous
100
AcDbPolyline
 90
        2
 70
   128
 43
0.0
 10
299.4100609826959
 20
-219.8755960998838
 10
311.5344165826934
 20
-226.8755960998821
  0
LWPOLYLINE
  5
10B
330
1F
100
AcDbEntity
  8
0_Pen_No__1
  6
Continuous
100
AcDbPolyline
 90
        2
 70
   128
 43
0.0
 10
311.5344165826934
 20
-191.1942455158587
 10
305.4722387826884
 20
-187.6942455158564
  0
LWPOLYLINE
  5
10C
330
1F
100
AcDbEntity
  8
0_Pen_No__1
  6
Continuous
100
AcDbPolyline
 90
        2
 70
   128
 43
0.0
 10
305.4722387826884
 20
-187.6942455158564
 10
305.4722387826884
 20
-189.3755960998845
  0
LWPOLYLINE
  5
10D
330
1F
100
AcDbEntity
  8
0_Pen_No__1
  6
Continuous
100
AcDbPolyline
 90
        2
 70
   128
 43
0.0
 10
311.5344165826934
 20
-226.8755960998821
 10
311.5344165826934
 20
-191.1942455158585
  0
LWPOLYLINE
  5
10E
330
1F
100
AcDbEntity
  8
0_Pen_No__1
  6
Continuous
100
AcDbPolyline
 90
        2
 70
   128
 43
0.0
 10
305.4722387826884
 20
-189.3755960998845
 10
293.3478831826972
 20
-182.3755960998895
  0
LWPOLYLINE
  5
10F
330
1F
100
AcDbEntity
  8
0_Pen_No__1
  6
Continuous
100
AcDbPolyline
 90
        2
 70
   128
 43
0.0
 10
414.4069996758943
 20
-5.029277774424392
 10
450.6991005690298
 20
-25.99445790441283
  0
LWPOLYLINE
  5
110
330
1F
100
AcDbEntity
  8
0_Pen_No__1
  6
Continuous
100
AcDbPolyline
 90
        2
 70
   128
 43
0.0
 10
293.3478831826972
 20
-195.1757556618873
 10
299.4100609826959
 20
-198.6757556618862
  0
LWPOLYLINE
  5
111
330
1F
100
AcDbEntity
  8
0_Pen_No__1
  6
Continuous
100
AcDbPolyline
 90
        2
 70
   128
 43
0.0
 10
299.4100609826959
 20
-198.6757556618862
 10
299.4100609826959
 20
-192.8755960998866
  0
LWPOLYLINE
  5
112
330
1F
100
AcDbEntity
  8
0_Pen_No__1
  6
Continuous
100
AcDbPolyline
 90
        2
 70
   128
 43
0.0
 10
299.4100609826959
 20
-192.8755960998866
 10
305.4722387826884
 20
-196.3755960998817
  0
LWPOLYLINE
  5
113
330
1F
100
AcDbEntity
  8
0_Pen_No__1
  6
Continuous
100
AcDbPolyline
 90
        2
 70
   128
 43
0.0
 10
299.4100609826959
 20
-212.8755960998859
 10
299.4100609826959
 20
-219.8755960998838
  0
LWPOLYLINE
  5
114
330
1F
100
AcDbEntity
  8
0_Pen_No__1
  6
Continuous
100
AcDbPolyline
 90
        2
 70
   128
 43
0.0
 10
299.4100609826959
 20
-219.8755960998838
 10
311.5344165826934
 20
-226.8755960998821
  0
LWPOLYLINE
  5
115
330
1F
100
AcDbEntity
  8
0_Pen_No__1
  6
Continuous
100
AcDbPolyline
 90
        2
 70
   128
 43
0.0
 10
305.4722387826884
 20
-187.6942455158564
 10
305.4722387826884
 20
-189.3755960998845
  0
LWPOLYLINE
  5
116
330
1F
100
AcDbEntity
  8
0_Pen_No__1
  6
Continuous
100
AcDbPolyline
 90
        2
 70
   128
 43
0.0
 10
305.4722387826884
 20
-216.3755960998809
 10
300.1615955627332
 20
-213.3094947938719
  0
LWPOLYLINE
  5
117
330
1F
100
AcDbEntity
  8
0_Pen_No__1
  6
Continuous
100
AcDbPolyline
 90
        2
 70
   128
 43
0.0
 10
291.0836520767852
 20
-164.6171937773721
 10
288.0837721301598
 20
-166.3491752796616
  0
LWPOLYLINE
  5
118
330
1F
100
AcDbEntity
  8
0_Pen_No__1
  6
Continuous
100
AcDbPolyline
 90
        2
 70
   128
 43
0.0
 10
513.8243203330015
 20
-82.6428499593764
 10
314.0480334156501
 20
-197.983743518949
  0
LWPOLYLINE
  5
119
330
1F
100
AcDbEntity
  8
0_Pen_No__1
  6
Continuous
100
AcDbPolyline
 90
        2
 70
   128
 43
0.0
 10
688.8203861680538
 20
-9.04943891437291
 10
311.5344165826934
 20
-226.8755960998821
  0
LWPOLYLINE
  5
11A
330
1F
100
AcDbEntity
  8
0_Pen_No__1
  6
Continuous
100
AcDbPolyline
 90
        2
 70
   128
 43
0.0
 10
696.047223032803
 20
264.5283793818776
 10
545.9597146061499
 20
171.9812181603985
  0
LWPOLYLINE
  5
11B
330
1F
100
AcDbEntity
  8
0_Pen_No__1
  6
Continuous
100
AcDbPolyline
 90
        2
 70
   128
 43
0.0
 10
690.0340078191647
 20
-9.751356033266024
 10
678.3814168767153
 20
114.1759457819516
  0
LWPOLYLINE
  5
11C
330
1F
100
AcDbEntity
  8
0_Pen_No__1
  6
Continuous
100
AcDbPolyline
 90
        2
 70
   128
 43
0.0
 10
692.8903739183783
 20
122.5526960722228
 10
545.9597146061499
 20
37.72223986334024
  0
LWPOLYLINE
  5
11D
330
1F
100
AcDbEntity
  8
0_Pen_No__1
  6
Continuous
100
AcDbPolyline
 90
        2
 70
   128
 43
0.0
 10
692.8903739183783
 20
122.5526960722228
 10
680.4312328761793
 20
255.0577964332059
  0
LWPOLYLINE
  5
11E
330
1F
100
AcDbEntity
  8
0_Pen_No__1
  6
Continuous
100
AcDbPolyline
 90
        2
 70
   128
 43
0.0
 10
683.2372909625253
 20
-70.05618322168213
 10
288.0837721301598
 20
-298.1981748197874
  0
LWPOLYLINE
  5
11F
330
1F
100
AcDbEntity
  8
0_Pen_No__1
  6
Continuous
100
AcDbPolyline
 90
        2
 70
   128
 43
0.0
 10
560.2345468950423
 20
437.9935092734827
 10
490.9525146679765
 20
397.9935091423851
  0
LWPOLYLINE
  5
120
330
1F
100
AcDbEntity
  8
0_Pen_No__1
  6
Continuous
100
AcDbPolyline
 90
        2
 70
   128
 43
0.0
 10
482.2922606395845
 20
482.993509420952
 10
413.0102284125178
 20
442.9935092898546
  0
LWPOLYLINE
  5
121
330
1F
100
AcDbEntity
  8
0_Pen_No__1
  6
Continuous
100
AcDbPolyline
 90
        2
 70
   128
 43
0.0
 10
631.4416138262302
 20
354.7988591635901
 10
545.9597146061499
 20
302.6361465223907
  0
LWPOLYLINE
  5
122
330
1F
100
AcDbEntity
  8
0_Pen_No__1
  6
Continuous
100
AcDbPolyline
 90
        2
 70
   128
 43
0.0
 10
566.9668144341737
 20
372.8273721562942
 10
495.1996516324423
 20
331.3925956849732
  0
LWPOLYLINE
  5
123
330
1F
100
AcDbEntity
  8
0_Pen_No__1
  6
Continuous
100
AcDbPolyline
 90
        2
 70
   128
 43
0.0
 10
311.5344165826934
 20
-226.8755960998821
 10
688.8203861680538
 20
-9.04943891437291
  0
LWPOLYLINE
  5
124
330
1F
100
AcDbEntity
  8
0_Pen_No__1
  6
Continuous
100
AcDbPolyline
 90
        2
 70
   128
 43
0.0
 10
578.5508693042345
 20
369.0648104302908
 10
517.6675467477529
 20
333.9138076095406
  0
LWPOLYLINE
  5
125
330
1F
100
AcDbEntity
  8
0_Pen_No__1
  6
Continuous
100
AcDbPolyline
 90
        2
 70
   128
 43
0.0
 10
573.7116434323102
 20
373.2708820582567
 10
511.6053689477533
 20
337.4138076095409
  0
LWPOLYLINE
  5
126
330
1F
100
AcDbEntity
  8
0_Pen_No__1
  6
Continuous
100
AcDbPolyline
 90
        2
 70
   128
 43
0.0
 10
305.4722387826884
 20
-204.2161409382919
 10
294.777976418288
 20
-210.3904762201441
  0
LWPOLYLINE
  5
127
330
1F
100
AcDbEntity
  8
0_Pen_No__1
  6
Continuous
100
AcDbPolyline
 90
        2
 70
   128
 43
0.0
 10
289.8816209897574
 20
-175.1181781857388
 10
289.7046970353131
 20
-175.2203252789101
  0
LWPOLYLINE
  5
128
330
1F
100
AcDbEntity
  8
0_Pen_No__1
  6
Continuous
100
AcDbPolyline
 90
        2
 70
   128
 43
0.0
 10
314.0480334156492
 20
-182.7430081543654
 10
305.4722387826884
 20
-187.6942455158564
  0
LWPOLYLINE
  5
129
330
1F
100
AcDbEntity
  8
0_Pen_No__1
  6
Continuous
100
AcDbPolyline
 90
        2
 70
   128
 43
0.0
 10
314.0480334156501
 20
-189.7430081543699
 10
311.5344165826934
 20
-191.1942455158587
  0
LWPOLYLINE
  5
12A
330
1F
100
AcDbEntity
  8
0_Pen_No__1
  6
Continuous
100
AcDbPolyline
 90
        2
 70
   128
 43
0.0
 10
307.5949951405364
 20
-174.1500221399111
 10
293.3478831826972
 20
-182.3755960998895
  0
LWPOLYLINE
  5
12B
330
1F
100
AcDbEntity
  8
0_Pen_No__1
  6
Continuous
100
AcDbPolyline
 90
        2
 70
   128
 43
0.0
 10
300.7844539645169
 20
-170.2179543586092
 10
290.9123952227126
 20
-175.9175901555519
  0
LWPOLYLINE
  5
12C
330
1F
100
AcDbEntity
  8
0_Pen_No__1
  6
Continuous
100
AcDbPolyline
 90
        2
 70
   128
 43
0.0
 10
299.6007561707576
 20
-169.5345461187431
 10
289.72869743154
 20
-175.234181914193
  0
LWPOLYLINE
  5
12D
330
1F
100
AcDbEntity
  8
0_Pen_No__1
  6
Continuous
100
AcDbPolyline
 90
        2
 70
   128
 43
0.0
 10
513.3975744419122
 20
-86.22483546627677
 10
313.6212875245607
 20
-201.5657290258487
  0
LWPOLYLINE
  5
12E
330
1F
100
AcDbEntity
  8
0_Pen_No__1
  6
Continuous
100
AcDbPolyline
 90
        2
 70
   128
 43
0.0
 10
305.4722387826884
 20
-198.9656328252601
 10
299.9666876971607
 20
-202.1442642404173
  0
LWPOLYLINE
  5
12F
330
1F
100
AcDbEntity
  8
0_Pen_No__1
  6
Continuous
100
AcDbPolyline
 90
        2
 70
   128
 43
0.0
 10
293.5942786271154
 20
-206.6102957543197
 10
290.9123952227126
 20
-208.1586818665523
  0
LWPOLYLINE
  5
131
330
1F
100
AcDbEntity
  8
0_Pen_No__1
  6
Above
100
AcDbPolyline
 90
        2
 70
   128
 43
0.0
 10
683.3347551413038
 20
318.1173061993791
 10
696.047223032803
 20
264.5283793818776
  0
LWPOLYLINE
  5
132
330
1F
100
AcDbEntity
  8
0_Pen_No__1
  6
Continuous
100
AcDbPolyline
 90
        2
 70
   128
 43
0.0
 10
653.2044048319754
 20
-437.929514784624
 10
624.9674892457377
 20
-492.6980804319309
  0
LWPOLYLINE
  5
133
330
1F
100
AcDbEntity
  8
0_Pen_No__1
  6
Continuous
100
AcDbPolyline
 90
        2
 70
   128
 43
0.0
 10
517.7347260429765
 20
333.9138076095404
 10
517.7347260429765
 20
319.4032269370305
  0
LWPOLYLINE
  5
134
330
1F
100
AcDbEntity
  8
0_Pen_No__1
  6
Continuous
100
AcDbPolyline
 90
        2
 70
   128
 43
0.0
 10
0.0
 20
0.0
 10
64.62703345678555
 20
20.35285516004116
  0
LWPOLYLINE
  5
135
330
1F
100
AcDbEntity
  8
0_Pen_No__1
  6
Continuous
100
AcDbPolyline
 90
        2
 70
   128
 43
0.0
 10
288.0837721301598
 20
-176.3491752796616
 10
288.0837721301598
 20
-576.3491752796616
  0
LWPOLYLINE
  5
136
330
1F
100
AcDbEntity
  8
0_Pen_No__1
  6
Continuous
100
AcDbPolyline
 90
        2
 70
   128
 43
0.0
 10
114.8786915624737
 20
-276.3491749519492
 10
114.8786915624728
 20
-476.3491749519561
  0
LWPOLYLINE
  5
137
330
1F
100
AcDbEntity
  8
0_Pen_No__1
  6
Continuous
100
AcDbPolyline
 90
        2
 70
   128
 43
0.0
 10
516.8502867034064
 20
318.8925956440164
 10
545.9597146061499
 20
335.6989317530613
  0
LWPOLYLINE
  5
138
330
1F
100
AcDbEntity
  8
0_Pen_No__1
  6
Continuous
100
AcDbPolyline
 90
        2
 70
   128
 43
0.0
 10
64.62703345678555
 20
20.35285516004116
 10
104.7203211821299
 20
65.71940968215564
  0
LWPOLYLINE
  5
139
330
1F
100
AcDbEntity
  8
0_Pen_No__1
  6
Continuous
100
AcDbPolyline
 90
        2
 70
   128
 43
0.0
 10
104.7203211821299
 20
65.71940968215564
 10
177.1225520217543
 20
83.37384342859264
  0
LWPOLYLINE
  5
13A
330
1F
100
AcDbEntity
  8
0_Pen_No__1
  6
Continuous
100
AcDbPolyline
 90
        2
 70
   128
 43
0.0
 10
177.1225520217543
 20
83.37384342859264
 10
286.1468713360053
 20
97.33236373778534
  0
LWPOLYLINE
  5
13B
330
1F
100
AcDbEntity
  8
0_Pen_No__1
  6
Continuous
100
AcDbPolyline
 90
        2
 70
   128
 43
0.0
 10
286.1468713360053
 20
97.33236373778534
 10
359.6988240518512
 20
116.801998280215
  0
LWPOLYLINE
  5
13C
330
1F
100
AcDbEntity
  8
0_Pen_No__1
  6
Continuous
100
AcDbPolyline
 90
        2
 70
   128
 43
0.0
 10
359.6988240518512
 20
116.801998280215
 10
400.8013858636469
 20
125.4551691879614
  0
LWPOLYLINE
  5
13D
330
1F
100
AcDbEntity
  8
0_Pen_No__1
  6
Continuous
100
AcDbPolyline
 90
        2
 70
   128
 43
0.0
 10
400.8013858636469
 20
125.4551691879614
 10
414.9999999999998
 20
125.4551691879614
  0
LWPOLYLINE
  5
13E
330
1F
100
AcDbEntity
  8
0_Pen_No__1
  6
Continuous
100
AcDbPolyline
 90
        2
 70
   128
 43
0.0
 10
511.6053689477533
 20
337.7376891744582
 10
511.6053689477533
 20
321.9207503353502
  0
LWPOLYLINE
  5
13F
330
1F
100
AcDbEntity
  8
0_Pen_No__1
  6
Above
100
AcDbPolyline
 90
        2
 70
   128
 43
0.0
 10
517.6675467477529
 20
333.9138076095406
 10
511.6053689477533
 20
337.4138076095409
  0
LWPOLYLINE
  5
140
330
1F
100
AcDbEntity
  8
0_Pen_No__1
  6
Continuous
100
AcDbPolyline
 90
        2
 70
   128
 43
0.0
 10
678.6197815281021
 20
-16.34136268380047
 10
678.6197815281021
 20
-62.38435510788752
  0
LWPOLYLINE
  5
141
330
1F
100
AcDbEntity
  8
0_Pen_No__1
  6
Above
100
AcDbPolyline
 90
        2
 70
   128
 43
0.0
 10
578.5508693042345
 20
369.0648104302908
 10
572.4886915042349
 20
372.5648104302913
  0
LWPOLYLINE
  5
142
330
1F
100
AcDbEntity
  8
0_Pen_No__1
  6
Above
100
AcDbPolyline
 90
        2
 70
   128
 43
0.0
 10
683.3347538086165
 20
318.1173055399279
 10
676.3020847942627
 20
322.1776189062303
  0
LWPOLYLINE
  5
143
330
1F
100
AcDbEntity
  8
0_Pen_No__1
  6
Continuous
100
AcDbPolyline
 90
        2
 70
   128
 43
0.0
 10
625.8907839013606
 20
364.1302141954729
 10
631.4416138262302
 20
354.7988591635901
  0
LWPOLYLINE
  5
144
330
1F
100
AcDbEntity
  8
0_Pen_No__1
  6
Above
100
AcDbPolyline
 90
        2
 70
   128
 43
0.0
 10
634.3627244178547
 20
329.8800336299538
 10
642.9733490736609
 20
327.317096844454
  0
LWPOLYLINE
  5
145
330
1F
100
AcDbEntity
  8
0_Pen_No__1
  6
Above
100
AcDbPolyline
 90
        2
 70
   128
 43
0.0
 10
625.6415566144253
 20
364.2297886974676
 10
618.6088876000715
 20
368.29010206377
  0
LWPOLYLINE
  5
146
330
1F
100
AcDbEntity
  8
0_Pen_No__1
  6
Above
100
AcDbPolyline
 90
        2
 70
   128
 43
0.0
 10
650.0060180880147
 20
323.2567834781516
 10
642.9733490736609
 20
327.317096844454
  0
LWPOLYLINE
  5
147
330
1F
100
AcDbEntity
  8
0_Pen_No__1
  6
Continuous
100
AcDbPolyline
 90
        2
 70
   128
 43
0.0
 10
678.6197815281021
 20
-62.38435510788752
 10
712.4903328352525
 20
-118.6590745076368
  0
LWPOLYLINE
  5
148
330
1F
100
AcDbEntity
  8
0_Pen_No__1
  6
Above
100
AcDbPolyline
 90
        2
 70
   128
 43
0.0
 10
635.8294624741834
 20
327.4764095014359
 10
650.0060180880147
 20
323.2567834781516
  0
LWPOLYLINE
  5
149
330
1F
100
AcDbEntity
  8
0_Pen_No__1
  6
Continuous
100
AcDbPolyline
 90
        2
 70
   128
 43
0.0
 10
495.1996516324423
 20
331.3925956849732
 10
516.8502867034064
 20
318.8925956440164
  0
LWPOLYLINE
  5
14A
330
1F
100
AcDbEntity
  8
0_Pen_No__1
  6
Continuous
100
AcDbPolyline
 90
        2
 70
   128
 43
0.0
 10
712.4903328352525
 20
-118.6590745076368
 10
714.5768420240408
 20
-197.946423681627
  0
LWPOLYLINE
  5
14B
330
1F
100
AcDbEntity
  8
0_Pen_No__1
  6
Continuous
100
AcDbPolyline
 90
        2
 70
   128
 43
0.0
 10
714.5768420240408
 20
-197.946423681627
 10
699.9712777025167
 20
-262.6282085340921
  0
LWPOLYLINE
  5
14C
330
1F
100
AcDbEntity
  8
0_Pen_No__1
  6
Continuous
100
AcDbPolyline
 90
        2
 70
   128
 43
0.0
 10
699.9712777025167
 20
-262.6282085340921
 10
701.0145322969113
 20
-326.2667387921625
  0
LWPOLYLINE
  5
14D
330
1F
100
AcDbEntity
  8
0_Pen_No__1
  6
Continuous
100
AcDbPolyline
 90
        2
 70
   128
 43
0.0
 10
701.0145322969113
 20
-326.2667387921625
 10
692.8480794189713
 20
-349.2528742610831
  0
LWPOLYLINE
  5
14E
330
1F
100
AcDbEntity
  8
0_Pen_No__1
  6
Continuous
100
AcDbPolyline
 90
        2
 70
   128
 43
0.0
 10
692.8480794189713
 20
-349.2528742610831
 10
653.2044048319754
 20
-437.929514784624
  0
LWPOLYLINE
  5
14F
330
1F
100
AcDbEntity
  8
0_Pen_No__1
  6
Continuous
100
AcDbPolyline
 90
        2
 70
   128
 43
0.0
 10
683.3347538086165
 20
318.1173055399279
 10
696.047223032803
 20
264.5283793818776
  0
LWPOLYLINE
  5
150
330
1F
100
AcDbEntity
  8
0_Pen_No__1
  6
Continuous
100
AcDbPolyline
 90
        2
 70
   128
 43
0.0
 10
650.0060180880147
 20
323.2567834781516
 10
683.3347538086165
 20
318.1173055399279
  0
LWPOLYLINE
  5
151
330
1F
100
AcDbEntity
  8
0_Pen_No__1
  6
Continuous
100
AcDbPolyline
 90
        2
 70
   128
 43
0.0
 10
578.5508693042345
 20
369.0648104302908
 10
626.0375689089049
 20
363.5711621198506
  0
LWPOLYLINE
  5
152
330
1F
100
AcDbEntity
  8
0_Pen_No__1
  6
Continuous
100
AcDbPolyline
 90
        2
 70
   128
 43
0.0
 10
539.5957535754696
 20
332.0246971228308
 10
539.5957535754696
 20
-60.5307181769946
  0
LWPOLYLINE
  5
153
330
1F
100
AcDbEntity
  8
0_Pen_No__1
  6
Continuous
100
AcDbPolyline
 90
        2
 70
   128
 43
0.0
 10
536.4137730601308
 20
330.1875798077155
 10
536.4137730601308
 20
-62.36783549210978
  0
LWPOLYLINE
  5
154
330
1F
100
AcDbEntity
  8
0_Pen_No__1
  6
Continuous
100
AcDbPolyline
 90
        2
 70
   128
 43
0.0
 10
495.1996516324423
 20
331.3925956849732
 10
495.1996485933746
 20
-42.52103534046324
  0
LWPOLYLINE
  5
155
330
1F
100
AcDbEntity
  8
0_Pen_No__1
  6
Continuous
100
AcDbPolyline
 90
        2
 70
   128
 43
0.0
 10
516.8502867034064
 20
318.8925956440164
 10
516.8502867034064
 20
-73.66281965580876
  0
LWPOLYLINE
  5
156
330
1F
100
AcDbEntity
  8
0_Pen_No__1
  6
Continuous
100
AcDbPolyline
 90
        2
 70
   128
 43
0.0
 10
545.9597146061499
 20
335.6989317530613
 10
545.9597146061499
 20
-56.85648354676385
  0
LWPOLYLINE
  5
157
330
1F
100
AcDbEntity
  8
0_Pen_No__1
  6
Continuous
100
AcDbPolyline
 90
        2
 70
   128
 43
0.0
 10
542.7777340908093
 20
333.8618144379461
 10
542.7777340908093
 20
-58.69360086187934
  0
LWPOLYLINE
  5
158
330
1F
100
AcDbEntity
  8
0_Pen_No__1
  6
Continuous
100
AcDbPolyline
 90
        2
 70
   128
 43
0.0
 10
516.8502867034064
 20
-73.66281965580876
 10
545.9597146061499
 20
-56.85648354676385
  0
LWPOLYLINE
  5
159
330
1F
100
AcDbEntity
  8
0_Pen_No__1
  6
Continuous
100
AcDbPolyline
 90
        2
 70
   128
 43
0.0
 10
461.4278922391346
 20
-32.17680138364354
 10
513.824320333001
 20
-62.31859635175005
  0
LWPOLYLINE
  5
15A
330
1F
100
AcDbEntity
  8
0_Pen_No__1
  6
Continuous
100
AcDbPolyline
 90
        2
 70
   128
 43
0.0
 10
314.0480334156501
 20
-197.983743518949
 10
314.0480334156492
 20
-177.8756855251384
  0
LWPOLYLINE
  5
15B
330
1F
100
AcDbEntity
  8
0_Pen_No__1
  6
Continuous
100
AcDbPolyline
 90
        2
 70
   128
 43
0.0
 10
261.5590282945141
 20
-147.5711442889554
 10
314.0480334156492
 20
-177.8756855251384
  0
LWPOLYLINE
  5
15C
330
1F
100
AcDbEntity
  8
0_Pen_No__1
  6
Continuous
100
AcDbPolyline
 90
        2
 70
   128
 43
0.0
 10
314.0480334156501
 20
-197.983743518949
 10
315.1934366112241
 20
-199.7517108489296
  0
LWPOLYLINE
  5
15D
330
1F
100
AcDbEntity
  8
0_Pen_No__1
  6
Continuous
100
AcDbPolyline
 90
        2
 70
   128
 43
0.0
 10
315.1934366112241
 20
-199.7517108489296
 10
313.6212875245607
 20
-201.5657290258487
  0
LWPOLYLINE
  5
15E
330
1F
100
AcDbEntity
  8
0_Pen_No__1
  6
Continuous
100
AcDbPolyline
 90
        2
 70
   128
 43
0.0
 10
261.5590282945141
 20
-147.5711442889554
 10
461.4278922391346
 20
-32.17680138364354
  0
LWPOLYLINE
  5
15F
330
1F
100
AcDbEntity
  8
0_Pen_No__1
  6
Continuous
100
AcDbPolyline
 90
        2
 70
   128
 43
0.0
 10
513.8243203330015
 20
-82.6428499593764
 10
514.9697235285764
 20
-84.41081728935748
  0
LWPOLYLINE
  5
160
330
1F
100
AcDbEntity
  8
0_Pen_No__1
  6
Continuous
100
AcDbPolyline
 90
        2
 70
   128
 43
0.0
 10
514.9697235285764
 20
-84.41081728935748
 10
513.3975744419122
 20
-86.22483546627632
  0
LWPOLYLINE
  5
161
330
1F
100
AcDbEntity
  8
0_Pen_No__1
  6
Continuous
100
AcDbPolyline
 90
        2
 70
   128
 43
0.0
 10
301.0487563122292
 20
-194.5520236623018
 10
302.0192295634333
 20
-195.1954095087936
  0
LWPOLYLINE
  5
162
330
1F
100
AcDbEntity
  8
0_Pen_No__1
  6
Continuous
100
AcDbPolyline
 90
        2
 70
   128
 43
0.0
 10
447.651244526052
 20
462.9935093554033
 10
490.9525146679765
 20
397.9935091423851
  0
LWPOLYLINE
  5
163
330
1F
100
AcDbEntity
  8
0_Pen_No__1
  6
Continuous
100
AcDbPolyline
 90
        2
 70
   128
 43
0.0
 10
525.5935307815089
 20
417.993509207934
 10
413.0102284125178
 20
442.9935092898546
  0
LWPOLYLINE
  5
164
330
1F
100
AcDbEntity
  8
0_Pen_No__1
  6
Continuous
100
AcDbPolyline
 90
        2
 70
   128
 43
0.0
 10
482.2922606395845
 20
482.993509420952
 10
525.5935307815089
 20
417.993509207934
  0
LWPOLYLINE
  5
165
330
1F
100
AcDbEntity
  8
0_Pen_No__1
  6
Continuous
100
AcDbPolyline
 90
        2
 70
   128
 43
0.0
 10
560.2345468950423
 20
437.9935092734827
 10
447.651244526052
 20
462.9935093554033
  0
LWPOLYLINE
  5
166
330
1F
100
AcDbEntity
  8
0_Pen_No__1
  6
Continuous
100
AcDbPolyline
 90
        2
 70
   128
 43
0.0
 10
618.6088876000715
 20
368.2901020637702
 10
573.7116434323093
 20
373.2708820582565
  0
LWPOLYLINE
  5
167
330
1F
100
AcDbEntity
  8
0_Pen_No__1
  6
Continuous
100
AcDbPolyline
 90
        2
 70
   128
 43
0.0
 10
642.9733490736609
 20
327.317096844454
 10
676.3020847942627
 20
322.1776189062303
  0
LWPOLYLINE
  5
168
330
1F
100
AcDbEntity
  8
0_Pen_No__1
  6
Continuous
100
AcDbPolyline
 90
        2
 70
   128
 43
0.0
 10
513.8243203330015
 20
-82.6428499593764
 10
513.8243203330009
 20
-55.05127911446665
  0
LWPOLYLINE
  5
169
330
1F
100
AcDbEntity
  8
0_Pen_No__1
  6
Continuous
100
AcDbPolyline
 90
        2
 70
   128
 43
0.0
 10
314.0480334156492
 20
-177.8756855251384
 10
513.635012555219
 20
-62.31859635175005
  0
LWPOLYLINE
  5
16A
330
1F
100
AcDbEntity
  8
0_Pen_No__1
  6
Continuous
100
AcDbPolyline
 90
        2
 70
   128
 43
0.0
 10
516.8502867034064
 20
-73.66281965580876
 10
513.8243203330014
 20
-71.9157771705822
  0
LWPOLYLINE
  5
16B
330
1F
100
AcDbEntity
  8
0_Pen_No__1
  6
Continuous
100
AcDbPolyline
 90
       15
 70
   129
 43
0.0
 10
207.0522441816886
 20
338.1456499254063
 10
188.500907809324
 20
327.4350308301901
 10
188.5009078093231
 20
320.667901031517
 10
139.7025852882331
 20
348.8416257981839
 10
139.7025852882331
 20
297.3233154454102
 10
164.1017465487908
 20
283.2364530620708
 10
164.1017465487908
 20
306.5810386481645
 10
188.5009078093231
 20
292.4941762648388
 10
188.5009078093213
 20
211.9978197885922
 10
164.1017465487908
 20
226.0846821719154
 10
164.1017465487908
 20
197.9109574052356
 10
212.9000690699038
 20
169.7372326385549
 10
212.9000690699034
 20
313.3481684468393
 10
217.0967237318874
 20
315.7711081562198
 10
217.0967237318861
 20
332.3465051120403
  0
LWPOLYLINE
  5
16C
330
1F
100
AcDbEntity
  8
0_Pen_No__1
  6
Continuous
100
AcDbPolyline
 90
        2
 70
   128
 43
0.0
 10
38.07968474628423
 20
419.5286902870125
 10
117.5562117107582
 20
373.6428958493194
  0
LWPOLYLINE
  5
16D
330
1F
100
AcDbEntity
  8
0_Pen_No__1
  6
Continuous
100
AcDbPolyline
 90
        2
 70
   128
 43
0.0
 10
174.687557052537
 20
297.529887491768
 10
166.342067670381
 20
269.2763379131533
  0
LWPOLYLINE
  5
16E
330
1F
100
AcDbEntity
  8
0_Pen_No__1
  6
Continuous
100
AcDbPolyline
 90
        2
 70
   128
 43
0.0
 10
174.687557052537
 20
297.529887491768
 10
170.6971967188972
 20
299.8337231146253
  0
LWPOLYLINE
  5
16F
330
1F
100
AcDbEntity
  8
0_Pen_No__1
  6
Continuous
100
AcDbPolyline
 90
        2
 70
   128
 43
0.0
 10
163.7896433655945
 20
276.4482879175279
 10
129.9001899372109
 20
296.0143730626041
  0
LWPOLYLINE
  5
170
330
1F
100
AcDbEntity
  8
0_Pen_No__1
  6
Continuous
100
AcDbPolyline
 90
        2
 70
   128
 43
0.0
 10
170.6971967188972
 20
299.8337231146253
 10
163.7896433655945
 20
276.4482879175279
  0
LWPOLYLINE
  5
171
330
1F
100
AcDbEntity
  8
0_Pen_No__1
  6
Continuous
100
AcDbPolyline
 90
        2
 70
   128
 43
0.0
 10
166.342067670381
 20
269.2763379131533
 10
145.4584500325539
 20
281.3371536868326
  0
LWPOLYLINE
  5
172
330
1F
100
AcDbEntity
  8
0_Pen_No__1
  6
Continuous
100
AcDbPolyline
 90
        2
 70
   128
 43
0.0
 10
140.6942820646346
 20
284.0885808184914
 10
140.6942820646346
 20
238.837430628972
  0
LWPOLYLINE
  5
173
330
1F
100
AcDbEntity
  8
0_Pen_No__1
  6
Continuous
100
AcDbPolyline
 90
        2
 70
   128
 43
0.0
 10
145.4584500325544
 20
236.0868369582099
 10
140.6942820646346
 20
238.837430628972
  0
LWPOLYLINE
  5
174
330
1F
100
AcDbEntity
  8
0_Pen_No__1
  6
Continuous
100
AcDbPolyline
 90
        2
 70
   128
 43
0.0
 10
140.6942820646346
 20
284.0885808184914
 10
129.9001899372109
 20
290.3224411989453
  0
LWPOLYLINE
  5
175
330
1F
100
AcDbEntity
  8
0_Pen_No__1
  6
Continuous
100
AcDbPolyline
 90
        2
 70
   128
 43
0.0
 10
145.4584500325539
 20
281.3371536868326
 10
145.4584500325539
 20
236.0868369582121
  0
LWPOLYLINE
  5
176
330
1F
100
AcDbEntity
  8
0_Pen_No__1
  6
Continuous
100
AcDbPolyline
 90
        2
 70
   128
 43
0.0
 10
129.9001899372109
 20
290.3224411989453
 10
129.9001899372109
 20
245.0694026516309
  0
LWPOLYLINE
  5
177
330
1F
100
AcDbEntity
  8
0_Pen_No__1
  6
Continuous
100
AcDbPolyline
 90
        2
 70
   128
 43
0.0
 10
125.1360219692907
 20
377.5845169000032
 10
125.1360219692907
 20
247.8199963223931
  0
LWPOLYLINE
  5
178
330
1F
100
AcDbEntity
  8
0_Pen_No__1
  6
Continuous
100
AcDbPolyline
 90
        2
 70
   128
 43
0.0
 10
129.9001899372109
 20
374.833923229241
 10
129.9001899372109
 20
296.0143730626028
  0
LWPOLYLINE
  5
179
330
1F
100
AcDbEntity
  8
0_Pen_No__1
  6
Continuous
100
AcDbPolyline
 90
        2
 70
   128
 43
0.0
 10
129.9001899372109
 20
374.833923229241
 10
125.1360219692907
 20
377.5845169000032
  0
LWPOLYLINE
  5
17A
330
1F
100
AcDbEntity
  8
0_Pen_No__1
  6
Continuous
100
AcDbPolyline
 90
        2
 70
   128
 43
0.0
 10
129.9001899372109
 20
245.0694026516309
 10
125.1360219692907
 20
247.8199963223931
  0
LWPOLYLINE
  5
17B
330
1F
100
AcDbEntity
  8
0_Pen_No__1
  6
Continuous
100
AcDbPolyline
 90
        2
 70
   128
 43
0.0
 10
212.9000690699038
 20
313.3481684468369
 10
188.500907809324
 20
327.4350308301901
  0
LWPOLYLINE
  5
17C
330
1F
100
AcDbEntity
  8
0_Pen_No__1
  6
Continuous
100
AcDbPolyline
 90
        2
 70
   128
 43
0.0
 10
188.5009078093231
 20
320.667901031517
 10
139.7025852882331
 20
348.8416257981839
  0
LWPOLYLINE
  5
17D
330
1F
100
AcDbEntity
  8
0_Pen_No__1
  6
Continuous
100
AcDbPolyline
 90
        2
 70
   128
 43
0.0
 10
139.7025852882331
 20
348.8416257981839
 10
139.7025852882331
 20
297.3233154454102
  0
LWPOLYLINE
  5
17E
330
1F
100
AcDbEntity
  8
0_Pen_No__1
  6
Continuous
100
AcDbPolyline
 90
        2
 70
   128
 43
0.0
 10
139.7025852882331
 20
297.3233154454102
 10
164.1017465487908
 20
283.2364530620708
  0
LWPOLYLINE
  5
17F
330
1F
100
AcDbEntity
  8
0_Pen_No__1
  6
Continuous
100
AcDbPolyline
 90
        2
 70
   128
 43
0.0
 10
164.1017465487908
 20
306.5810386481645
 10
188.5009078093231
 20
292.4941762648388
  0
LWPOLYLINE
  5
180
330
1F
100
AcDbEntity
  8
0_Pen_No__1
  6
Continuous
100
AcDbPolyline
 90
        2
 70
   128
 43
0.0
 10
188.5009078093231
 20
292.4941762648388
 10
188.5009078093213
 20
211.9978197885922
  0
LWPOLYLINE
  5
181
330
1F
100
AcDbEntity
  8
0_Pen_No__1
  6
Continuous
100
AcDbPolyline
 90
        2
 70
   128
 43
0.0
 10
164.1017465487908
 20
197.9109574052356
 10
212.9000690699038
 20
169.7372326385549
  0
LWPOLYLINE
  5
182
330
1F
100
AcDbEntity
  8
0_Pen_No__1
  6
Continuous
100
AcDbPolyline
 90
        2
 70
   128
 43
0.0
 10
212.9000690699038
 20
313.3481684468369
 10
188.500907809324
 20
327.4350308301901
  0
LWPOLYLINE
  5
183
330
1F
100
AcDbEntity
  8
0_Pen_No__1
  6
Continuous
100
AcDbPolyline
 90
        2
 70
   128
 43
0.0
 10
188.5009078093235
 20
327.4350308301901
 10
188.5009078093231
 20
320.667901031517
  0
LWPOLYLINE
  5
184
330
1F
100
AcDbEntity
  8
0_Pen_No__1
  6
Continuous
100
AcDbPolyline
 90
        2
 70
   128
 43
0.0
 10
212.9000690699038
 20
169.7372326385549
 10
212.9000690699038
 20
313.3481684468376
  0
LWPOLYLINE
  5
185
330
1F
100
AcDbEntity
  8
0_Pen_No__1
  6
Continuous
100
AcDbPolyline
 90
        2
 70
   128
 43
0.0
 10
188.5009078093231
 20
320.667901031517
 10
139.7025852882331
 20
348.8416257981839
  0
LWPOLYLINE
  5
186
330
1F
100
AcDbEntity
  8
0_Pen_No__1
  6
Continuous
100
AcDbPolyline
 90
        2
 70
   128
 43
0.0
 10
139.7025852882331
 20
297.3233154454102
 10
164.1017465487908
 20
283.2364530620708
  0
LWPOLYLINE
  5
187
330
1F
100
AcDbEntity
  8
0_Pen_No__1
  6
Continuous
100
AcDbPolyline
 90
        2
 70
   128
 43
0.0
 10
164.1017465487908
 20
283.2364530620708
 10
164.1017465487908
 20
306.5810386481645
  0
LWPOLYLINE
  5
188
330
1F
100
AcDbEntity
  8
0_Pen_No__1
  6
Continuous
100
AcDbPolyline
 90
        2
 70
   128
 43
0.0
 10
164.1017465487908
 20
306.5810386481645
 10
188.5009078093231
 20
292.4941762648388
  0
LWPOLYLINE
  5
189
330
1F
100
AcDbEntity
  8
0_Pen_No__1
  6
Continuous
100
AcDbPolyline
 90
        2
 70
   128
 43
0.0
 10
164.1017465487908
 20
226.0846821719154
 10
164.1017465487908
 20
197.9109574052356
  0
LWPOLYLINE
  5
18A
330
1F
100
AcDbEntity
  8
0_Pen_No__1
  6
Continuous
100
AcDbPolyline
 90
        2
 70
   128
 43
0.0
 10
164.1017465487908
 20
197.9109574052356
 10
212.9000690699038
 20
169.7372326385549
  0
LWPOLYLINE
  5
18B
330
1F
100
AcDbEntity
  8
0_Pen_No__1
  6
Continuous
100
AcDbPolyline
 90
        2
 70
   128
 43
0.0
 10
188.5009078093235
 20
327.4350308301901
 10
188.5009078093231
 20
320.667901031517
  0
LWPOLYLINE
  5
18C
330
1F
100
AcDbEntity
  8
0_Pen_No__1
  6
Continuous
100
AcDbPolyline
 90
        2
 70
   128
 43
0.0
 10
188.5009078093213
 20
211.9978197885922
 10
167.1265363217382
 20
224.3383189746311
  0
LWPOLYLINE
  5
18D
330
1F
100
AcDbEntity
  8
0_Pen_No__1
  6
Above
100
AcDbPolyline
 90
        2
 70
   128
 43
0.0
 10
286.8820934355129
 20
471.4032396710847
 10
128.2253761996603
 20
379.802740865935
  0
LWPOLYLINE
  5
18E
330
1F
100
AcDbEntity
  8
0_Pen_No__1
  6
Continuous
100
AcDbPolyline
 90
        2
 70
   128
 43
0.0
 10
128.2253761996603
 20
379.802740865935
 10
117.5562117107582
 20
373.6428958493194
  0
LWPOLYLINE
  5
18F
330
1F
100
AcDbEntity
  8
0_Pen_No__1
  6
Continuous
100
AcDbPolyline
 90
        2
 70
   128
 43
0.0
 10
139.9483566703549
 20
250.8707144452245
 10
129.9001899372109
 20
245.0694026516309
  0
LWPOLYLINE
  5
190
330
1F
100
AcDbEntity
  8
0_Pen_No__1
  6
Continuous
100
AcDbPolyline
 90
        2
 70
   128
 43
0.0
 10
188.5009078093231
 20
282.0697502882072
 10
166.342067670381
 20
269.2763379131533
  0
LWPOLYLINE
  5
191
330
1F
100
AcDbEntity
  8
0_Pen_No__1
  6
Continuous
100
AcDbPolyline
 90
        2
 70
   128
 43
0.0
 10
177.2331786013441
 20
298.9996027846486
 10
174.687557052537
 20
297.529887491768
  0
LWPOLYLINE
  5
192
330
1F
100
AcDbEntity
  8
0_Pen_No__1
  6
Continuous
100
AcDbPolyline
 90
        2
 70
   128
 43
0.0
 10
173.2428182677048
 20
301.3034384075062
 10
170.6971967188972
 20
299.8337231146253
  0
LWPOLYLINE
  5
193
330
1F
100
AcDbEntity
  8
0_Pen_No__1
  6
Continuous
100
AcDbPolyline
 90
        2
 70
   128
 43
0.0
 10
125.7515114320866
 20
378.0514107739144
 10
125.0394247467778
 20
377.6402873326685
  0
LWPOLYLINE
  5
194
330
1F
100
AcDbEntity
  8
0_Pen_No__1
  6
Continuous
100
AcDbPolyline
 90
        2
 70
   128
 43
0.0
 10
188.5009078093227
 20
260.9374116508045
 10
145.4584500325539
 20
236.0868369582099
  0
LWPOLYLINE
  5
195
330
1F
100
AcDbEntity
  8
0_Pen_No__1
  6
Continuous
100
AcDbPolyline
 90
        2
 70
   128
 43
0.0
 10
225.7992316650931
 20
246.1334830372535
 10
218.9964289006604
 20
242.2058830128029
  0
LWPOLYLINE
  5
196
330
1F
100
AcDbEntity
  8
0_Pen_No__1
  6
Continuous
100
AcDbPolyline
 90
        2
 70
   128
 43
0.0
 10
221.6783365141838
 20
247.0072310530749
 10
217.5878611162507
 20
244.6455939706456
  0
LWPOLYLINE
  5
197
330
1F
100
AcDbEntity
  8
0_Pen_No__1
  6
Continuous
100
AcDbPolyline
 90
        2
 70
   128
 43
0.0
 10
131.9388251912574
 20
381.5121172446594
 10
125.1360219692902
 20
377.5845169000032
  0
LWPOLYLINE
  5
198
330
1F
100
AcDbEntity
  8
0_Pen_No__1
  6
Continuous
100
AcDbPolyline
 90
        2
 70
   128
 43
0.0
 10
136.7030088923642
 20
378.7615326014109
 10
129.9001899372109
 20
374.833923229241
  0
LWPOLYLINE
  5
199
330
1F
100
AcDbEntity
  8
0_Pen_No__1
  6
Continuous
100
AcDbPolyline
 90
        2
 70
   128
 43
0.0
 10
164.1142865909621
 20
362.9357281782805
 10
139.7025852882331
 20
348.8416257981839
  0
LWPOLYLINE
  5
19A
330
1F
100
AcDbEntity
  8
0_Pen_No__1
  6
Continuous
100
AcDbPolyline
 90
        2
 70
   128
 43
0.0
 10
199.6965671301529
 20
333.8988477810716
 10
188.5009078093244
 20
327.4350308301901
  0
LWPOLYLINE
  5
19B
330
1F
100
AcDbEntity
  8
0_Pen_No__1
  6
Continuous
100
AcDbPolyline
 90
        2
 70
   128
 43
0.0
 10
217.0967237318874
 20
315.7711081562171
 10
212.9000690699038
 20
313.3481684468369
  0
LWPOLYLINE
  5
19C
330
1F
100
AcDbEntity
  8
0_Pen_No__1
  6
Continuous
100
AcDbPolyline
 90
        2
 70
   128
 43
0.0
 10
367.3672647369556
 20
340.8378380526569
 10
219.6838483085605
 20
255.5727774502952
  0
LWPOLYLINE
  5
19D
330
1F
100
AcDbEntity
  8
0_Pen_No__1
  6
Continuous
100
AcDbPolyline
 90
        2
 70
   128
 43
0.0
 10
368.3336509042093
 20
328.4257687133394
 10
218.9964289006604
 20
242.2058830128029
  0
LWPOLYLINE
  5
19E
330
1F
100
AcDbEntity
  8
0_Pen_No__1
  6
Continuous
100
AcDbPolyline
 90
        2
 70
   128
 43
0.0
 10
354.732613088375
 20
251.6242904653074
 10
212.9000690699038
 20
169.7372326385563
  0
LWPOLYLINE
  5
19F
330
1F
100
AcDbEntity
  8
0_Pen_No__1
  6
Continuous
100
AcDbPolyline
 90
        2
 70
   128
 43
0.0
 10
217.3807144903087
 20
142.9997926445475
 10
289.4982190457214
 20
-134.7576553266687
  0
LWPOLYLINE
  5
1A0
330
1F
100
AcDbEntity
  8
0_Pen_No__1
  6
Continuous
100
AcDbPolyline
 90
        2
 70
   128
 43
0.0
 10
117.5562117107582
 20
373.6428958493194
 10
117.5562117107578
 20
155.2386107124135
  0
LWPOLYLINE
  5
1A1
330
1F
100
AcDbEntity
  8
0_Pen_No__1
  6
Continuous
100
AcDbPolyline
 90
        2
 70
   128
 43
0.0
 10
218.684520274894
 20
334.3419016674775
 10
219.6947998600081
 20
332.8752167169359
  0
LWPOLYLINE
  5
1A2
330
1F
100
AcDbEntity
  8
0_Pen_No__1
  6
Continuous
100
AcDbPolyline
 90
        2
 70
   128
 43
0.0
 10
219.6947999404032
 20
255.5558732480168
 10
219.6947999404019
 20
330.7026948141757
  0
LWPOLYLINE
  5
1A3
330
1F
100
AcDbEntity
  8
0_Pen_No__1
  6
Continuous
100
AcDbPolyline
 90
        2
 70
   128
 43
0.0
 10
217.0967237318879
 20
254.0791003729992
 10
217.0967237318861
 20
332.3465051120403
  0
LWPOLYLINE
  5
1A4
330
1F
100
AcDbEntity
  8
0_Pen_No__1
  6
Continuous
100
AcDbPolyline
 90
        2
 70
   128
 43
0.0
 10
217.0967237318879
 20
254.0791003729992
 10
221.6783365141838
 20
247.0072310530749
  0
LWPOLYLINE
  5
1A5
330
1F
100
AcDbEntity
  8
0_Pen_No__1
  6
Continuous
100
AcDbPolyline
 90
        2
 70
   128
 43
0.0
 10
218.9964289006604
 20
242.2058830128029
 10
217.5878611162507
 20
244.6455939706456
  0
LWPOLYLINE
  5
1A6
330
1F
100
AcDbEntity
  8
0_Pen_No__1
  6
Continuous
100
AcDbPolyline
 90
        2
 70
   128
 43
0.0
 10
219.6947999404032
 20
255.5558732480168
 10
225.7992316650931
 20
246.1334830372535
  0
LWPOLYLINE
  5
1A7
330
1F
100
AcDbEntity
  8
0_Pen_No__1
  6
Continuous
100
AcDbPolyline
 90
        2
 70
   128
 43
0.0
 10
219.6947999404019
 20
330.7026948141757
 10
219.6947998600081
 20
332.8752167169359
  0
LWPOLYLINE
  5
1A8
330
1F
100
AcDbEntity
  8
0_Pen_No__1
  6
Continuous
100
AcDbPolyline
 90
        2
 70
   128
 43
0.0
 10
47.83825088308619
 20
432.9800417218794
 10
218.684520274894
 20
334.3419016674775
  0
LWPOLYLINE
  5
1A9
330
1F
100
AcDbEntity
  8
0_Pen_No__1
  6
Continuous
100
AcDbPolyline
 90
        2
 70
   128
 43
0.0
 10
46.26218691332735
 20
430.9772219335651
 10
217.0967237318861
 20
332.3465051120403
  0
LWPOLYLINE
  5
1AA
330
1F
100
AcDbEntity
  8
0_Pen_No__1
  6
Continuous
100
AcDbPolyline
 90
        2
 70
   129
 43
0.0
 10
254.9800504780261
 20
-184.9436627599936
 42
0.9999999999999999
 10
362.4637165462509
 20
-184.9436627599936
 42
0.9999999999999999
  0
LWPOLYLINE
  5
1AB
330
1F
100
AcDbEntity
  8
0_Pen_No__1
  6
Continuous
100
AcDbPolyline
 90
        2
 70
   128
 43
0.0
 10
346.8372727891118
 20
406.280958008751
 10
219.6947998600081
 20
332.8752167169359
  0
LWPOLYLINE
  5
1AC
330
1F
100
AcDbEntity
  8
0_Pen_No__1
  6
Continuous
100
AcDbPolyline
 90
        2
 70
   128
 43
0.0
 10
461.4278922391346
 20
-32.17680138364354
 10
461.4278922391346
 20
-19.80018711769804
  0
LWPOLYLINE
  5
1AD
330
1F
100
AcDbEntity
  8
0_Pen_No__1
  6
Continuous
100
AcDbPolyline
 90
        2
 70
   128
 43
0.0
 10
461.4278922391346
 20
-19.80018711769804
 10
513.8243203330011
 20
-55.05127911446661
  0
LWPOLYLINE
  5
1AE
330
1F
100
AcDbEntity
  8
0_Pen_No__1
  6
Continuous
100
AcDbPolyline
 90
        2
 70
   128
 43
0.0
 10
261.559028294514
 20
-147.5711442889555
 10
261.559028294514
 20
-135.1945300385109
  0
LWPOLYLINE
  5
1AF
330
1F
100
AcDbEntity
  8
0_Pen_No__1
  6
Continuous
100
AcDbPolyline
 90
        2
 70
   128
 43
0.0
 10
461.4278922391346
 20
-19.80018711769804
 10
261.559028294514
 20
-135.1945300385109
  0
LWPOLYLINE
  5
1B0
330
1F
100
AcDbEntity
  8
0_Pen_No__1
  6
Continuous
100
AcDbPolyline
 90
        2
 70
   128
 43
0.0
 10
414.5113512098209
 20
87.73940247266488
 10
492.3492859313403
 20
48.94725926799015
  0
LWPOLYLINE
  5
1B2
330
1F
100
AcDbEntity
  8
0_Pen_No__1
  6
AStair_dashed
100
AcDbPolyline
 90
        2
 70
   128
 43
0.0
 10
302.8767890064046
 20
-238.2529875612818
 10
574.4828594765941
 20
-81.44114860724582
  0
LWPOLYLINE
  5
1B3
330
1F
100
AcDbEntity
  8
0_Pen_No__1
  6
AStair_dashed
100
AcDbPolyline
 90
        2
 70
   128
 43
0.0
 10
492.3492859313403
 20
48.94725926799015
 10
574.4828594765941
 20
96.36710027106743
  0
LWPOLYLINE
  5
1B4
330
1F
100
AcDbEntity
  8
0_Pen_No__1
  6
Continuous
100
AcDbPolyline
 90
        2
 70
   128
 43
0.0
 10
414.4069996758941
 20
-5.029276390449255
 10
219.2458127151631
 20
-117.7056404988147
  0
LWPOLYLINE
  5
1B5
330
1F
100
AcDbEntity
  8
0_Pen_No__1
  6
AStair_dashed
100
AcDbPolyline
 90
        3
 70
   128
 43
0.0
 10
574.4828594765941
 20
96.36710027106743
 10
574.4828594765941
 20
29.25675786896231
 10
574.4828594765941
 20
-81.44114860724582
  0
LWPOLYLINE
  5
1B6
330
1F
100
AcDbEntity
  8
0_Pen_No__1
  6
Continuous
100
AcDbPolyline
 90
        2
 70
   128
 43
0.0
 10
302.8767890064046
 20
-238.2529875612818
 10
302.8767890142818
 20
-221.8726529602978
  0
LWPOLYLINE
  5
1B7
330
1F
100
AcDbEntity
  8
0_Pen_No__1
  6
Continuous
100
AcDbPolyline
 90
        2
 70
   128
 43
0.0
 10
262.1053387187389
 20
-142.4505994608575
 10
219.2458127151631
 20
-117.7056404988147
  0
CIRCLE
  5
1B8
330
1F
100
AcDbEntity
  8
0_Pen_No__1
  6
Continuous
100
AcDbCircle
 10
188.5009078093231
 20
320.667901031517
 30
0.0
 40
180.0
  0
WIPEOUT
  5
1BA
330
1F
100
AcDbEntity
  8
Key_ Sections_Pen_No__1
  6
Wipeout_Contour
 48
3589.016604551167
 92
      296
310
28010000060000000C0000000E000000120000000C00000016000000000000C20C00000014000000010000006C00000007000000040000004E5560CD89378740FD4EAA2E06B87D4000000000000000006659B6DBB6E58840FD4EAA2E06B87D4000000000000000006659B6DBB6E58840370373A5C4D77B4000000000000000
310
004E5560CD89378740370373A5C4D77B4000000000000000000C0000000E000000070000008400000006000000050000004E5560CD89378740FD4EAA2E06B87D4000000000000000006659B6DBB6E58840FD4EAA2E06B87D4000000000000000006659B6DBB6E58840370373A5C4D77B4000000000000000004E5560CD8937
310
8740370373A5C4D77B4000000000000000004E5560CD89378740FD4EAA2E06B87D400000000000000000
100
AcDbWipeout
 90
        0
 10
742.9422862554582
 20
445.4855093472174
 30
0.0
 11
53.77199999999993
 21
0.0
 31
0.0
 12
0.0
 22
30.01599999999996
 32
0.0
 13
1.0
 23
1.0
340
0
 70
    15
280
     1
281
    50
282
    50
283
     0
360
0
 71
     2
 91
        5
 14
-0.5
 24
-0.5
 14
0.5
 24
-0.5
 14
0.5
 24
0.5
 14
-0.5
 24
0.5
 14
-0.5
 24
-0.5
  0
MTEXT
  5
1BD
102
{ACAD_REACTORS
330
1BE
102
}
330
1F
100
AcDbEntity
  8
Key_ Sections_Pen_No__1
  6
Continuous
100
AcDbMText
 10
747.9422862554582
 20
461.2915093472174
 30
0.0
 40
12.5
 41
43.77199999999999
 71
     4
 72
     1
  1
{Studs}
  7
GENERATED_STYLE_1
 73
     1
 44
1.0
  0
LEADER
  5
1BE
330
1F
100
AcDbEntity
  8
Key_ Sections_Pen_No__1
  6
Continuous
100
AcDbLeader
  3
GENERATED_STYLE__1
 72
     1
 73
     0
 74
     0
 40
12.925
 41
43.1375
 76
     2
 10
521.2634037673134
 20
460.4935093472174
 30
0.0
 10
747.8522862554581
 20
461.2915093472174
 30
0.0
340
1BD
  0
WIPEOUT
  5
1C5
330
1F
100
AcDbEntity
  8
Key_ Sections_Pen_No__1
  6
Wipeout_Contour
 48
3679.854891836093
 92
      296
310
28010000060000000C0000000E000000120000000C00000016000000000000C20C00000014000000010000006C00000007000000040000004E5560CD89378740F07D3F613B8878400000000000000000F2C59DD760A98D40F07D3F613B8878400000000000000000F2C59DD760A98D409C9A99C57627744000000000000000
310
004E5560CD893787409C9A99C57627744000000000000000000C0000000E000000070000008400000006000000050000004E5560CD89378740F07D3F613B8878400000000000000000F2C59DD760A98D40F07D3F613B8878400000000000000000F2C59DD760A98D409C9A99C57627744000000000000000004E5560CD8937
310
87409C9A99C57627744000000000000000004E5560CD89378740F07D3F613B8878400000000000000000
100
AcDbWipeout
 90
        0
 10
742.9422862554582
 20
322.4664970398096
 30
0.0
 11
206.23
 21
0.0
 31
0.0
 12
0.0
 22
70.048
 32
0.0
 13
1.0
 23
1.0
340
0
 70
    15
280
     1
281
    50
282
    50
283
     0
360
0
 71
     2
 91
        5
 14
-0.5
 24
-0.5
 14
0.5
 24
-0.5
 14
0.5
 24
0.5
 14
-0.5
 24
0.5
 14
-0.5
 24
-0.5
  0
MTEXT
  5
1C6
102
{ACAD_REACTORS
330
1C7
102
}
330
1F
100
AcDbEntity
  8
Key_ Sections_Pen_No__1
  6
Continuous
100
AcDbMText
 10
747.9422862554582
 20
356.591611233518
 30
0.0
 40
12.5
 41
196.23
 71
     4
 72
     1
  1
{Breather type building \Punderlay dressed into \Popening with flexible tape }
  7
GENERATED_STYLE_1
 73
     1
 44
0.9544562503071141
  0
LEADER
  5
1C7
330
1F
100
AcDbEntity
  8
Key_ Sections_Pen_No__1
  6
Continuous
100
AcDbLeader
  3
GENERATED_STYLE__1
 72
     1
 73
     0
 74
     0
 40
56.14401042946309
 41
194.6
 76
     3
 10
662.8901269647835
 20
345.3408452992787
 30
0.0
 10
708.6239989784992
 20
354.91587748609
 30
0.0
 10
747.8522862554581
 20
356.591611233518
 30
0.0
340
1C6
  0
WIPEOUT
  5
1C8
330
1F
100
AcDbEntity
  8
Key_ Sections_Pen_No__1
  6
Wipeout_Contour
 48
3487.66927009669
 92
      296
310
28010000060000000C0000000E000000120000000C00000016000000000000C20C00000014000000010000006C00000007000000040000004E5560CD89378740F832DFDEBE526D400000000000000000B4BBC633F0C38D40F832DFDEBE526D400000000000000000B4BBC633F0C38D40506C93A73591644000000000000000
310
004E5560CD89378740506C93A73591644000000000000000000C0000000E000000070000008400000006000000050000004E5560CD89378740F832DFDEBE526D400000000000000000B4BBC633F0C38D40F832DFDEBE526D400000000000000000B4BBC633F0C38D40506C93A73591644000000000000000004E5560CD8937
310
8740506C93A73591644000000000000000004E5560CD89378740F832DFDEBE526D400000000000000000
100
AcDbWipeout
 90
        0
 10
742.9422862554582
 20
164.5377996329648
 30
0.0
 11
209.55
 21
0.0
 31
0.0
 12
0.0
 22
70.048
 32
0.0
 13
1.0
 23
1.0
340
0
 70
    15
280
     1
281
    50
282
    50
283
     0
360
0
 71
     2
 91
        5
 14
-0.5
 24
-0.5
 14
0.5
 24
-0.5
 14
0.5
 24
0.5
 14
-0.5
 24
0.5
 14
-0.5
 24
-0.5
  0
MTEXT
  5
1C9
102
{ACAD_REACTORS
330
1CA
102
}
330
1F
100
AcDbEntity
  8
Key_ Sections_Pen_No__1
  6
Continuous
100
AcDbMText
 10
747.9422862554582
 20
200.3643423981018
 30
0.0
 40
12.5
 41
199.55
 71
     4
 72
     1
  1
{Palliside Traditional Bevel \PBack weatherboard fixed \Pwith Palliside nails}
  7
GENERATED_STYLE_1
 73
     1
 44
0.9558154610760365
  0
LEADER
  5
1CA
330
1F
100
AcDbEntity
  8
Key_ Sections_Pen_No__1
  6
Continuous
100
AcDbLeader
  3
GENERATED_STYLE__1
 72
     1
 73
     0
 74
     0
 40
52.72875499698019
 41
197.175
 76
     3
 10
653.9399498278264
 20
238.5641359698267
 30
0.0
 10
696.9697324596222
 20
208.7523291158984
 30
0.0
 10
747.8522862554581
 20
200.3643423981018
 30
0.0
340
1C9
  0
WIPEOUT
  5
1CB
330
1F
100
AcDbEntity
  8
Key_ Sections_Pen_No__1
  6
Wipeout_Contour
 48
3335.148713318158
 92
      296
310
28010000060000000C0000000E000000120000000C00000016000000000000C20C00000014000000010000006C00000007000000040000005D8E60CD8937874083B4804B6A435F4000000000000000005E8E60CD897D8C4083B4804B6A435F4000000000000000005E8E60CD897D8C404E56C6015EC1524000000000000000
310
005D8E60CD893787404E56C6015EC1524000000000000000000C0000000E000000070000008400000006000000050000005D8E60CD8937874083B4804B6A435F4000000000000000005E8E60CD897D8C4083B4804B6A435F4000000000000000005E8E60CD897D8C404E56C6015EC1524000000000000000005D8E60CD8937
310
87404E56C6015EC1524000000000000000005D8E60CD8937874083B4804B6A435F400000000000000000
100
AcDbWipeout
 90
        0
 10
742.9422862571188
 20
75.02136272782192
 30
0.0
 11
168.7500000000001
 21
0.0
 31
0.0
 12
0.0
 22
50.032
 32
0.0
 13
1.0
 23
1.0
340
0
 70
    15
280
     1
281
    50
282
    50
283
     0
360
0
 71
     2
 91
        5
 14
-0.5000000000000003
 24
-0.5000000000000001
 14
0.4999999999999997
 24
-0.5000000000000001
 14
0.4999999999999997
 24
0.4999999999999998
 14
-0.5000000000000003
 24
0.4999999999999998
 14
-0.5000000000000003
 24
-0.5000000000000001
  0
MTEXT
  5
1CC
102
{ACAD_REACTORS
330
1CD
102
}
330
1F
100
AcDbEntity
  8
Key_ Sections_Pen_No__1
  6
Continuous
100
AcDbMText
 10
747.9422862571188
 20
99.13834839610469
 30
0.0
 40
12.5
 41
158.75
 71
     4
 72
     1
  1
{Palliside 2 part jamb \Pflashing base}
  7
GENERATED_STYLE_1
 73
     1
 44
0.9459980913343251
  0
LEADER
  5
1CD
330
1F
100
AcDbEntity
  8
Key_ Sections_Pen_No__1
  6
Continuous
100
AcDbLeader
  3
GENERATED_STYLE__1
 72
     1
 73
     0
 74
     0
 40
36.13059347403182
 41
155.0249999999999
 76
     3
 10
545.9597146061499
 20
139.4212241031487
 30
0.0
 10
693.9032309210291
 20
104.8436296732444
 30
0.0
 10
747.8522862571187
 20
99.13834839610469
 30
0.0
340
1CC
  0
WIPEOUT
  5
1CE
330
1F
100
AcDbEntity
  8
Key_ Sections_Pen_No__1
  6
Wipeout_Contour
 48
3219.135380217587
 92
      296
310
28010000060000000C0000000E000000120000000C00000016000000000000C20C00000014000000010000006C00000007000000040000004E5560CD893787407C8AC8CE6D1048400000000000000000F1C59DD760098B407C8AC8CE6D1048400000000000000000F1C59DD760098B40D03D86955875FEBF00000000000000
310
004E5560CD89378740D03D86955875FEBF00000000000000000C0000000E000000070000008400000006000000050000004E5560CD893787407C8AC8CE6D1048400000000000000000F1C59DD760098B407C8AC8CE6D1048400000000000000000F1C59DD760098B40D03D86955875FEBF00000000000000004E5560CD8937
310
8740D03D86955875FEBF00000000000000004E5560CD893787407C8AC8CE6D1048400000000000000000
100
AcDbWipeout
 90
        0
 10
742.9422862554582
 20
-1.90364893348656
 30
0.0
 11
122.2299999999999
 21
0.0
 31
0.0
 12
0.0
 22
50.03199999999999
 32
0.0
 13
1.0
 23
1.0
340
0
 70
    15
280
     1
281
    50
282
    50
283
     0
360
0
 71
     2
 91
        5
 14
-0.5000000000000004
 24
-0.5
 14
0.4999999999999996
 24
-0.5
 14
0.4999999999999996
 24
0.5000000000000001
 14
-0.5000000000000004
 24
0.5000000000000001
 14
-0.5000000000000004
 24
-0.5
  0
MTEXT
  5
1CF
102
{ACAD_REACTORS
330
1D0
102
}
330
1F
100
AcDbEntity
  8
Key_ Sections_Pen_No__1
  6
Continuous
100
AcDbMText
 10
747.9422862554582
 20
23.91476530622476
 30
0.0
 40
12.5
 41
112.23
 71
     4
 72
     1
  1
{Concrete floor \Pconstruction}
  7
GENERATED_STYLE_1
 73
     1
 44
0.9509258056594952
  0
LEADER
  5
1D0
330
1F
100
AcDbEntity
  8
Key_ Sections_Pen_No__1
  6
Continuous
100
AcDbLeader
  3
GENERATED_STYLE__1
 72
     1
 73
     0
 74
     0
 40
32.71302601827546
 41
108.9375
 76
     2
 10
355.0016479971454
 20
23.11235106651344
 30
0.0
 10
747.8522862554581
 20
23.91476530622476
 30
0.0
340
1CF
  0
WIPEOUT
  5
1D1
330
1F
100
AcDbEntity
  8
Key_ Sections_Pen_No__1
  6
Wipeout_Contour
 48
3558.319223421581
 92
      296
310
28010000060000000C0000000E000000120000000C00000016000000000000C20C00000014000000010000006C00000007000000040000004D5560CD8937874017F243C30AC777C000000000000000000574E5B8DB8E8A4017F243C30AC777C000000000000000000574E5B8DB8E8A40DD3D7B4C4CA779C000000000000000
310
004D5560CD89378740DD3D7B4C4CA779C000000000000000000C0000000E000000070000008400000006000000050000004D5560CD8937874017F243C30AC777C000000000000000000574E5B8DB8E8A4017F243C30AC777C000000000000000000574E5B8DB8E8A40DD3D7B4C4CA779C000000000000000004D5560CD8937
310
8740DD3D7B4C4CA779C000000000000000004D5560CD8937874017F243C30AC777C00000000000000000
100
AcDbWipeout
 90
        0
 10
742.942286255458
 20
-410.456127625859
 30
0.0
 11
106.915
 21
0.0
 31
0.0
 12
0.0
 22
30.01599999999996
 32
0.0
 13
1.0
 23
1.0
340
0
 70
    15
280
     1
281
    50
282
    50
283
     0
360
0
 71
     2
 91
        5
 14
-0.5
 24
-0.5
 14
0.5
 24
-0.5
 14
0.5
 24
0.5
 14
-0.5
 24
0.5
 14
-0.5
 24
-0.5
  0
MTEXT
  5
1D2
102
{ACAD_REACTORS
330
1D3
102
}
330
1F
100
AcDbEntity
  8
Key_ Sections_Pen_No__1
  6
Continuous
100
AcDbMText
 10
747.942286255458
 20
-394.650127625859
 30
0.0
 40
12.5
 41
96.915
 71
     4
 72
     1
  1
{Ground level}
  7
GENERATED_STYLE_1
 73
     1
 44
1.0
  0
LEADER
  5
1D3
330
1F
100
AcDbEntity
  8
Key_ Sections_Pen_No__1
  6
Continuous
100
AcDbLeader
  3
GENERATED_STYLE__1
 72
     1
 73
     0
 74
     0
 40
12.925
 41
96.76250000000003
 76
     2
 10
456.5256306879489
 20
-395.448127625859
 30
0.0
 10
747.852286255458
 20
-394.650127625859
 30
0.0
340
1D2
  0
WIPEOUT
  5
1D4
330
1F
100
AcDbEntity
  8
Key_ Sections_Pen_No__1
  6
Wipeout_Contour
 48
3901.085743372657
 92
      296
310
28010000060000000C0000000E000000120000000C00000016000000000000C20C00000014000000010000006C00000007000000040000004D5560CD89378740CBE21ABABA4A80C00000000000000000E6EEF96623A18B40CBE21ABABA4A80C00000000000000000E6EEF96623A18B40AF88B67EDB3A81C000000000000000
310
004D5560CD89378740AF88B67EDB3A81C000000000000000000C0000000E000000070000008400000006000000050000004D5560CD89378740CBE21ABABA4A80C00000000000000000E6EEF96623A18B40CBE21ABABA4A80C00000000000000000E6EEF96623A18B40AF88B67EDB3A81C000000000000000004D5560CD8937
310
8740AF88B67EDB3A81C000000000000000004D5560CD89378740CBE21ABABA4A80C00000000000000000
100
AcDbWipeout
 90
        0
 10
742.942286255458
 20
-551.3571752796614
 30
0.0
 11
141.1999999999999
 21
0.0
 31
0.0
 12
0.0
 22
30.01600000000008
 32
0.0
 13
1.0
 23
1.0
340
0
 70
    15
280
     1
281
    50
282
    50
283
     0
360
0
 71
     2
 91
        5
 14
-0.5000000000000004
 24
-0.5
 14
0.4999999999999996
 24
-0.5
 14
0.4999999999999996
 24
0.5
 14
-0.5000000000000004
 24
0.5
 14
-0.5000000000000004
 24
-0.5
  0
MTEXT
  5
1D5
102
{ACAD_REACTORS
330
1D6
102
}
330
1F
100
AcDbEntity
  8
Key_ Sections_Pen_No__1
  6
Continuous
100
AcDbMText
 10
747.942286255458
 20
-537.2483181368042
 30
0.0
 40
12.5
 41
131.2
 71
     4
 72
     1
  1
{Concrete Footing}
  7
GENERATED_STYLE_1
 73
     1
 44
1.0
  0
LEADER
  5
1D6
330
1F
100
AcDbEntity
  8
Key_ Sections_Pen_No__1
  6
Continuous
100
AcDbLeader
  3
GENERATED_STYLE__1
 72
     1
 73
     0
 74
     0
 40
37.20833333333334
 41
69.18750000000001
 76
     3
 10
288.08377213016
 20
-496.3491752796614
 30
0.0
 10
358.8452610611123
 20
-519.5255891892953
 30
0.0
 10
747.852286255458
 20
-537.2483181368042
 30
0.0
340
1D5
  0
WIPEOUT
  5
1D7
330
1F
100
AcDbEntity
  8
Key_ Sections_Pen_No__1
  6
Wipeout_Contour
 48
3430.00673316163
 92
      296
310
28010000060000000C0000000E000000120000000C00000016000000000000C20C00000014000000010000006C00000007000000040000004D5560CD893787408A60CFFF9A406DC00000000000000000437EBC5C4CD58B408A60CFFF9A406DC00000000000000000437EBC5C4CD58B40D2475692D0C071C000000000000000
310
004D5560CD89378740D2475692D0C071C000000000000000000C0000000E000000070000008400000006000000050000004D5560CD893787408A60CFFF9A406DC00000000000000000437EBC5C4CD58B408A60CFFF9A406DC00000000000000000437EBC5C4CD58B40D2475692D0C071C000000000000000004D5560CD8937
310
8740D2475692D0C071C000000000000000004D5560CD893787408A60CFFF9A406DC00000000000000000
100
AcDbWipeout
 90
        0
 10
742.942286255458
 20
-284.0509208078703
 30
0.0
 11
147.72
 21
0.0
 31
0.0
 12
0.0
 22
50.03199999999998
 32
0.0
 13
1.0
 23
1.0
340
0
 70
    15
280
     1
281
    50
282
    50
283
     0
360
0
 71
     2
 91
        5
 14
-0.5
 24
-0.5000000000000006
 14
0.5
 24
-0.5000000000000006
 14
0.5
 24
0.4999999999999994
 14
-0.5
 24
0.4999999999999994
 14
-0.5
 24
-0.5000000000000006
  0
MTEXT
  5
1D8
102
{ACAD_REACTORS
330
1D9
102
}
330
1F
100
AcDbEntity
  8
Key_ Sections_Pen_No__1
  6
Continuous
100
AcDbMText
 10
747.942286255458
 20
-259.835363711016
 30
0.0
 40
12.49999999999999
 41
137.72
 71
     4
 72
     1
  1
{Modified Palliside \Pstarter strip}
  7
GENERATED_STYLE_1
 73
     1
 44
0.9483672753226405
  0
LEADER
  5
1D9
330
1F
100
AcDbEntity
  8
Key_ Sections_Pen_No__1
  6
Continuous
100
AcDbLeader
  3
GENERATED_STYLE__1
 72
     1
 73
     0
 74
     0
 40
35.92167961522772
 41
133.7249999999999
 76
     3
 10
311.5344165826934
 20
-209.0349208078702
 30
0.0
 10
400.4220976082158
 20
-239.3183676386941
 30
0.0
 10
747.852286255458
 20
-259.835363711016
 30
0.0
340
1D8
  0
WIPEOUT
  5
1DA
330
1F
100
AcDbEntity
  8
Key_ Sections_Pen_No__1
  6
Wipeout_Contour
 48
3422.622511187055
 92
      296
310
28010000060000000C0000000E000000120000000C00000016000000000000C20C00000014000000010000006C00000007000000040000004D5560CD893787403616740B4A6B5AC0000000000000000080889300BD7A8D403616740B4A6B5AC0000000000000000080889300BD7A8D40C3D1053D2EF765C000000000000000
310
004D5560CD89378740C3D1053D2EF765C000000000000000000C0000000E000000070000008400000006000000050000004D5560CD893787403616740B4A6B5AC0000000000000000080889300BD7A8D403616740B4A6B5AC0000000000000000080889300BD7A8D40C3D1053D2EF765C000000000000000004D5560CD8937
310
8740C3D1053D2EF765C000000000000000004D5560CD893787403616740B4A6B5AC00000000000000000
100
AcDbWipeout
 90
        0
 10
742.942286255458
 20
-175.7243943322811
 30
0.0
 11
200.4
 21
0.0
 31
0.0
 12
0.0
 22
70.048
 32
0.0
 13
1.0
 23
1.0
340
0
 70
    15
280
     1
281
    50
282
    50
283
     0
360
0
 71
     2
 91
        5
 14
-0.4999999999999997
 24
-0.5
 14
0.5000000000000003
 24
-0.5
 14
0.5000000000000003
 24
0.5
 14
-0.4999999999999997
 24
0.5
 14
-0.4999999999999997
 24
-0.5
  0
MTEXT
  5
1DB
102
{ACAD_REACTORS
330
1DC
102
}
330
1F
100
AcDbEntity
  8
Key_ Sections_Pen_No__1
  6
Continuous
100
AcDbMText
 10
747.942286255458
 20
-141.5992801385727
 30
0.0
 40
12.49999999999999
 41
190.4
 71
     4
 72
     1
  1
{Allow 5mm gap between \Paluminium joinery \Pand cladding.}
  7
GENERATED_STYLE_1
 73
     1
 44
0.959316686529347
  0
LEADER
  5
1DC
330
1F
100
AcDbEntity
  8
Key_ Sections_Pen_No__1
  6
Continuous
100
AcDbLeader
  3
GENERATED_STYLE__1
 72
     1
 73
     0
 74
     0
 40
56.13402860538943
 41
188.8874999999999
 76
     3
 10
360.0620562535723
 20
-90.70039433228102
 30
0.0
 10
449.148526154817
 20
-121.6794441923114
 30
0.0
 10
747.852286255458
 20
-141.5992801385727
 30
0.0
340
1DB
  0
WIPEOUT
  5
1DD
330
1F
100
AcDbEntity
  8
Key_ Sections_Pen_No__1
  6
Wipeout_Contour
 48
505.8936923974302
 92
      296
310
28010000060000000C0000000E000000120000000C00000016000000000000C20C00000014000000010000006C000000070000000400000058B71864F2BB2A40A047A047577805C00000000000000000C84360ABAA056B40A047A047577805C00000000000000000C84360ABAA056B40E4C0EE079E5B4AC000000000000000
310
0058B71864F2BB2A40E4C0EE079E5B4AC000000000000000000C0000000E0000000700000084000000060000000500000058B71864F2BB2A40A047A047577805C00000000000000000C84360ABAA056B40A047A047577805C00000000000000000C84360ABAA056B40E4C0EE079E5B4AC0000000000000000058B71864F2BB
310
2A40E4C0EE079E5B4AC0000000000000000058B71864F2BB2A40A047A047577805C00000000000000000
100
AcDbWipeout
 90
        0
 10
13.36708367158618
 20
-52.71576022298703
 30
0.0
 11
202.81
 21
0.0
 31
0.0
 12
0.0
 22
50.032
 32
0.0
 13
1.0
 23
1.0
340
0
 70
    15
280
     1
281
    50
282
    50
283
     0
360
0
 71
     2
 91
        5
 14
-0.5000000000000001
 24
-0.5
 14
0.5
 24
-0.5
 14
0.5
 24
0.5
 14
-0.5000000000000001
 24
0.5
 14
-0.5000000000000001
 24
-0.5
  0
MTEXT
  5
1DE
102
{ACAD_REACTORS
330
1DF
102
}
330
1F
100
AcDbEntity
  8
Key_ Sections_Pen_No__1
  6
Continuous
100
AcDbMText
 10
211.1770836715862
 20
-28.59877455470428
 30
0.0
 40
12.5
 41
192.81
 71
     6
 72
     1
  1
{Apply flashing tape to sill \Pstopend / jamb junction}
  7
GENERATED_STYLE_1
 73
     1
 44
0.9393387383253238
  0
LEADER
  5
1DF
330
1F
100
AcDbEntity
  8
Key_ Sections_Pen_No__1
  6
Continuous
100
AcDbLeader
  3
GENERATED_STYLE__1
 72
     1
 73
     0
 40
36.13166653033839
 41
190.8125
 76
     3
 10
269.8356922159091
 20
-88.49755987789021
 30
0.0
 10
234.9692279585853
 20
-34.18383889042287
 30
0.0
 10
211.2670836715862
 20
-28.59877455470428
 30
0.0
340
1DE
  0
ENDSEC
  0
SECTION
  2
OBJECTS
  0
DICTIONARY
  5
C
330
0
100
AcDbDictionary
281
     1
  3
ACAD_GROUP
350
D
  3
ACAD_LAYOUT
350
1A
  3
ACAD_MATERIAL
350
3B
  3
ACAD_MLEADERSTYLE
350
230
  3
ACAD_MLINESTYLE
350
17
  3
ACAD_PLOTSETTINGS
350
19
  3
ACAD_PLOTSTYLENAME
350
E
  3
ACAD_SCALELIST
350
1E3
  3
ACAD_TABLESTYLE
350
22F
  3
ACAD_VISUALSTYLE
350
2A
  3
AcDbVariableDictionary
350
207
  3
WATERMARKS
350
205
  0
DICTIONARY
  5
D
102
{ACAD_REACTORS
330
C
102
}
330
C
100
AcDbDictionary
281
     1
  0
DICTIONARY
  5
1A
102
{ACAD_REACTORS
330
C
102
}
330
C
100
AcDbDictionary
281
     1
  3
Layout1
350
1E
  3
Layout2
350
26
  3
Model
350
22
  0
DICTIONARY
  5
3B
102
{ACAD_REACTORS
330
C
102
}
330
C
100
AcDbDictionary
281
     1
  3
ByBlock
350
3D
  3
ByLayer
350
3C
  3
Global
350
3E
  0
DICTIONARY
  5
230
102
{ACAD_REACTORS
330
C
102
}
330
C
100
AcDbDictionary
281
     1
  0
DICTIONARY
  5
17
102
{ACAD_REACTORS
330
C
102
}
330
C
100
AcDbDictionary
281
     1
  3
Standard
350
18
  0
DICTIONARY
  5
19
102
{ACAD_REACTORS
330
C
102
}
330
C
100
AcDbDictionary
281
     1
  0
ACDBDICTIONARYWDFLT
  5
E
102
{ACAD_REACTORS
330
C
102
}
330
C
100
AcDbDictionary
281
     1
  3
Normal
350
F
100
AcDbDictionaryWithDefault
340
F
  0
DICTIONARY
  5
1E3
102
{ACAD_REACTORS
330
C
102
}
330
C
100
AcDbDictionary
281
     1
  3
A0
350
1E4
  3
A1
350
1E5
  3
A2
350
1E6
  3
A3
350
1E7
  3
A4
350
1E8
  3
A5
350
1E9
  3
A6
350
1EA
  3
A7
350
1EB
  3
A8
350
1EC
  3
A9
350
1ED
  3
B0
350
1EE
  3
B1
350
1EF
  3
B2
350
1F0
  3
B3
350
1F1
  3
B4
350
1F2
  3
B5
350
1F3
  3
B6
350
1F4
  3
B7
350
1F5
  3
B8
350
1F6
  3
B9
350
1F7
  3
C0
350
1F8
  3
C1
350
1F9
  3
C2
350
1FA
  3
C3
350
1FB
  3
C4
350
1FC
  3
C5
350
1FD
  3
C6
350
1FE
  3
C7
350
1FF
  3
C8
350
200
  3
C9
350
201
  3
D0
350
202
  3
D1
350
203
  3
D2
350
204
  0
DICTIONARY
  5
22F
102
{ACAD_REACTORS
330
C
102
}
330
C
100
AcDbDictionary
281
     1
  0
DICTIONARY
  5
2A
102
{ACAD_REACTORS
330
C
102
}
330
C
100
AcDbDictionary
281
     1
  3
2dWireframe
350
2F
  3
3D Hidden
350
31
  3
3dWireframe
350
30
  3
Basic
350
32
  3
Brighten
350
36
  3
ColorChange
350
3A
  3
Conceptual
350
34
  3
Dim
350
35
  3
Facepattern
350
39
  3
Flat
350
2B
  3
FlatWithEdges
350
2C
  3
Gouraud
350
2D
  3
GouraudWithEdges
350
2E
  3
Linepattern
350
38
  3
Realistic
350
33
  3
Thicken
350
37
  0
DICTIONARY
  5
207
102
{ACAD_REACTORS
330
C
102
}
330
C
100
AcDbDictionary
281
     1
  3
CANNOSCALE
350
208
  3
XCLIPFRAME
350
231
  0
DICTIONARY
  5
205
102
{ACAD_REACTORS
330
C
102
}
330
C
100
AcDbDictionary
281
     1
  3
AC_WATERMARK
350
206
  0
LAYOUT
  5
1E
102
{ACAD_REACTORS
330
1A
102
}
330
1A
100
AcDbPlotSettings
  1

  2
none_device
  4

  6

 40
0.0
 41
0.0
 42
0.0
 43
0.0
 44
0.0
 45
0.0
 46
0.0
 47
0.0
 48
0.0
 49
0.0
140
0.0
141
0.0
142
1.0
143
1.0
 70
   688
 72
     0
 73
     0
 74
     5
  7

 75
    16
 76
     0
 77
     2
 78
   300
147
1.0
148
0.0
149
0.0
100
AcDbLayout
  1
Layout1
 70
     1
 71
     1
 10
0.0
 20
0.0
 11
12.0
 21
9.0
 12
0.0
 22
0.0
 32
0.0
 14
1.000000000000000E+20
 24
1.000000000000000E+20
 34
1.000000000000000E+20
 15
-1.000000000000000E+20
 25
-1.000000000000000E+20
 35
-1.000000000000000E+20
146
0.0
 13
0.0
 23
0.0
 33
0.0
 16
1.0
 26
0.0
 36
0.0
 17
0.0
 27
1.0
 37
0.0
 76
     0
330
1B
  0
LAYOUT
  5
26
102
{ACAD_REACTORS
330
1A
102
}
330
1A
100
AcDbPlotSettings
  1

  2
none_device
  4

  6

 40
0.0
 41
0.0
 42
0.0
 43
0.0
 44
0.0
 45
0.0
 46
0.0
 47
0.0
 48
0.0
 49
0.0
140
0.0
141
0.0
142
1.0
143
1.0
 70
   688
 72
     0
 73
     0
 74
     5
  7

 75
    16
 76
     0
 77
     2
 78
   300
147
1.0
148
0.0
149
0.0
100
AcDbLayout
  1
Layout2
 70
     1
 71
     2
 10
0.0
 20
0.0
 11
0.0
 21
0.0
 12
0.0
 22
0.0
 32
0.0
 14
0.0
 24
0.0
 34
0.0
 15
0.0
 25
0.0
 35
0.0
146
0.0
 13
0.0
 23
0.0
 33
0.0
 16
1.0
 26
0.0
 36
0.0
 17
0.0
 27
1.0
 37
0.0
 76
     0
330
23
  0
LAYOUT
  5
22
102
{ACAD_REACTORS
330
1A
102
}
330
1A
100
AcDbPlotSettings
  1

  2
none_device
  4

  6

 40
0.0
 41
0.0
 42
0.0
 43
0.0
 44
0.0
 45
0.0
 46
0.0
 47
0.0
 48
0.0
 49
0.0
140
0.0
141
0.0
142
1.0
143
1.0
 70
  1712
 72
     0
 73
     0
 74
     0
  7

 75
     0
 76
     0
 77
     2
 78
   300
147
1.0
148
0.0
149
0.0
100
AcDbLayout
  1
Model
 70
     1
 71
     0
 10
0.0
 20
0.0
 11
12.0
 21
9.0
 12
0.0
 22
0.0
 32
0.0
 14
1.000000000000000E+20
 24
1.000000000000000E+20
 34
1.000000000000000E+20
 15
-1.000000000000000E+20
 25
-1.000000000000000E+20
 35
-1.000000000000000E+20
146
0.0
 13
0.0
 23
0.0
 33
0.0
 16
1.0
 26
0.0
 36
0.0
 17
0.0
 27
1.0
 37
0.0
 76
     0
330
1F
331
29
  0
MATERIAL
  5
3D
102
{ACAD_REACTORS
330
3B
102
}
102
{ACAD_XDICTIONARY
360
22B
102
}
330
3B
100
AcDbMaterial
  1
ByBlock
  0
MATERIAL
  5
3C
102
{ACAD_REACTORS
330
3B
102
}
102
{ACAD_XDICTIONARY
360
229
102
}
330
3B
100
AcDbMaterial
  1
ByLayer
  0
MATERIAL
  5
3E
102
{ACAD_REACTORS
330
3B
102
}
102
{ACAD_XDICTIONARY
360
22D
102
}
330
3B
100
AcDbMaterial
  1
Global
  0
MLINESTYLE
  5
18
102
{ACAD_REACTORS
330
17
102
}
330
17
100
AcDbMlineStyle
  2
Standard
 70
     0
  3

 62
   256
 51
90.0
 52
90.0
 71
     2
 49
0.5
 62
   256
  6
BYLAYER
 49
-0.5
 62
   256
  6
BYLAYER
  0
ACDBPLACEHOLDER
  5
F
102
{ACAD_REACTORS
330
E
102
}
330
E
  0
SCALE
  5
1E4
102
{ACAD_REACTORS
330
1E3
102
}
330
1E3
100
AcDbScale
 70
     0
300
1:1
140
1.0
141
1.0
290
     1
  0
SCALE
  5
1E5
102
{ACAD_REACTORS
330
1E3
102
}
330
1E3
100
AcDbScale
 70
     0
300
1:2
140
1.0
141
2.0
290
     0
  0
SCALE
  5
1E6
102
{ACAD_REACTORS
330
1E3
102
}
330
1E3
100
AcDbScale
 70
     0
300
1:4
140
1.0
141
4.0
290
     0
  0
SCALE
  5
1E7
102
{ACAD_REACTORS
330
1E3
102
}
330
1E3
100
AcDbScale
 70
     0
300
1:5
140
1.0
141
5.0
290
     0
  0
SCALE
  5
1E8
102
{ACAD_REACTORS
330
1E3
102
}
330
1E3
100
AcDbScale
 70
     0
300
1:8
140
1.0
141
8.0
290
     0
  0
SCALE
  5
1E9
102
{ACAD_REACTORS
330
1E3
102
}
330
1E3
100
AcDbScale
 70
     0
300
1:10
140
1.0
141
10.0
290
     0
  0
SCALE
  5
1EA
102
{ACAD_REACTORS
330
1E3
102
}
330
1E3
100
AcDbScale
 70
     0
300
1:16
140
1.0
141
16.0
290
     0
  0
SCALE
  5
1EB
102
{ACAD_REACTORS
330
1E3
102
}
330
1E3
100
AcDbScale
 70
     0
300
1:20
140
1.0
141
20.0
290
     0
  0
SCALE
  5
1EC
102
{ACAD_REACTORS
330
1E3
102
}
330
1E3
100
AcDbScale
 70
     0
300
1:30
140
1.0
141
30.0
290
     0
  0
SCALE
  5
1ED
102
{ACAD_REACTORS
330
1E3
102
}
330
1E3
100
AcDbScale
 70
     0
300
1:40
140
1.0
141
40.0
290
     0
  0
SCALE
  5
1EE
102
{ACAD_REACTORS
330
1E3
102
}
330
1E3
100
AcDbScale
 70
     0
300
1:50
140
1.0
141
50.0
290
     0
  0
SCALE
  5
1EF
102
{ACAD_REACTORS
330
1E3
102
}
330
1E3
100
AcDbScale
 70
     0
300
1:100
140
1.0
141
100.0
290
     0
  0
SCALE
  5
1F0
102
{ACAD_REACTORS
330
1E3
102
}
330
1E3
100
AcDbScale
 70
     0
300
2:1
140
2.0
141
1.0
290
     0
  0
SCALE
  5
1F1
102
{ACAD_REACTORS
330
1E3
102
}
330
1E3
100
AcDbScale
 70
     0
300
4:1
140
4.0
141
1.0
290
     0
  0
SCALE
  5
1F2
102
{ACAD_REACTORS
330
1E3
102
}
330
1E3
100
AcDbScale
 70
     0
300
8:1
140
8.0
141
1.0
290
     0
  0
SCALE
  5
1F3
102
{ACAD_REACTORS
330
1E3
102
}
330
1E3
100
AcDbScale
 70
     0
300
10:1
140
10.0
141
1.0
290
     0
  0
SCALE
  5
1F4
102
{ACAD_REACTORS
330
1E3
102
}
330
1E3
100
AcDbScale
 70
     0
300
100:1
140
100.0
141
1.0
290
     0
  0
SCALE
  5
1F5
102
{ACAD_REACTORS
330
1E3
102
}
330
1E3
100
AcDbScale
 70
     0
300
1/128" = 1'-0"
140
0.0078125
141
12.0
290
     0
  0
SCALE
  5
1F6
102
{ACAD_REACTORS
330
1E3
102
}
330
1E3
100
AcDbScale
 70
     0
300
1/64" = 1'-0"
140
0.015625
141
12.0
290
     0
  0
SCALE
  5
1F7
102
{ACAD_REACTORS
330
1E3
102
}
330
1E3
100
AcDbScale
 70
     0
300
1/32" = 1'-0"
140
0.03125
141
12.0
290
     0
  0
SCALE
  5
1F8
102
{ACAD_REACTORS
330
1E3
102
}
330
1E3
100
AcDbScale
 70
     0
300
1/16" = 1'-0"
140
0.0625
141
12.0
290
     0
  0
SCALE
  5
1F9
102
{ACAD_REACTORS
330
1E3
102
}
330
1E3
100
AcDbScale
 70
     0
300
3/32" = 1'-0"
140
0.09375
141
12.0
290
     0
  0
SCALE
  5
1FA
102
{ACAD_REACTORS
330
1E3
102
}
330
1E3
100
AcDbScale
 70
     0
300
1/8" = 1'-0"
140
0.125
141
12.0
290
     0
  0
SCALE
  5
1FB
102
{ACAD_REACTORS
330
1E3
102
}
330
1E3
100
AcDbScale
 70
     0
300
3/16" = 1'-0"
140
0.1875
141
12.0
290
     0
  0
SCALE
  5
1FC
102
{ACAD_REACTORS
330
1E3
102
}
330
1E3
100
AcDbScale
 70
     0
300
1/4" = 1'-0"
140
0.25
141
12.0
290
     0
  0
SCALE
  5
1FD
102
{ACAD_REACTORS
330
1E3
102
}
330
1E3
100
AcDbScale
 70
     0
300
3/8" = 1'-0"
140
0.375
141
12.0
290
     0
  0
SCALE
  5
1FE
102
{ACAD_REACTORS
330
1E3
102
}
330
1E3
100
AcDbScale
 70
     0
300
1/2" = 1'-0"
140
0.5
141
12.0
290
     0
  0
SCALE
  5
1FF
102
{ACAD_REACTORS
330
1E3
102
}
330
1E3
100
AcDbScale
 70
     0
300
3/4" = 1'-0"
140
0.75
141
12.0
290
     0
  0
SCALE
  5
200
102
{ACAD_REACTORS
330
1E3
102
}
330
1E3
100
AcDbScale
 70
     0
300
1" = 1'-0"
140
1.0
141
12.0
290
     0
  0
SCALE
  5
201
102
{ACAD_REACTORS
330
1E3
102
}
330
1E3
100
AcDbScale
 70
     0
300
1-1/2" = 1'-0"
140
1.5
141
12.0
290
     0
  0
SCALE
  5
202
102
{ACAD_REACTORS
330
1E3
102
}
330
1E3
100
AcDbScale
 70
     0
300
3" = 1'-0"
140
3.0
141
12.0
290
     0
  0
SCALE
  5
203
102
{ACAD_REACTORS
330
1E3
102
}
330
1E3
100
AcDbScale
 70
     0
300
6" = 1'-0"
140
6.0
141
12.0
290
     0
  0
SCALE
  5
204
102
{ACAD_REACTORS
330
1E3
102
}
330
1E3
100
AcDbScale
 70
     0
300
1'-0" = 1'-0"
140
12.0
141
12.0
290
     0
  0
VISUALSTYLE
  5
2F
102
{ACAD_REACTORS
330
2A
102
}
102
{ACAD_XDICTIONARY
360
211
102
}
330
2A
100
AcDbVisualStyle
  2
2dWireframe
 70
     4
 71
     0
 72
     2
 73
     0
 90
        0
 40
-0.6
 41
-30.0
 62
     5
 63
     7
421
 16777215
 74
     1
 91
        4
 64
     7
 65
   257
 75
     1
175
     1
 42
1.0
 92
        0
 66
   257
 43
1.0
 76
     1
 77
     6
 78
     2
 67
     7
 79
     5
170
     0
171
     0
290
     0
174
     0
 93
        1
 44
0.0
173
     0
291
     0
 45
0.0
1001
ACAD
1000
AcDbSavedByObjectVersion
1070
     0
  0
VISUALSTYLE
  5
31
102
{ACAD_REACTORS
330
2A
102
}
102
{ACAD_XDICTIONARY
360
215
102
}
330
2A
100
AcDbVisualStyle
  2
3D Hidden
 70
     6
 71
     1
 72
     2
 73
     2
 90
        0
 40
-0.6
 41
-30.0
 62
     5
 63
     7
421
 16777215
 74
     2
 91
        2
 64
     7
 65
   257
 75
     2
175
     1
 42
40.0
 92
        0
 66
   257
 43
1.0
 76
     1
 77
     6
 78
     2
 67
     7
 79
     3
170
     0
171
     0
290
     0
174
     0
 93
        1
 44
0.0
173
     0
291
     0
 45
0.0
1001
ACAD
1000
AcDbSavedByObjectVersion
1070
     0
  0
VISUALSTYLE
  5
30
102
{ACAD_REACTORS
330
2A
102
}
102
{ACAD_XDICTIONARY
360
213
102
}
330
2A
100
AcDbVisualStyle
  2
3dWireframe
 70
     5
 71
     0
 72
     2
 73
     0
 90
        0
 40
-0.6
 41
-30.0
 62
     5
 63
     7
421
 16777215
 74
     1
 91
        4
 64
     7
 65
   257
 75
     1
175
     1
 42
1.0
 92
        0
 66
   257
 43
1.0
 76
     1
 77
     6
 78
     2
 67
     7
 79
     5
170
     0
171
     0
290
     0
174
     0
 93
        1
 44
0.0
173
     0
291
     0
 45
0.0
1001
ACAD
1000
AcDbSavedByObjectVersion
1070
     0
  0
VISUALSTYLE
  5
32
102
{ACAD_REACTORS
330
2A
102
}
102
{ACAD_XDICTIONARY
360
217
102
}
330
2A
100
AcDbVisualStyle
  2
Basic
 70
     7
 71
     1
 72
     0
 73
     1
 90
        0
 40
-0.6
 41
-30.0
 62
     5
 63
     7
421
 16777215
 74
     0
 91
        4
 64
     7
 65
   257
 75
     1
175
     1
 42
1.0
 92
        8
 66
     7
 43
1.0
 76
     1
 77
     6
 78
     2
 67
     7
 79
     5
170
     0
171
     0
290
     0
174
     0
 93
        1
 44
0.0
173
     0
291
     1
 45
0.0
1001
ACAD
1000
AcDbSavedByObjectVersion
1070
     0
  0
VISUALSTYLE
  5
36
102
{ACAD_REACTORS
330
2A
102
}
102
{ACAD_XDICTIONARY
360
21F
102
}
330
2A
100
AcDbVisualStyle
  2
Brighten
 70
    12
 71
     2
 72
     2
 73
     0
 90
        0
 40
-0.6
 41
-30.0
 62
     5
 63
     7
421
 16777215
 74
     1
 91
        4
 64
     7
 65
   257
 75
     1
175
     1
 42
1.0
 92
        8
 66
     7
 43
1.0
 76
     1
 77
     6
 78
     2
 67
     7
 79
     5
170
     0
171
     0
290
     0
174
     0
 93
        1
 44
50.0
173
     0
291
     1
 45
0.0
1001
ACAD
1000
AcDbSavedByObjectVersion
1070
     0
  0
VISUALSTYLE
  5
3A
102
{ACAD_REACTORS
330
2A
102
}
102
{ACAD_XDICTIONARY
360
227
102
}
330
2A
100
AcDbVisualStyle
  2
ColorChange
 70
    16
 71
     2
 72
     2
 73
     3
 90
        0
 40
-0.6
 41
-30.0
 62
     5
 63
     8
421
  8421504
 74
     1
 91
        4
 64
     7
 65
   257
 75
     1
175
     1
 42
1.0
 92
        8
 66
     8
424
  8421504
 43
1.0
 76
     1
 77
     6
 78
     2
 67
     7
 79
     5
170
     0
171
     0
290
     0
174
     0
 93
        1
 44
0.0
173
     0
291
     1
 45
0.0
1001
ACAD
1000
AcDbSavedByObjectVersion
1070
     0
  0
VISUALSTYLE
  5
34
102
{ACAD_REACTORS
330
2A
102
}
102
{ACAD_XDICTIONARY
360
21B
102
}
330
2A
100
AcDbVisualStyle
  2
Conceptual
 70
     9
 71
     3
 72
     2
 73
     0
 90
        0
 40
-0.6
 41
-30.0
 62
     5
 63
     7
421
 16777215
 74
     2
 91
        2
 64
     7
 65
   257
 75
     1
175
     1
 42
40.0
 92
        8
 66
     7
 43
1.0
 76
     1
 77
     6
 78
     2
 67
     7
 79
     3
170
     0
171
     0
290
     0
174
     0
 93
        1
 44
0.0
173
     0
291
     0
 45
0.0
1001
ACAD
1000
AcDbSavedByObjectVersion
1070
     0
  0
VISUALSTYLE
  5
35
102
{ACAD_REACTORS
330
2A
102
}
102
{ACAD_XDICTIONARY
360
21D
102
}
330
2A
100
AcDbVisualStyle
  2
Dim
 70
    11
 71
     2
 72
     2
 73
     0
 90
        0
 40
-0.6
 41
-30.0
 62
     5
 63
     7
421
 16777215
 74
     1
 91
        4
 64
     7
 65
   257
 75
     1
175
     1
 42
1.0
 92
        8
 66
     7
 43
1.0
 76
     1
 77
     6
 78
     2
 67
     7
 79
     5
170
     0
171
     0
290
     0
174
     0
 93
        1
 44
-50.0
173
     0
291
     1
 45
0.0
1001
ACAD
1000
AcDbSavedByObjectVersion
1070
     0
  0
VISUALSTYLE
  5
39
102
{ACAD_REACTORS
330
2A
102
}
102
{ACAD_XDICTIONARY
360
225
102
}
330
2A
100
AcDbVisualStyle
  2
Facepattern
 70
    15
 71
     2
 72
     2
 73
     0
 90
        0
 40
-0.6
 41
-30.0
 62
     5
 63
     7
421
 16777215
 74
     1
 91
        4
 64
     7
 65
   257
 75
     1
175
     1
 42
1.0
 92
        8
 66
     7
 43
1.0
 76
     1
 77
     6
 78
     2
 67
     7
 79
     5
170
     0
171
     0
290
     0
174
     0
 93
        1
 44
0.0
173
     0
291
     1
 45
0.0
1001
ACAD
1000
AcDbSavedByObjectVersion
1070
     0
  0
VISUALSTYLE
  5
2B
102
{ACAD_REACTORS
330
2A
102
}
102
{ACAD_XDICTIONARY
360
209
102
}
330
2A
100
AcDbVisualStyle
  2
Flat
 70
     0
 71
     2
 72
     1
 73
     1
 90
        2
 40
-0.6
 41
30.0
 62
     5
 63
     7
421
 16777215
 74
     0
 91
        4
 64
     7
 65
   257
 75
     1
175
     1
 42
1.0
 92
        8
 66
     7
 43
1.0
 76
     1
 77
     6
 78
     2
 67
     7
 79
     5
170
     0
171
     0
290
     0
174
     0
 93
       13
 44
0.0
173
     0
291
     1
 45
0.0
1001
ACAD
1000
AcDbSavedByObjectVersion
1070
     0
  0
VISUALSTYLE
  5
2C
102
{ACAD_REACTORS
330
2A
102
}
102
{ACAD_XDICTIONARY
360
20B
102
}
330
2A
100
AcDbVisualStyle
  2
FlatWithEdges
 70
     1
 71
     2
 72
     1
 73
     1
 90
        2
 40
-0.6
 41
30.0
 62
     5
 63
     7
421
 16777215
 74
     1
 91
        4
 64
     7
 65
   257
 75
     1
175
     1
 42
1.0
 92
        0
 66
   257
 43
1.0
 76
     1
 77
     6
 78
     2
 67
     7
 79
     5
170
     0
171
     0
290
     0
174
     0
 93
       13
 44
0.0
173
     0
291
     1
 45
0.0
1001
ACAD
1000
AcDbSavedByObjectVersion
1070
     0
  0
VISUALSTYLE
  5
2D
102
{ACAD_REACTORS
330
2A
102
}
102
{ACAD_XDICTIONARY
360
20D
102
}
330
2A
100
AcDbVisualStyle
  2
Gouraud
 70
     2
 71
     2
 72
     2
 73
     1
 90
        2
 40
-0.6
 41
30.0
 62
     5
 63
     7
421
 16777215
 74
     0
 91
        4
 64
     7
 65
   257
 75
     1
175
     1
 42
1.0
 92
        0
 66
     7
 43
1.0
 76
     1
 77
     6
 78
     2
 67
     7
 79
     5
170
     0
171
     0
290
     0
174
     0
 93
       13
 44
0.0
173
     0
291
     1
 45
0.0
1001
ACAD
1000
AcDbSavedByObjectVersion
1070
     0
  0
VISUALSTYLE
  5
2E
102
{ACAD_REACTORS
330
2A
102
}
102
{ACAD_XDICTIONARY
360
20F
102
}
330
2A
100
AcDbVisualStyle
  2
GouraudWithEdges
 70
     3
 71
     2
 72
     2
 73
     1
 90
        2
 40
-0.6
 41
30.0
 62
     5
 63
     7
421
 16777215
 74
     1
 91
        4
 64
     7
 65
   257
 75
     1
175
     1
 42
1.0
 92
        0
 66
   257
 43
1.0
 76
     1
 77
     6
 78
     2
 67
     7
 79
     5
170
     0
171
     0
290
     0
174
     0
 93
       13
 44
0.0
173
     0
291
     1
 45
0.0
1001
ACAD
1000
AcDbSavedByObjectVersion
1070
     0
  0
VISUALSTYLE
  5
38
102
{ACAD_REACTORS
330
2A
102
}
102
{ACAD_XDICTIONARY
360
223
102
}
330
2A
100
AcDbVisualStyle
  2
Linepattern
 70
    14
 71
     2
 72
     2
 73
     0
 90
        0
 40
-0.6
 41
-30.0
 62
     5
 63
     7
421
 16777215
 74
     1
 91
        4
 64
     7
 65
   257
 75
     7
175
     7
 42
1.0
 92
        8
 66
     7
 43
1.0
 76
     1
 77
     6
 78
     2
 67
     7
 79
     5
170
     0
171
     0
290
     0
174
     0
 93
        1
 44
0.0
173
     0
291
     1
 45
0.0
1001
ACAD
1000
AcDbSavedByObjectVersion
1070
     0
  0
VISUALSTYLE
  5
33
102
{ACAD_REACTORS
330
2A
102
}
102
{ACAD_XDICTIONARY
360
219
102
}
330
2A
100
AcDbVisualStyle
  2
Realistic
 70
     8
 71
     2
 72
     2
 73
     0
 90
        0
 40
-0.6
 41
-30.0
 62
     5
 63
     7
421
 16777215
 74
     1
 91
        0
 64
     7
 65
   257
 75
     1
175
     1
 42
1.0
 92
        8
 66
     8
424
  7895160
 43
1.0
 76
     1
 77
     6
 78
     2
 67
     7
 79
     5
170
     0
171
     0
290
     0
174
     0
 93
       13
 44
0.0
173
     0
291
     0
 45
0.0
1001
ACAD
1000
AcDbSavedByObjectVersion
1070
     0
  0
VISUALSTYLE
  5
37
102
{ACAD_REACTORS
330
2A
102
}
102
{ACAD_XDICTIONARY
360
221
102
}
330
2A
100
AcDbVisualStyle
  2
Thicken
 70
    13
 71
     2
 72
     2
 73
     0
 90
        0
 40
-0.6
 41
-30.0
 62
     5
 63
     7
421
 16777215
 74
     1
 91
        4
 64
     7
 65
   257
 75
     1
175
     1
 42
1.0
 92
       12
 66
     7
 43
1.0
 76
     1
 77
     6
 78
     2
 67
     7
 79
     5
170
     0
171
     0
290
     0
174
     0
 93
        1
 44
0.0
173
     0
291
     1
 45
0.0
1001
ACAD
1000
AcDbSavedByObjectVersion
1070
     0
  0
DICTIONARYVAR
  5
208
102
{ACAD_REACTORS
330
207
102
}
330
207
100
DictionaryVariables
280
     0
  1
1:1
  0
DICTIONARYVAR
  5
231
102
{ACAD_REACTORS
330
207
102
}
330
207
100
DictionaryVariables
280
     0
  1
0
  0
XRECORD
  5
206
102
{ACAD_REACTORS
330
205
102
}
330
205
100
AcDbXrecord
280
     1
1000
This DWG file was created in ArchiCAD(TM)®
  0
DICTIONARY
  5
22B
330
3D
100
AcDbDictionary
280
     1
281
     1
  3
ACAD_XREC_ROUNDTRIP
360
22C
  0
DICTIONARY
  5
229
330
3C
100
AcDbDictionary
280
     1
281
     1
  3
ACAD_XREC_ROUNDTRIP
360
22A
  0
DICTIONARY
  5
22D
330
3E
100
AcDbDictionary
280
     1
281
     1
  3
ACAD_XREC_ROUNDTRIP
360
22E
  0
DICTIONARY
  5
211
330
2F
100
AcDbDictionary
280
     1
281
     1
  3
ACAD_XREC_ROUNDTRIP
360
212
  0
DICTIONARY
  5
215
330
31
100
AcDbDictionary
280
     1
281
     1
  3
ACAD_XREC_ROUNDTRIP
360
216
  0
DICTIONARY
  5
213
330
30
100
AcDbDictionary
280
     1
281
     1
  3
ACAD_XREC_ROUNDTRIP
360
214
  0
DICTIONARY
  5
217
330
32
100
AcDbDictionary
280
     1
281
     1
  3
ACAD_XREC_ROUNDTRIP
360
218
  0
DICTIONARY
  5
21F
330
36
100
AcDbDictionary
280
     1
281
     1
  3
ACAD_XREC_ROUNDTRIP
360
220
  0
DICTIONARY
  5
227
330
3A
100
AcDbDictionary
280
     1
281
     1
  3
ACAD_XREC_ROUNDTRIP
360
228
  0
DICTIONARY
  5
21B
330
34
100
AcDbDictionary
280
     1
281
     1
  3
ACAD_XREC_ROUNDTRIP
360
21C
  0
DICTIONARY
  5
21D
330
35
100
AcDbDictionary
280
     1
281
     1
  3
ACAD_XREC_ROUNDTRIP
360
21E
  0
DICTIONARY
  5
225
330
39
100
AcDbDictionary
280
     1
281
     1
  3
ACAD_XREC_ROUNDTRIP
360
226
  0
DICTIONARY
  5
209
330
2B
100
AcDbDictionary
280
     1
281
     1
  3
ACAD_XREC_ROUNDTRIP
360
20A
  0
DICTIONARY
  5
20B
330
2C
100
AcDbDictionary
280
     1
281
     1
  3
ACAD_XREC_ROUNDTRIP
360
20C
  0
DICTIONARY
  5
20D
330
2D
100
AcDbDictionary
280
     1
281
     1
  3
ACAD_XREC_ROUNDTRIP
360
20E
  0
DICTIONARY
  5
20F
330
2E
100
AcDbDictionary
280
     1
281
     1
  3
ACAD_XREC_ROUNDTRIP
360
210
  0
DICTIONARY
  5
223
330
38
100
AcDbDictionary
280
     1
281
     1
  3
ACAD_XREC_ROUNDTRIP
360
224
  0
DICTIONARY
  5
219
330
33
100
AcDbDictionary
280
     1
281
     1
  3
ACAD_XREC_ROUNDTRIP
360
21A
  0
DICTIONARY
  5
221
330
37
100
AcDbDictionary
280
     1
281
     1
  3
ACAD_XREC_ROUNDTRIP
360
222
  0
XRECORD
  5
22C
102
{ACAD_REACTORS
330
22B
102
}
330
22B
100
AcDbXrecord
280
     1
102
MATERIAL
148
0.0
149
0.0
149
0.0
 93
        0
 94
      127
282
     0
 72
     1
 77
     1
171
     1
175
     1
179
     1
273
     0
  0
XRECORD
  5
22A
102
{ACAD_REACTORS
330
229
102
}
330
229
100
AcDbXrecord
280
     1
102
MATERIAL
148
0.0
149
0.0
149
0.0
 93
        0
 94
      127
282
     0
 72
     1
 77
     1
171
     1
175
     1
179
     1
273
     0
  0
XRECORD
  5
22E
102
{ACAD_REACTORS
330
22D
102
}
330
22D
100
AcDbXrecord
280
     1
102
MATERIAL
148
0.0
149
0.0
149
0.0
 93
        0
 94
      127
282
     0
 72
     1
 77
     1
171
     1
175
     1
179
     1
273
     0
  0
XRECORD
  5
212
102
{ACAD_REACTORS
330
211
102
}
330
211
100
AcDbXrecord
280
     1
102
RTVSPropertyOp0
 70
     1
102
RTVSPropertyOp1
 70
     1
102
RTVSPropertyOp2
 70
     1
102
RTVSPropertyOp3
 70
     1
102
RTVSPropertyOp4
 70
     1
102
RTVSPropertyOp5
 70
     1
102
RTVSPropertyOp6
 70
     1
102
RTVSPropertyOp7
 70
     1
102
RTVSPropertyOp8
 70
     1
102
RTVSPropertyOp9
 70
     1
102
RTVSPropertyOp10
 70
     1
102
RTVSPropertyOp11
 70
     1
102
RTVSPropertyOp12
 70
     1
102
RTVSPropertyOp13
 70
     1
102
RTVSPropertyOp14
 70
     1
102
RTVSPropertyOp15
 70
     1
102
RTVSPropertyOp16
 70
     1
102
RTVSPropertyOp17
 70
     1
102
RTVSPropertyOp18
 70
     1
102
RTVSPropertyOp19
 70
     1
102
RTVSPropertyOp20
 70
     1
102
RTVSPropertyOp21
 70
     1
102
RTVSPropertyOp22
 70
     1
102
RTVSPropertyOp23
 70
     1
102
RTVSPropertyOp24
 70
     1
102
RTVSPropertyOp25
 70
     1
102
RTVSPropertyOp26
 70
     1
102
RTVSPropertyOp27
 70
     1
102
RTVSPropertyOp28
 70
     1
102
RTVSPropertyOp29
 70
     1
102
RTVSPropertyOp30
 70
     1
102
RTVSPropertyOp31
 70
     1
102
RTVSPropertyOp32
 70
     1
  0
XRECORD
  5
216
102
{ACAD_REACTORS
330
215
102
}
330
215
100
AcDbXrecord
280
     1
102
RTVSPropertyOp0
 70
     1
102
RTVSPropertyOp1
 70
     1
102
RTVSPropertyOp2
 70
     1
102
RTVSPropertyOp3
 70
     1
102
RTVSPropertyOp4
 70
     1
102
RTVSPropertyOp5
 70
     1
102
RTVSPropertyOp6
 70
     1
102
RTVSPropertyOp7
 70
     1
102
RTVSPropertyOp8
 70
     1
102
RTVSPropertyOp9
 70
     1
102
RTVSPropertyOp10
 70
     1
102
RTVSPropertyOp11
 70
     1
102
RTVSPropertyOp12
 70
     1
102
RTVSPropertyOp13
 70
     1
102
RTVSPropertyOp14
 70
     1
102
RTVSPropertyOp15
 70
     1
102
RTVSPropertyOp16
 70
     1
102
RTVSPropertyOp17
 70
     1
102
RTVSPropertyOp18
 70
     1
102
RTVSPropertyOp19
 70
     1
102
RTVSPropertyOp20
 70
     1
102
RTVSPropertyOp21
 70
     1
102
RTVSPropertyOp22
 70
     1
102
RTVSPropertyOp23
 70
     1
102
RTVSPropertyOp24
 70
     1
102
RTVSPropertyOp25
 70
     1
102
RTVSPropertyOp26
 70
     1
102
RTVSPropertyOp27
 70
     1
102
RTVSPropertyOp28
 70
     1
102
RTVSPropertyOp29
 70
     1
102
RTVSPropertyOp30
 70
     1
102
RTVSPropertyOp31
 70
     1
102
RTVSPropertyOp32
 70
     1
  0
XRECORD
  5
214
102
{ACAD_REACTORS
330
213
102
}
330
213
100
AcDbXrecord
280
     1
102
RTVSPropertyOp0
 70
     1
102
RTVSPropertyOp1
 70
     1
102
RTVSPropertyOp2
 70
     1
102
RTVSPropertyOp3
 70
     1
102
RTVSPropertyOp4
 70
     1
102
RTVSPropertyOp5
 70
     1
102
RTVSPropertyOp6
 70
     1
102
RTVSPropertyOp7
 70
     1
102
RTVSPropertyOp8
 70
     1
102
RTVSPropertyOp9
 70
     1
102
RTVSPropertyOp10
 70
     1
102
RTVSPropertyOp11
 70
     1
102
RTVSPropertyOp12
 70
     1
102
RTVSPropertyOp13
 70
     1
102
RTVSPropertyOp14
 70
     1
102
RTVSPropertyOp15
 70
     1
102
RTVSPropertyOp16
 70
     1
102
RTVSPropertyOp17
 70
     1
102
RTVSPropertyOp18
 70
     1
102
RTVSPropertyOp19
 70
     1
102
RTVSPropertyOp20
 70
     1
102
RTVSPropertyOp21
 70
     1
102
RTVSPropertyOp22
 70
     1
102
RTVSPropertyOp23
 70
     1
102
RTVSPropertyOp24
 70
     1
102
RTVSPropertyOp25
 70
     1
102
RTVSPropertyOp26
 70
     1
102
RTVSPropertyOp27
 70
     1
102
RTVSPropertyOp28
 70
     1
102
RTVSPropertyOp29
 70
     1
102
RTVSPropertyOp30
 70
     1
102
RTVSPropertyOp31
 70
     1
102
RTVSPropertyOp32
 70
     1
  0
XRECORD
  5
218
102
{ACAD_REACTORS
330
217
102
}
330
217
100
AcDbXrecord
280
     1
102
RTVSPropertyOp0
 70
     1
102
RTVSPropertyOp1
 70
     1
102
RTVSPropertyOp2
 70
     1
102
RTVSPropertyOp3
 70
     1
102
RTVSPropertyOp4
 70
     1
102
RTVSPropertyOp5
 70
     1
102
RTVSPropertyOp6
 70
     1
102
RTVSPropertyOp7
 70
     1
102
RTVSPropertyOp8
 70
     1
102
RTVSPropertyOp9
 70
     1
102
RTVSPropertyOp10
 70
     1
102
RTVSPropertyOp11
 70
     1
102
RTVSPropertyOp12
 70
     1
102
RTVSPropertyOp13
 70
     1
102
RTVSPropertyOp14
 70
     1
102
RTVSPropertyOp15
 70
     1
102
RTVSPropertyOp16
 70
     1
102
RTVSPropertyOp17
 70
     1
102
RTVSPropertyOp18
 70
     1
102
RTVSPropertyOp19
 70
     1
102
RTVSPropertyOp20
 70
     1
102
RTVSPropertyOp21
 70
     1
102
RTVSPropertyOp22
 70
     1
102
RTVSPropertyOp23
 70
     1
102
RTVSPropertyOp24
 70
     1
102
RTVSPropertyOp25
 70
     1
102
RTVSPropertyOp26
 70
     1
102
RTVSPropertyOp27
 70
     1
102
RTVSPropertyOp28
 70
     1
102
RTVSPropertyOp29
 70
     1
102
RTVSPropertyOp30
 70
     1
102
RTVSPropertyOp31
 70
     1
102
RTVSPropertyOp32
 70
     1
  0
XRECORD
  5
220
102
{ACAD_REACTORS
330
21F
102
}
330
21F
100
AcDbXrecord
280
     1
102
RTVSPropertyOp0
 70
     1
102
RTVSPropertyOp1
 70
     1
102
RTVSPropertyOp2
 70
     1
102
RTVSPropertyOp3
 70
     1
102
RTVSPropertyOp4
 70
     1
102
RTVSPropertyOp5
 70
     1
102
RTVSPropertyOp6
 70
     1
102
RTVSPropertyOp7
 70
     1
102
RTVSPropertyOp8
 70
     1
102
RTVSPropertyOp9
 70
     1
102
RTVSPropertyOp10
 70
     1
102
RTVSPropertyOp11
 70
     1
102
RTVSPropertyOp12
 70
     1
102
RTVSPropertyOp13
 70
     1
102
RTVSPropertyOp14
 70
     1
102
RTVSPropertyOp15
 70
     1
102
RTVSPropertyOp16
 70
     1
102
RTVSPropertyOp17
 70
     1
102
RTVSPropertyOp18
 70
     1
102
RTVSPropertyOp19
 70
     1
102
RTVSPropertyOp20
 70
     1
102
RTVSPropertyOp21
 70
     1
102
RTVSPropertyOp22
 70
     1
102
RTVSPropertyOp23
 70
     1
102
RTVSPropertyOp24
 70
     1
102
RTVSPropertyOp25
 70
     1
102
RTVSPropertyOp26
 70
     1
102
RTVSPropertyOp27
 70
     1
102
RTVSPropertyOp28
 70
     1
102
RTVSPropertyOp29
 70
     1
102
RTVSPropertyOp30
 70
     1
102
RTVSPropertyOp31
 70
     1
102
RTVSPropertyOp32
 70
     1
  0
XRECORD
  5
228
102
{ACAD_REACTORS
330
227
102
}
330
227
100
AcDbXrecord
280
     1
102
RTVSPropertyOp0
 70
     1
102
RTVSPropertyOp1
 70
     1
102
RTVSPropertyOp2
 70
     1
102
RTVSPropertyOp3
 70
     1
102
RTVSPropertyOp4
 70
     1
102
RTVSPropertyOp5
 70
     1
102
RTVSPropertyOp6
 70
     1
102
RTVSPropertyOp7
 70
     1
102
RTVSPropertyOp8
 70
     1
102
RTVSPropertyOp9
 70
     1
102
RTVSPropertyOp10
 70
     1
102
RTVSPropertyOp11
 70
     1
102
RTVSPropertyOp12
 70
     1
102
RTVSPropertyOp13
 70
     1
102
RTVSPropertyOp14
 70
     1
102
RTVSPropertyOp15
 70
     1
102
RTVSPropertyOp16
 70
     1
102
RTVSPropertyOp17
 70
     1
102
RTVSPropertyOp18
 70
     1
102
RTVSPropertyOp19
 70
     1
102
RTVSPropertyOp20
 70
     1
102
RTVSPropertyOp21
 70
     1
102
RTVSPropertyOp22
 70
     1
102
RTVSPropertyOp23
 70
     1
102
RTVSPropertyOp24
 70
     1
102
RTVSPropertyOp25
 70
     1
102
RTVSPropertyOp26
 70
     1
102
RTVSPropertyOp27
 70
     1
102
RTVSPropertyOp28
 70
     1
102
RTVSPropertyOp29
 70
     1
102
RTVSPropertyOp30
 70
     1
102
RTVSPropertyOp31
 70
     1
102
RTVSPropertyOp32
 70
     1
  0
XRECORD
  5
21C
102
{ACAD_REACTORS
330
21B
102
}
330
21B
100
AcDbXrecord
280
     1
102
RTVSPropertyOp0
 70
     1
102
RTVSPropertyOp1
 70
     1
102
RTVSPropertyOp2
 70
     1
102
RTVSPropertyOp3
 70
     1
102
RTVSPropertyOp4
 70
     1
102
RTVSPropertyOp5
 70
     1
102
RTVSPropertyOp6
 70
     1
102
RTVSPropertyOp7
 70
     1
102
RTVSPropertyOp8
 70
     1
102
RTVSPropertyOp9
 70
     1
102
RTVSPropertyOp10
 70
     1
102
RTVSPropertyOp11
 70
     1
102
RTVSPropertyOp12
 70
     1
102
RTVSPropertyOp13
 70
     1
102
RTVSPropertyOp14
 70
     1
102
RTVSPropertyOp15
 70
     1
102
RTVSPropertyOp16
 70
     1
102
RTVSPropertyOp17
 70
     1
102
RTVSPropertyOp18
 70
     1
102
RTVSPropertyOp19
 70
     1
102
RTVSPropertyOp20
 70
     1
102
RTVSPropertyOp21
 70
     1
102
RTVSPropertyOp22
 70
     1
102
RTVSPropertyOp23
 70
     1
102
RTVSPropertyOp24
 70
     1
102
RTVSPropertyOp25
 70
     1
102
RTVSPropertyOp26
 70
     1
102
RTVSPropertyOp27
 70
     1
102
RTVSPropertyOp28
 70
     1
102
RTVSPropertyOp29
 70
     1
102
RTVSPropertyOp30
 70
     1
102
RTVSPropertyOp31
 70
     1
102
RTVSPropertyOp32
 70
     1
  0
XRECORD
  5
21E
102
{ACAD_REACTORS
330
21D
102
}
330
21D
100
AcDbXrecord
280
     1
102
RTVSPropertyOp0
 70
     1
102
RTVSPropertyOp1
 70
     1
102
RTVSPropertyOp2
 70
     1
102
RTVSPropertyOp3
 70
     1
102
RTVSPropertyOp4
 70
     1
102
RTVSPropertyOp5
 70
     1
102
RTVSPropertyOp6
 70
     1
102
RTVSPropertyOp7
 70
     1
102
RTVSPropertyOp8
 70
     1
102
RTVSPropertyOp9
 70
     1
102
RTVSPropertyOp10
 70
     1
102
RTVSPropertyOp11
 70
     1
102
RTVSPropertyOp12
 70
     1
102
RTVSPropertyOp13
 70
     1
102
RTVSPropertyOp14
 70
     1
102
RTVSPropertyOp15
 70
     1
102
RTVSPropertyOp16
 70
     1
102
RTVSPropertyOp17
 70
     1
102
RTVSPropertyOp18
 70
     1
102
RTVSPropertyOp19
 70
     1
102
RTVSPropertyOp20
 70
     1
102
RTVSPropertyOp21
 70
     1
102
RTVSPropertyOp22
 70
     1
102
RTVSPropertyOp23
 70
     1
102
RTVSPropertyOp24
 70
     1
102
RTVSPropertyOp25
 70
     1
102
RTVSPropertyOp26
 70
     1
102
RTVSPropertyOp27
 70
     1
102
RTVSPropertyOp28
 70
     1
102
RTVSPropertyOp29
 70
     1
102
RTVSPropertyOp30
 70
     1
102
RTVSPropertyOp31
 70
     1
102
RTVSPropertyOp32
 70
     1
  0
XRECORD
  5
226
102
{ACAD_REACTORS
330
225
102
}
330
225
100
AcDbXrecord
280
     1
102
RTVSPropertyOp0
 70
     1
102
RTVSPropertyOp1
 70
     1
102
RTVSPropertyOp2
 70
     1
102
RTVSPropertyOp3
 70
     1
102
RTVSPropertyOp4
 70
     1
102
RTVSPropertyOp5
 70
     1
102
RTVSPropertyOp6
 70
     1
102
RTVSPropertyOp7
 70
     1
102
RTVSPropertyOp8
 70
     1
102
RTVSPropertyOp9
 70
     1
102
RTVSPropertyOp10
 70
     1
102
RTVSPropertyOp11
 70
     1
102
RTVSPropertyOp12
 70
     1
102
RTVSPropertyOp13
 70
     1
102
RTVSPropertyOp14
 70
     1
102
RTVSPropertyOp15
 70
     1
102
RTVSPropertyOp16
 70
     1
102
RTVSPropertyOp17
 70
     1
102
RTVSPropertyOp18
 70
     1
102
RTVSPropertyOp19
 70
     1
102
RTVSPropertyOp20
 70
     1
102
RTVSPropertyOp21
 70
     1
102
RTVSPropertyOp22
 70
     1
102
RTVSPropertyOp23
 70
     1
102
RTVSPropertyOp24
 70
     1
102
RTVSPropertyOp25
 70
     1
102
RTVSPropertyOp26
 70
     1
102
RTVSPropertyOp27
 70
     1
102
RTVSPropertyOp28
 70
     1
102
RTVSPropertyOp29
 70
     1
102
RTVSPropertyOp30
 70
     1
102
RTVSPropertyOp31
 70
     1
102
RTVSPropertyOp32
 70
     1
  0
XRECORD
  5
20A
102
{ACAD_REACTORS
330
209
102
}
330
209
100
AcDbXrecord
280
     1
102
RTVSPropertyOp0
 70
     1
102
RTVSPropertyOp1
 70
     1
102
RTVSPropertyOp2
 70
     1
102
RTVSPropertyOp3
 70
     1
102
RTVSPropertyOp4
 70
     1
102
RTVSPropertyOp5
 70
     1
102
RTVSPropertyOp6
 70
     1
102
RTVSPropertyOp7
 70
     1
102
RTVSPropertyOp8
 70
     1
102
RTVSPropertyOp9
 70
     1
102
RTVSPropertyOp10
 70
     1
102
RTVSPropertyOp11
 70
     1
102
RTVSPropertyOp12
 70
     1
102
RTVSPropertyOp13
 70
     1
102
RTVSPropertyOp14
 70
     1
102
RTVSPropertyOp15
 70
     1
102
RTVSPropertyOp16
 70
     1
102
RTVSPropertyOp17
 70
     1
102
RTVSPropertyOp18
 70
     1
102
RTVSPropertyOp19
 70
     1
102
RTVSPropertyOp20
 70
     1
102
RTVSPropertyOp21
 70
     1
102
RTVSPropertyOp22
 70
     1
102
RTVSPropertyOp23
 70
     1
102
RTVSPropertyOp24
 70
     1
102
RTVSPropertyOp25
 70
     1
102
RTVSPropertyOp26
 70
     1
102
RTVSPropertyOp27
 70
     1
102
RTVSPropertyOp28
 70
     1
102
RTVSPropertyOp29
 70
     1
102
RTVSPropertyOp30
 70
     1
102
RTVSPropertyOp31
 70
     1
102
RTVSPropertyOp32
 70
     1
  0
XRECORD
  5
20C
102
{ACAD_REACTORS
330
20B
102
}
330
20B
100
AcDbXrecord
280
     1
102
RTVSPropertyOp0
 70
     1
102
RTVSPropertyOp1
 70
     1
102
RTVSPropertyOp2
 70
     1
102
RTVSPropertyOp3
 70
     1
102
RTVSPropertyOp4
 70
     1
102
RTVSPropertyOp5
 70
     1
102
RTVSPropertyOp6
 70
     1
102
RTVSPropertyOp7
 70
     1
102
RTVSPropertyOp8
 70
     1
102
RTVSPropertyOp9
 70
     1
102
RTVSPropertyOp10
 70
     1
102
RTVSPropertyOp11
 70
     1
102
RTVSPropertyOp12
 70
     1
102
RTVSPropertyOp13
 70
     1
102
RTVSPropertyOp14
 70
     1
102
RTVSPropertyOp15
 70
     1
102
RTVSPropertyOp16
 70
     1
102
RTVSPropertyOp17
 70
     1
102
RTVSPropertyOp18
 70
     1
102
RTVSPropertyOp19
 70
     1
102
RTVSPropertyOp20
 70
     1
102
RTVSPropertyOp21
 70
     1
102
RTVSPropertyOp22
 70
     1
102
RTVSPropertyOp23
 70
     1
102
RTVSPropertyOp24
 70
     1
102
RTVSPropertyOp25
 70
     1
102
RTVSPropertyOp26
 70
     1
102
RTVSPropertyOp27
 70
     1
102
RTVSPropertyOp28
 70
     1
102
RTVSPropertyOp29
 70
     1
102
RTVSPropertyOp30
 70
     1
102
RTVSPropertyOp31
 70
     1
102
RTVSPropertyOp32
 70
     1
  0
XRECORD
  5
20E
102
{ACAD_REACTORS
330
20D
102
}
330
20D
100
AcDbXrecord
280
     1
102
RTVSPropertyOp0
 70
     1
102
RTVSPropertyOp1
 70
     1
102
RTVSPropertyOp2
 70
     1
102
RTVSPropertyOp3
 70
     1
102
RTVSPropertyOp4
 70
     1
102
RTVSPropertyOp5
 70
     1
102
RTVSPropertyOp6
 70
     1
102
RTVSPropertyOp7
 70
     1
102
RTVSPropertyOp8
 70
     1
102
RTVSPropertyOp9
 70
     1
102
RTVSPropertyOp10
 70
     1
102
RTVSPropertyOp11
 70
     1
102
RTVSPropertyOp12
 70
     1
102
RTVSPropertyOp13
 70
     1
102
RTVSPropertyOp14
 70
     1
102
RTVSPropertyOp15
 70
     1
102
RTVSPropertyOp16
 70
     1
102
RTVSPropertyOp17
 70
     1
102
RTVSPropertyOp18
 70
     1
102
RTVSPropertyOp19
 70
     1
102
RTVSPropertyOp20
 70
     1
102
RTVSPropertyOp21
 70
     1
102
RTVSPropertyOp22
 70
     1
102
RTVSPropertyOp23
 70
     1
102
RTVSPropertyOp24
 70
     1
102
RTVSPropertyOp25
 70
     1
102
RTVSPropertyOp26
 70
     1
102
RTVSPropertyOp27
 70
     1
102
RTVSPropertyOp28
 70
     1
102
RTVSPropertyOp29
 70
     1
102
RTVSPropertyOp30
 70
     1
102
RTVSPropertyOp31
 70
     1
102
RTVSPropertyOp32
 70
     1
  0
XRECORD
  5
210
102
{ACAD_REACTORS
330
20F
102
}
330
20F
100
AcDbXrecord
280
     1
102
RTVSPropertyOp0
 70
     1
102
RTVSPropertyOp1
 70
     1
102
RTVSPropertyOp2
 70
     1
102
RTVSPropertyOp3
 70
     1
102
RTVSPropertyOp4
 70
     1
102
RTVSPropertyOp5
 70
     1
102
RTVSPropertyOp6
 70
     1
102
RTVSPropertyOp7
 70
     1
102
RTVSPropertyOp8
 70
     1
102
RTVSPropertyOp9
 70
     1
102
RTVSPropertyOp10
 70
     1
102
RTVSPropertyOp11
 70
     1
102
RTVSPropertyOp12
 70
     1
102
RTVSPropertyOp13
 70
     1
102
RTVSPropertyOp14
 70
     1
102
RTVSPropertyOp15
 70
     1
102
RTVSPropertyOp16
 70
     1
102
RTVSPropertyOp17
 70
     1
102
RTVSPropertyOp18
 70
     1
102
RTVSPropertyOp19
 70
     1
102
RTVSPropertyOp20
 70
     1
102
RTVSPropertyOp21
 70
     1
102
RTVSPropertyOp22
 70
     1
102
RTVSPropertyOp23
 70
     1
102
RTVSPropertyOp24
 70
     1
102
RTVSPropertyOp25
 70
     1
102
RTVSPropertyOp26
 70
     1
102
RTVSPropertyOp27
 70
     1
102
RTVSPropertyOp28
 70
     1
102
RTVSPropertyOp29
 70
     1
102
RTVSPropertyOp30
 70
     1
102
RTVSPropertyOp31
 70
     1
102
RTVSPropertyOp32
 70
     1
  0
XRECORD
  5
224
102
{ACAD_REACTORS
330
223
102
}
330
223
100
AcDbXrecord
280
     1
102
RTVSPropertyOp0
 70
     1
102
RTVSPropertyOp1
 70
     1
102
RTVSPropertyOp2
 70
     1
102
RTVSPropertyOp3
 70
     1
102
RTVSPropertyOp4
 70
     1
102
RTVSPropertyOp5
 70
     1
102
RTVSPropertyOp6
 70
     1
102
RTVSPropertyOp7
 70
     1
102
RTVSPropertyOp8
 70
     1
102
RTVSPropertyOp9
 70
     1
102
RTVSPropertyOp10
 70
     1
102
RTVSPropertyOp11
 70
     1
102
RTVSPropertyOp12
 70
     1
102
RTVSPropertyOp13
 70
     1
102
RTVSPropertyOp14
 70
     1
102
RTVSPropertyOp15
 70
     1
102
RTVSPropertyOp16
 70
     1
102
RTVSPropertyOp17
 70
     1
102
RTVSPropertyOp18
 70
     1
102
RTVSPropertyOp19
 70
     1
102
RTVSPropertyOp20
 70
     1
102
RTVSPropertyOp21
 70
     1
102
RTVSPropertyOp22
 70
     1
102
RTVSPropertyOp23
 70
     1
102
RTVSPropertyOp24
 70
     1
102
RTVSPropertyOp25
 70
     1
102
RTVSPropertyOp26
 70
     1
102
RTVSPropertyOp27
 70
     1
102
RTVSPropertyOp28
 70
     1
102
RTVSPropertyOp29
 70
     1
102
RTVSPropertyOp30
 70
     1
102
RTVSPropertyOp31
 70
     1
102
RTVSPropertyOp32
 70
     1
  0
XRECORD
  5
21A
102
{ACAD_REACTORS
330
219
102
}
330
219
100
AcDbXrecord
280
     1
102
RTVSPropertyOp0
 70
     1
102
RTVSPropertyOp1
 70
     1
102
RTVSPropertyOp2
 70
     1
102
RTVSPropertyOp3
 70
     1
102
RTVSPropertyOp4
 70
     1
102
RTVSPropertyOp5
 70
     1
102
RTVSPropertyOp6
 70
     1
102
RTVSPropertyOp7
 70
     1
102
RTVSPropertyOp8
 70
     1
102
RTVSPropertyOp9
 70
     1
102
RTVSPropertyOp10
 70
     1
102
RTVSPropertyOp11
 70
     1
102
RTVSPropertyOp12
 70
     1
102
RTVSPropertyOp13
 70
     1
102
RTVSPropertyOp14
 70
     1
102
RTVSPropertyOp15
 70
     1
102
RTVSPropertyOp16
 70
     1
102
RTVSPropertyOp17
 70
     1
102
RTVSPropertyOp18
 70
     1
102
RTVSPropertyOp19
 70
     1
102
RTVSPropertyOp20
 70
     1
102
RTVSPropertyOp21
 70
     1
102
RTVSPropertyOp22
 70
     1
102
RTVSPropertyOp23
 70
     1
102
RTVSPropertyOp24
 70
     1
102
RTVSPropertyOp25
 70
     1
102
RTVSPropertyOp26
 70
     1
102
RTVSPropertyOp27
 70
     1
102
RTVSPropertyOp28
 70
     1
102
RTVSPropertyOp29
 70
     1
102
RTVSPropertyOp30
 70
     1
102
RTVSPropertyOp31
 70
     1
102
RTVSPropertyOp32
 70
     1
  0
XRECORD
  5
222
102
{ACAD_REACTORS
330
221
102
}
330
221
100
AcDbXrecord
280
     1
102
RTVSPropertyOp0
 70
     1
102
RTVSPropertyOp1
 70
     1
102
RTVSPropertyOp2
 70
     1
102
RTVSPropertyOp3
 70
     1
102
RTVSPropertyOp4
 70
     1
102
RTVSPropertyOp5
 70
     1
102
RTVSPropertyOp6
 70
     1
102
RTVSPropertyOp7
 70
     1
102
RTVSPropertyOp8
 70
     1
102
RTVSPropertyOp9
 70
     1
102
RTVSPropertyOp10
 70
     1
102
RTVSPropertyOp11
 70
     1
102
RTVSPropertyOp12
 70
     1
102
RTVSPropertyOp13
 70
     1
102
RTVSPropertyOp14
 70
     1
102
RTVSPropertyOp15
 70
     1
102
RTVSPropertyOp16
 70
     1
102
RTVSPropertyOp17
 70
     1
102
RTVSPropertyOp18
 70
     1
102
RTVSPropertyOp19
 70
     1
102
RTVSPropertyOp20
 70
     1
102
RTVSPropertyOp21
 70
     1
102
RTVSPropertyOp22
 70
     1
102
RTVSPropertyOp23
 70
     1
102
RTVSPropertyOp24
 70
     1
102
RTVSPropertyOp25
 70
     1
102
RTVSPropertyOp26
 70
     1
102
RTVSPropertyOp27
 70
     1
102
RTVSPropertyOp28
 70
     1
102
RTVSPropertyOp29
 70
     1
102
RTVSPropertyOp30
 70
     1
102
RTVSPropertyOp31
 70
     1
102
RTVSPropertyOp32
 70
     1
  0
ENDSEC
  0
EOF
