  0
SECTION
  2
HEADER
  9
$ACADVER
  1
AC1018
  9
$ACADMAINTVER
 70
     0
  9
$DWGCODEPAGE
  3
ANSI_1252
  9
$INSBASE
 10
0.0
 20
0.0
 30
0.0
  9
$EXTMIN
 10
1.000000000000000E+20
 20
1.000000000000000E+20
 30
1.000000000000000E+20
  9
$EXTMAX
 10
-1.000000000000000E+20
 20
-1.000000000000000E+20
 30
-1.000000000000000E+20
  9
$LIMMIN
 10
0.0
 20
0.0
  9
$LIMMAX
 10
12.0
 20
9.0
  9
$ORTHOMODE
 70
     0
  9
$REGENMODE
 70
     1
  9
$FILLMODE
 70
     1
  9
$QTEXTMODE
 70
     0
  9
$MIRRTEXT
 70
     1
  9
$LTSCALE
 40
1.0
  9
$ATTMODE
 70
     1
  9
$TEXTSIZE
 40
0.2
  9
$TRACEWID
 40
0.05
  9
$TEXTSTYLE
  7
Standard
  9
$CLAYER
  8
0
  9
$CELTYPE
  6
ByLayer
  9
$CECOLOR
 62
   256
  9
$CELTSCALE
 40
1.0
  9
$DISPSILH
 70
     0
  9
$DIMSCALE
 40
1.0
  9
$DIMASZ
 40
0.18
  9
$DIMEXO
 40
0.0625
  9
$DIMDLI
 40
0.38
  9
$DIMRND
 40
0.0
  9
$DIMDLE
 40
0.0
  9
$DIMEXE
 40
0.18
  9
$DIMTP
 40
0.0
  9
$DIMTM
 40
0.0
  9
$DIMTXT
 40
0.18
  9
$DIMCEN
 40
0.09
  9
$DIMTSZ
 40
0.0
  9
$DIMTOL
 70
     0
  9
$DIMLIM
 70
     0
  9
$DIMTIH
 70
     1
  9
$DIMTOH
 70
     1
  9
$DIMSE1
 70
     0
  9
$DIMSE2
 70
     0
  9
$DIMTAD
 70
     0
  9
$DIMZIN
 70
     0
  9
$DIMBLK
  1

  9
$DIMASO
 70
     1
  9
$DIMSHO
 70
     1
  9
$DIMPOST
  1

  9
$DIMAPOST
  1

  9
$DIMALT
 70
     0
  9
$DIMALTD
 70
     2
  9
$DIMALTF
 40
25.4
  9
$DIMLFAC
 40
1.0
  9
$DIMTOFL
 70
     0
  9
$DIMTVP
 40
0.0
  9
$DIMTIX
 70
     0
  9
$DIMSOXD
 70
     0
  9
$DIMSAH
 70
     0
  9
$DIMBLK1
  1

  9
$DIMBLK2
  1

  9
$DIMSTYLE
  2
Standard
  9
$DIMCLRD
 70
     0
  9
$DIMCLRE
 70
     0
  9
$DIMCLRT
 70
     0
  9
$DIMTFAC
 40
1.0
  9
$DIMGAP
 40
0.09
  9
$DIMJUST
 70
     0
  9
$DIMSD1
 70
     0
  9
$DIMSD2
 70
     0
  9
$DIMTOLJ
 70
     1
  9
$DIMTZIN
 70
     0
  9
$DIMALTZ
 70
     0
  9
$DIMALTTZ
 70
     0
  9
$DIMUPT
 70
     0
  9
$DIMDEC
 70
     4
  9
$DIMTDEC
 70
     4
  9
$DIMALTU
 70
     2
  9
$DIMALTTD
 70
     2
  9
$DIMTXSTY
  7
Standard
  9
$DIMAUNIT
 70
     0
  9
$DIMADEC
 70
     0
  9
$DIMALTRND
 40
0.0
  9
$DIMAZIN
 70
     0
  9
$DIMDSEP
 70
    46
  9
$DIMATFIT
 70
     3
  9
$DIMFRAC
 70
     0
  9
$DIMLDRBLK
  1

  9
$DIMLUNIT
 70
     2
  9
$DIMLWD
 70
    -2
  9
$DIMLWE
 70
    -2
  9
$DIMTMOVE
 70
     0
  9
$LUNITS
 70
     2
  9
$LUPREC
 70
     4
  9
$SKETCHINC
 40
0.1
  9
$FILLETRAD
 40
0.5
  9
$AUNITS
 70
     0
  9
$AUPREC
 70
     0
  9
$MENU
  1
.
  9
$ELEVATION
 40
0.0
  9
$PELEVATION
 40
0.0
  9
$THICKNESS
 40
0.0
  9
$LIMCHECK
 70
     0
  9
$CHAMFERA
 40
0.5
  9
$CHAMFERB
 40
0.5
  9
$CHAMFERC
 40
1.0
  9
$CHAMFERD
 40
0.0
  9
$SKPOLY
 70
     0
  9
$TDCREATE
 40
2457126.428369213
  9
$TDUCREATE
 40
2457125.928369213
  9
$TDUPDATE
 40
2457126.428370023
  9
$TDUUPDATE
 40
2457125.928370023
  9
$TDINDWG
 40
0.0000000116
  9
$TDUSRTIMER
 40
0.0000000116
  9
$USRTIMER
 70
     1
  9
$ANGBASE
 50
0.0
  9
$ANGDIR
 70
     0
  9
$PDMODE
 70
     0
  9
$PDSIZE
 40
0.0
  9
$PLINEWID
 40
0.0
  9
$SPLFRAME
 70
     0
  9
$SPLINETYPE
 70
     6
  9
$SPLINESEGS
 70
     8
  9
$HANDSEED
  5
107
  9
$SURFTAB1
 70
     6
  9
$SURFTAB2
 70
     6
  9
$SURFTYPE
 70
     6
  9
$SURFU
 70
     6
  9
$SURFV
 70
     6
  9
$UCSBASE
  2

  9
$UCSNAME
  2

  9
$UCSORG
 10
0.0
 20
0.0
 30
0.0
  9
$UCSXDIR
 10
1.0
 20
0.0
 30
0.0
  9
$UCSYDIR
 10
0.0
 20
1.0
 30
0.0
  9
$UCSORTHOREF
  2

  9
$UCSORTHOVIEW
 70
     0
  9
$UCSORGTOP
 10
0.0
 20
0.0
 30
0.0
  9
$UCSORGBOTTOM
 10
0.0
 20
0.0
 30
0.0
  9
$UCSORGLEFT
 10
0.0
 20
0.0
 30
0.0
  9
$UCSORGRIGHT
 10
0.0
 20
0.0
 30
0.0
  9
$UCSORGFRONT
 10
0.0
 20
0.0
 30
0.0
  9
$UCSORGBACK
 10
0.0
 20
0.0
 30
0.0
  9
$PUCSBASE
  2

  9
$PUCSNAME
  2

  9
$PUCSORG
 10
0.0
 20
0.0
 30
0.0
  9
$PUCSXDIR
 10
1.0
 20
0.0
 30
0.0
  9
$PUCSYDIR
 10
0.0
 20
1.0
 30
0.0
  9
$PUCSORTHOREF
  2

  9
$PUCSORTHOVIEW
 70
     0
  9
$PUCSORGTOP
 10
0.0
 20
0.0
 30
0.0
  9
$PUCSORGBOTTOM
 10
0.0
 20
0.0
 30
0.0
  9
$PUCSORGLEFT
 10
0.0
 20
0.0
 30
0.0
  9
$PUCSORGRIGHT
 10
0.0
 20
0.0
 30
0.0
  9
$PUCSORGFRONT
 10
0.0
 20
0.0
 30
0.0
  9
$PUCSORGBACK
 10
0.0
 20
0.0
 30
0.0
  9
$USERI1
 70
     0
  9
$USERI2
 70
     0
  9
$USERI3
 70
     0
  9
$USERI4
 70
     0
  9
$USERI5
 70
     0
  9
$USERR1
 40
0.0
  9
$USERR2
 40
0.0
  9
$USERR3
 40
0.0
  9
$USERR4
 40
0.0
  9
$USERR5
 40
0.0
  9
$WORLDVIEW
 70
     1
  9
$SHADEDGE
 70
     3
  9
$SHADEDIF
 70
    70
  9
$TILEMODE
 70
     1
  9
$MAXACTVP
 70
    64
  9
$PINSBASE
 10
0.0
 20
0.0
 30
0.0
  9
$PLIMCHECK
 70
     0
  9
$PEXTMIN
 10
1.000000000000000E+20
 20
1.000000000000000E+20
 30
1.000000000000000E+20
  9
$PEXTMAX
 10
-1.000000000000000E+20
 20
-1.000000000000000E+20
 30
-1.000000000000000E+20
  9
$PLIMMIN
 10
0.0
 20
0.0
  9
$PLIMMAX
 10
12.0
 20
9.0
  9
$UNITMODE
 70
     0
  9
$VISRETAIN
 70
     1
  9
$PLINEGEN
 70
     0
  9
$PSLTSCALE
 70
     1
  9
$TREEDEPTH
 70
  3020
  9
$CMLSTYLE
  2
Standard
  9
$CMLJUST
 70
     0
  9
$CMLSCALE
 40
1.0
  9
$PROXYGRAPHICS
 70
     1
  9
$MEASUREMENT
 70
     0
  9
$CELWEIGHT
370
    -1
  9
$ENDCAPS
280
     0
  9
$JOINSTYLE
280
     0
  9
$LWDISPLAY
290
     1
  9
$INSUNITS
 70
     4
  9
$HYPERLINKBASE
  1

  9
$STYLESHEET
  1

  9
$XEDIT
290
     1
  9
$CEPSNTYPE
380
     0
  9
$PSTYLEMODE
290
     1
  9
$FINGERPRINTGUID
  2
{1D78FDB9-0662-4887-95AE-119DFA3BB52A}
  9
$VERSIONGUID
  2
{FAEB1C32-E019-11D5-929B-00C0DF256EC4}
  9
$EXTNAMES
290
     1
  9
$PSVPSCALE
 40
0.0
  9
$OLESTARTUP
290
     0
  9
$SORTENTS
280
   127
  9
$INDEXCTL
280
     0
  9
$HIDETEXT
280
     1
  9
$XCLIPFRAME
290
     0
  9
$HALOGAP
280
     0
  9
$OBSCOLOR
 70
   257
  9
$OBSLTYPE
280
     0
  9
$INTERSECTIONDISPLAY
280
     0
  9
$INTERSECTIONCOLOR
 70
   257
  9
$DIMASSOC
280
     2
  9
$PROJECTNAME
  1

  0
ENDSEC
  0
SECTION
  2
CLASSES
  0
CLASS
  1
ACDBDICTIONARYWDFLT
  2
AcDbDictionaryWithDefault
  3
ObjectDBX Classes
 90
        0
 91
        4
280
     0
281
     0
  0
CLASS
  1
VISUALSTYLE
  2
AcDbVisualStyle
  3
ObjectDBX Classes
 90
     4095
 91
        4
280
     0
281
     0
  0
CLASS
  1
MATERIAL
  2
AcDbMaterial
  3
ObjectDBX Classes
 90
     1153
 91
        4
280
     0
281
     0
  0
CLASS
  1
WIPEOUT
  2
AcDbWipeout
  3
WipeOut|AutoCAD Express Tool|expresstools@autodesk.com
 90
      127
 91
        4
280
     0
281
     1
  0
CLASS
  1
SCALE
  2
AcDbScale
  3
ObjectDBX Classes
 90
     1153
 91
        4
280
     0
281
     0
  0
CLASS
  1
DICTIONARYVAR
  2
AcDbDictionaryVar
  3
ObjectDBX Classes
 90
        0
 91
        4
280
     0
281
     0
  0
ENDSEC
  0
SECTION
  2
TABLES
  0
TABLE
  2
VPORT
  5
8
330
0
100
AcDbSymbolTable
 70
     1
  0
VPORT
  5
29
330
8
100
AcDbSymbolTableRecord
100
AcDbViewportTableRecord
  2
*Active
 70
     0
 10
0.0
 20
0.0
 11
1.0
 21
1.0
 12
-51.05389521114679
 22
114.9566134844655
 13
0.0
 23
0.0
 14
0.5
 24
0.5
 15
0.5
 25
0.5
 16
0.0
 26
0.0
 36
1.0
 17
0.0
 27
0.0
 37
0.0
 40
255.0509155015581
 41
0.9391381333561333
 42
50.0
 43
0.0
 44
0.0
 50
0.0
 51
0.0
 71
     0
 72
   100
 73
     1
 74
     3
 75
     0
 76
     0
 77
     0
 78
     0
281
     0
 65
     1
110
0.0
120
0.0
130
0.0
111
1.0
121
0.0
131
0.0
112
0.0
122
1.0
132
0.0
 79
     0
146
0.0
  0
ENDTAB
  0
TABLE
  2
LTYPE
  5
5
330
0
100
AcDbSymbolTable
 70
     3
  0
LTYPE
  5
14
330
5
100
AcDbSymbolTableRecord
100
AcDbLinetypeTableRecord
  2
ByBlock
 70
     0
  3

 72
    65
 73
     0
 40
0.0
  0
LTYPE
  5
15
330
5
100
AcDbSymbolTableRecord
100
AcDbLinetypeTableRecord
  2
ByLayer
 70
     0
  3

 72
    65
 73
     0
 40
0.0
  0
LTYPE
  5
16
330
5
100
AcDbSymbolTableRecord
100
AcDbLinetypeTableRecord
  2
Continuous
 70
     0
  3
Solid line
 72
    65
 73
     0
 40
0.0
  0
LTYPE
  5
8F
330
5
100
AcDbSymbolTableRecord
100
AcDbLinetypeTableRecord
  2
Above
 70
     0
  3
- - - - - 
 72
    65
 73
     2
 40
15.0
 49
10.0
 74
     0
 49
-4.999999999999999
 74
     0
  0
LTYPE
  5
99
330
5
100
AcDbSymbolTableRecord
100
AcDbLinetypeTableRecord
  2
Wipeout_Contour
 70
     0
  3
- - - - - 
 72
    65
 73
     2
 40
1000.0
 49
0.0
 74
     0
 49
-1000.0
 74
     0
  0
ENDTAB
  0
TABLE
  2
LAYER
  5
2
330
0
100
AcDbSymbolTable
 70
     4
  0
LAYER
  5
10
330
2
100
AcDbSymbolTableRecord
100
AcDbLayerTableRecord
  2
0
 70
     0
 62
     7
  6
Continuous
370
    -3
390
F
  0
LAYER
  5
40
330
2
100
AcDbSymbolTableRecord
100
AcDbLayerTableRecord
  2
0_Pen_No__146
 70
     0
 62
     9
420
 13290186
  6
Continuous
370
     5
390
F
  0
LAYER
  5
47
330
2
100
AcDbSymbolTableRecord
100
AcDbLayerTableRecord
  2
0_Pen_No__1
 70
     0
 62
     7
  6
Continuous
370
    13
390
F
  0
LAYER
  5
9A
330
2
100
AcDbSymbolTableRecord
100
AcDbLayerTableRecord
  2
Key_ Sections_Pen_No__1
 70
     0
 62
     7
  6
Continuous
370
    13
390
F
  0
ENDTAB
  0
TABLE
  2
STYLE
  5
3
330
0
100
AcDbSymbolTable
 70
     2
  0
STYLE
  5
11
330
3
100
AcDbSymbolTableRecord
100
AcDbTextStyleTableRecord
  2
Standard
 70
     0
 40
0.0
 41
1.0
 50
0.0
 71
     0
 42
0.2
  3
txt
  4

  0
STYLE
  5
97
330
3
100
AcDbSymbolTableRecord
100
AcDbTextStyleTableRecord
  2
GENERATED_STYLE_1
 70
     0
 40
0.0
 41
1.0
 50
0.0
 71
     0
 42
0.2
  3

  4

1001
ACAD
1000
Arial
1071
       34
  0
ENDTAB
  0
TABLE
  2
VIEW
  5
6
330
0
100
AcDbSymbolTable
 70
     0
  0
ENDTAB
  0
TABLE
  2
UCS
  5
7
330
0
100
AcDbSymbolTable
 70
     0
  0
ENDTAB
  0
TABLE
  2
APPID
  5
9
330
0
100
AcDbSymbolTable
 70
     1
  0
APPID
  5
12
330
9
100
AcDbSymbolTableRecord
100
AcDbRegAppTableRecord
  2
ACAD
 70
     0
  0
ENDTAB
  0
TABLE
  2
DIMSTYLE
  5
A
330
0
100
AcDbSymbolTable
 70
     2
100
AcDbDimStyleTable
  0
DIMSTYLE
105
27
330
A
100
AcDbSymbolTableRecord
100
AcDbDimStyleTableRecord
  2
Standard
 70
     0
178
     0
340
11
  0
DIMSTYLE
105
9D
330
A
100
AcDbSymbolTableRecord
100
AcDbDimStyleTableRecord
  2
GENERATED_STYLE__1
 70
     0
 41
3.648
172
     1
178
     0
340
0
341
9E
  0
ENDTAB
  0
TABLE
  2
BLOCK_RECORD
  5
1
330
0
100
AcDbSymbolTable
 70
     3
  0
BLOCK_RECORD
  5
1F
330
1
100
AcDbSymbolTableRecord
100
AcDbBlockTableRecord
  2
*Model_Space
340
22
  0
BLOCK_RECORD
  5
1B
330
1
100
AcDbSymbolTableRecord
100
AcDbBlockTableRecord
  2
*Paper_Space
340
1E
  0
BLOCK_RECORD
  5
23
330
1
100
AcDbSymbolTableRecord
100
AcDbBlockTableRecord
  2
*Paper_Space0
340
26
  0
BLOCK_RECORD
  5
9E
330
1
100
AcDbSymbolTableRecord
100
AcDbBlockTableRecord
  2
ARROWHEAD_5
340
0
  0
BLOCK_RECORD
  5
B5
330
1
100
AcDbSymbolTableRecord
100
AcDbBlockTableRecord
  2
DF-11-R Finish at Soffit_STORY_MARKER
340
0
  0
ENDTAB
  0
ENDSEC
  0
SECTION
  2
BLOCKS
  0
BLOCK
  5
20
330
1F
100
AcDbEntity
  8
0
100
AcDbBlockBegin
  2
*Model_Space
 70
     0
 10
0.0
 20
0.0
 30
0.0
  3
*Model_Space
  1

  0
ENDBLK
  5
21
330
1F
100
AcDbEntity
  8
0
100
AcDbBlockEnd
  0
BLOCK
  5
1C
330
1B
100
AcDbEntity
 67
     1
  8
0
100
AcDbBlockBegin
  2
*Paper_Space
 70
     0
 10
0.0
 20
0.0
 30
0.0
  3
*Paper_Space
  1

  0
ENDBLK
  5
1D
330
1B
100
AcDbEntity
 67
     1
  8
0
100
AcDbBlockEnd
  0
BLOCK
  5
24
330
23
100
AcDbEntity
  8
0
100
AcDbBlockBegin
  2
*Paper_Space0
 70
     0
 10
0.0
 20
0.0
 30
0.0
  3
*Paper_Space0
  1

  0
ENDBLK
  5
25
330
23
100
AcDbEntity
  8
0
100
AcDbBlockEnd
  0
BLOCK
  5
9F
330
9E
100
AcDbEntity
  8
0
100
AcDbBlockBegin
  2
ARROWHEAD_5
 70
     0
 10
0.0
 20
0.0
 30
0.0
  3
ARROWHEAD_5
  1

  0
SOLID
  5
A1
330
9E
100
AcDbEntity
  8
0
  6
Continuous
 62
     0
370
     0
100
AcDbTrace
 10
-1.0
 20
0.2679
 30
0.0
 11
0.0
 21
0.0
 31
0.0
 12
-1.0
 22
-0.2679
 32
0.0
 13
-1.0
 23
0.2679
 33
0.0
  0
LINE
  5
A2
330
9E
100
AcDbEntity
  8
0
  6
Continuous
 62
     0
370
     0
100
AcDbLine
 10
0.0
 20
0.0
 30
0.0
 11
-1.0
 21
0.0
 31
0.0
  0
ENDBLK
  5
A0
330
9E
100
AcDbEntity
  8
0
100
AcDbBlockEnd
  0
BLOCK
  5
B6
330
B5
100
AcDbEntity
  8
0
100
AcDbBlockBegin
  2
DF-11-R Finish at Soffit_STORY_MARKER
 70
     0
 10
0.0
 20
0.0
 30
0.0
  3
DF-11-R Finish at Soffit_STORY_MARKER
  1

  0
ENDBLK
  5
B7
330
B5
100
AcDbEntity
  8
0
100
AcDbBlockEnd
  0
ENDSEC
  0
SECTION
  2
ENTITIES
  0
HATCH
  5
3F
330
1F
100
AcDbEntity
  8
0_Pen_No__146
  6
Continuous
100
AcDbHatch
 10
0.0
 20
0.0
 30
0.0
210
0.0
220
0.0
230
1.0
  2
SMALLDOTS
 70
     0
 71
     0
 91
        1
 92
        3
 72
     0
 73
     1
 93
        4
 10
-158.4012563394104
 20
168.1418844642526
 10
-3.170092011643755
 20
168.1418844642526
 10
-3.15592760465111
 20
178.6399313392526
 10
-158.4012563394104
 20
178.6399313392526
 97
        0
 75
     0
 76
     2
 52
0.0
 41
1.0
 77
     0
 78
     2
 53
45.0
 43
0.0
 44
0.0
 45
-4.772970773009195
 46
4.772970773009196
 79
     4
 49
0.0
 49
-4.5
 49
0.0
 49
-6.75
 53
110.0
 43
15.0
 44
0.0
 45
6.34292519030488
 46
2.308635967448266
 79
     4
 49
0.0
 49
-3.3
 49
0.0
 49
-5.700000000000001
 98
        0
  0
HATCH
  5
41
330
1F
100
AcDbEntity
  8
0_Pen_No__146
  6
Continuous
 62
   250
420
  3289650
370
     0
100
AcDbHatch
 10
0.0
 20
0.0
 30
0.0
210
0.0
220
0.0
230
1.0
  2
SOLID
 70
     1
 71
     0
 91
        1
 92
        3
 72
     0
 73
     1
 93
        4
 10
0.6374614000843604
 20
178.5285456590884
 10
0.6374614000843604
 20
133.5285456590887
 10
55.5111775922732
 20
133.5285456590887
 10
55.5111775922732
 20
178.5285456590886
 97
        0
 75
     0
 76
     1
 98
        0
  0
HATCH
  5
42
330
1F
100
AcDbEntity
  8
0_Pen_No__146
  6
Continuous
 62
   250
420
  3289650
370
     0
100
AcDbHatch
 10
0.0
 20
0.0
 30
0.0
210
0.0
220
0.0
230
1.0
  2
SOLID
 70
     1
 71
     0
 91
        1
 92
        3
 72
     0
 73
     1
 93
        4
 10
-17.77172463738053
 20
134.3081880393868
 10
-5.552550965137071
 20
134.3081880393868
 10
-5.552550965136849
 20
154.0606985651831
 10
-17.7717246373803
 20
154.0606985651831
 97
        0
 75
     0
 76
     1
 98
        0
  0
HATCH
  5
43
330
1F
100
AcDbEntity
  8
0_Pen_No__146
  6
Continuous
100
AcDbHatch
 10
0.0
 20
0.0
 30
0.0
210
0.0
220
0.0
230
1.0
  2
SMALLDOTS
 70
     0
 71
     0
 91
        1
 92
        3
 72
     1
 73
     1
 93
       10
 10
-25.6785620942328
 20
60.64326447850177
 42
0.0
 10
-10.6785620942329
 20
60.64326447850177
 42
-0.2372885156421136
 10
-25.6785620942328
 20
30.64326447850196
 42
0.0
 10
-25.6785620942328
 20
0.0
 42
0.0
 10
-18.67856209423291
 20
0.0
 42
0.0
 10
-18.67856209423291
 20
25.98833611689177
 42
0.257844251623281
 10
-3.678562094232785
 20
67.64326447850144
 42
0.0
 10
-18.67856209423291
 20
67.64326447850144
 42
0.0
 10
-18.67856209423291
 20
155.3334077552815
 42
0.0
 10
-25.6785620942328
 20
155.3334077552815
 42
0.0
 97
        0
 75
     0
 76
     2
 52
0.0
 41
1.0
 77
     0
 78
     2
 53
45.0
 43
0.0
 44
0.0
 45
-4.772970773009195
 46
4.772970773009196
 79
     4
 49
0.0
 49
-4.5
 49
0.0
 49
-6.75
 53
110.0
 43
15.0
 44
0.0
 45
6.34292519030488
 46
2.308635967448266
 79
     4
 49
0.0
 49
-3.3
 49
0.0
 49
-5.700000000000001
 98
        0
  0
HATCH
  5
44
330
1F
100
AcDbEntity
  8
0_Pen_No__146
  6
Continuous
 62
   250
420
  3289650
370
     0
100
AcDbHatch
 10
0.0
 20
0.0
 30
0.0
210
0.0
220
0.0
230
1.0
  2
SOLID
 70
     1
 71
     0
 91
        1
 92
        3
 72
     0
 73
     1
 93
        8
 10
-9.877572976371818
 20
161.3074336026714
 10
-9.877572976371596
 20
163.3074336016684
 10
-27.08176991631728
 20
163.3074336016684
 10
-27.08176991631728
 20
166.8064956141699
 10
-29.08176991631728
 20
166.8064956141699
 10
-29.08176991631728
 20
136.8060480378201
 10
-27.08176991631728
 20
136.8060480378201
 10
-27.08176991631728
 20
161.3074336016684
 97
        0
 75
     0
 76
     1
 98
        0
  0
HATCH
  5
45
330
1F
100
AcDbEntity
  8
0_Pen_No__146
  6
Continuous
 62
   250
420
  3289650
370
     0
100
AcDbHatch
 10
0.0
 20
0.0
 30
0.0
210
0.0
220
0.0
230
1.0
  2
SOLID
 70
     1
 71
     0
 91
        1
 92
        3
 72
     0
 73
     1
 93
       11
 10
-3.129060927252847
 20
165.5574336020473
 10
-18.12906106136336
 20
165.5574336020473
 10
-18.12906106136336
 20
163.5574336914544
 10
-5.129061240177535
 20
163.5574336914544
 10
-5.129061240177535
 20
161.0574336020473
 10
-18.12906106136336
 20
161.0574336020473
 10
-18.12906106136336
 20
159.0574336914544
 10
-11.70559631456414
 20
159.0574336914544
 10
-5.129061240177535
 20
158.4104259219816
 10
-5.129061240177535
 20
138.5574336020474
 10
-3.129060927252847
 20
138.5574336020474
 97
        0
 75
     0
 76
     1
 98
        0
  0
LWPOLYLINE
  5
46
330
1F
100
AcDbEntity
  8
0_Pen_No__1
  6
Continuous
100
AcDbPolyline
 90
        2
 70
   128
 43
0.0
 10
-158.4012563394104
 20
168.1418844642526
 10
-3.170092011643755
 20
168.1418844642526
  0
LWPOLYLINE
  5
48
330
1F
100
AcDbEntity
  8
0_Pen_No__1
  6
Continuous
100
AcDbPolyline
 90
        2
 70
   128
 43
0.0
 10
-3.170092011643755
 20
168.1418844642526
 10
-3.15592760465111
 20
178.6399313392526
  0
LWPOLYLINE
  5
49
330
1F
100
AcDbEntity
  8
0_Pen_No__1
  6
Continuous
100
AcDbPolyline
 90
        2
 70
   128
 43
0.0
 10
-3.15592760465111
 20
178.6399313392526
 10
-158.4012563394104
 20
178.6399313392526
  0
LWPOLYLINE
  5
4A
330
1F
100
AcDbEntity
  8
0_Pen_No__1
  6
Continuous
100
AcDbPolyline
 90
        2
 70
   128
 43
0.0
 10
-158.4012563394104
 20
178.6399313392526
 10
-158.4012563394104
 20
168.1418844642526
  0
LWPOLYLINE
  5
4B
330
1F
100
AcDbEntity
  8
0_Pen_No__1
  6
Continuous
100
AcDbPolyline
 90
        2
 70
   128
 43
0.0
 10
0.6374614000843604
 20
178.5285456590884
 10
0.6374614000843604
 20
133.5285456590887
  0
LWPOLYLINE
  5
4C
330
1F
100
AcDbEntity
  8
0_Pen_No__1
  6
Continuous
100
AcDbPolyline
 90
        2
 70
   128
 43
0.0
 10
0.6374614000843604
 20
133.5285456590887
 10
55.5111775922732
 20
133.5285456590887
  0
LWPOLYLINE
  5
4D
330
1F
100
AcDbEntity
  8
0_Pen_No__1
  6
Continuous
100
AcDbPolyline
 90
        2
 70
   128
 43
0.0
 10
55.5111775922732
 20
133.5285456590887
 10
55.5111775922732
 20
178.5285456590886
  0
LWPOLYLINE
  5
4E
330
1F
100
AcDbEntity
  8
0_Pen_No__1
  6
Continuous
100
AcDbPolyline
 90
        2
 70
   128
 43
0.0
 10
55.5111775922732
 20
178.5285456590886
 10
0.6374614000843604
 20
178.5285456590884
  0
LWPOLYLINE
  5
4F
330
1F
100
AcDbEntity
  8
0_Pen_No__1
  6
Continuous
100
AcDbPolyline
 90
        2
 70
   128
 43
0.0
 10
-17.77172463738053
 20
134.3081880393868
 10
-5.552550965137071
 20
134.3081880393868
  0
LWPOLYLINE
  5
50
330
1F
100
AcDbEntity
  8
0_Pen_No__1
  6
Continuous
100
AcDbPolyline
 90
        2
 70
   128
 43
0.0
 10
-5.552550965137071
 20
134.3081880393868
 10
-5.552550965136849
 20
154.0606985651831
  0
LWPOLYLINE
  5
51
330
1F
100
AcDbEntity
  8
0_Pen_No__1
  6
Continuous
100
AcDbPolyline
 90
        2
 70
   128
 43
0.0
 10
-5.552550965136849
 20
154.0606985651831
 10
-17.7717246373803
 20
154.0606985651831
  0
LWPOLYLINE
  5
52
330
1F
100
AcDbEntity
  8
0_Pen_No__1
  6
Continuous
100
AcDbPolyline
 90
        2
 70
   128
 43
0.0
 10
-17.7717246373803
 20
154.0606985651831
 10
-17.77172463738053
 20
134.3081880393868
  0
LWPOLYLINE
  5
53
330
1F
100
AcDbEntity
  8
0_Pen_No__1
  6
Continuous
100
AcDbPolyline
 90
        2
 70
   128
 43
0.0
 10
-25.6785620942328
 20
60.64326447850177
 10
-10.6785620942329
 20
60.64326447850177
  0
LWPOLYLINE
  5
54
330
1F
100
AcDbEntity
  8
0_Pen_No__1
  6
Continuous
100
AcDbPolyline
 90
        2
 70
   128
 43
0.0
 10
-25.6785620942328
 20
30.64326447850196
 10
-25.6785620942328
 20
0.0
  0
LWPOLYLINE
  5
55
330
1F
100
AcDbEntity
  8
0_Pen_No__1
  6
Continuous
100
AcDbPolyline
 90
        2
 70
   128
 43
0.0
 10
-25.6785620942328
 20
0.0
 10
-18.67856209423291
 20
0.0
  0
LWPOLYLINE
  5
56
330
1F
100
AcDbEntity
  8
0_Pen_No__1
  6
Continuous
100
AcDbPolyline
 90
        2
 70
   128
 43
0.0
 10
-18.67856209423291
 20
0.0
 10
-18.67856209423291
 20
25.98833611689177
  0
LWPOLYLINE
  5
57
330
1F
100
AcDbEntity
  8
0_Pen_No__1
  6
Continuous
100
AcDbPolyline
 90
        2
 70
   128
 43
0.0
 10
-3.678562094232785
 20
67.64326447850144
 10
-18.67856209423291
 20
67.64326447850144
  0
LWPOLYLINE
  5
58
330
1F
100
AcDbEntity
  8
0_Pen_No__1
  6
Continuous
100
AcDbPolyline
 90
        2
 70
   128
 43
0.0
 10
-18.67856209423291
 20
67.64326447850144
 10
-18.67856209423291
 20
155.2490114091272
  0
LWPOLYLINE
  5
59
330
1F
100
AcDbEntity
  8
0_Pen_No__1
  6
Continuous
100
AcDbPolyline
 90
        2
 70
   128
 43
0.0
 10
-18.67856209423291
 20
155.2490114091272
 10
-18.67856209423291
 20
147.988730705708
  0
LWPOLYLINE
  5
5A
330
1F
100
AcDbEntity
  8
0_Pen_No__1
  6
Continuous
100
AcDbPolyline
 90
        2
 70
   128
 43
0.0
 10
-18.67856209423291
 20
147.988730705708
 10
-18.67856209423291
 20
155.3334077552815
  0
LWPOLYLINE
  5
5B
330
1F
100
AcDbEntity
  8
0_Pen_No__1
  6
Continuous
100
AcDbPolyline
 90
        2
 70
   128
 43
0.0
 10
-18.67856209423291
 20
155.3334077552815
 10
-25.6785620942328
 20
155.3334077552815
  0
LWPOLYLINE
  5
5C
330
1F
100
AcDbEntity
  8
0_Pen_No__1
  6
Continuous
100
AcDbPolyline
 90
        2
 70
   128
 43
0.0
 10
-25.6785620942328
 20
155.3334077552815
 10
-25.6785620942328
 20
147.988730705708
  0
LWPOLYLINE
  5
5D
330
1F
100
AcDbEntity
  8
0_Pen_No__1
  6
Continuous
100
AcDbPolyline
 90
        2
 70
   128
 43
0.0
 10
-25.6785620942328
 20
147.988730705708
 10
-25.6785620942328
 20
155.2490114091272
  0
LWPOLYLINE
  5
5E
330
1F
100
AcDbEntity
  8
0_Pen_No__1
  6
Continuous
100
AcDbPolyline
 90
        2
 70
   128
 43
0.0
 10
-25.6785620942328
 20
155.2490114091272
 10
-25.6785620942328
 20
60.64326447850177
  0
LWPOLYLINE
  5
5F
330
1F
100
AcDbEntity
  8
0_Pen_No__1
  6
Continuous
100
AcDbPolyline
 90
        2
 70
   128
 43
0.0
 10
-25.6785620942328
 20
30.64326447850196
 42
0.2372885156421135
 10
-10.6785620942329
 20
60.64326447850177
  0
LWPOLYLINE
  5
60
330
1F
100
AcDbEntity
  8
0_Pen_No__1
  6
Continuous
100
AcDbPolyline
 90
        2
 70
   128
 43
0.0
 10
-18.67856209423291
 20
25.98833611689177
 42
0.2578442516232808
 10
-3.678562094232785
 20
67.64326447850144
  0
LWPOLYLINE
  5
61
330
1F
100
AcDbEntity
  8
0_Pen_No__1
  6
Continuous
100
AcDbPolyline
 90
        2
 70
   128
 43
0.0
 10
-158.4012563394104
 20
83.25536983202397
 10
-158.4012563394104
 20
156.0906929475645
  0
LWPOLYLINE
  5
62
330
1F
100
AcDbEntity
  8
0_Pen_No__1
  6
Continuous
100
AcDbPolyline
 90
        2
 70
   128
 43
0.0
 10
-158.4012563394104
 20
156.0906929475645
 10
-168.46960143414
 20
156.9281965686375
  0
LWPOLYLINE
  5
63
330
1F
100
AcDbEntity
  8
0_Pen_No__1
  6
Continuous
100
AcDbPolyline
 90
        2
 70
   128
 43
0.0
 10
-168.46960143414
 20
156.9281965686375
 10
-148.8300734723136
 20
158.4131867419594
  0
LWPOLYLINE
  5
64
330
1F
100
AcDbEntity
  8
0_Pen_No__1
  6
Continuous
100
AcDbPolyline
 90
        2
 70
   128
 43
0.0
 10
-148.8300734723136
 20
158.4131867419594
 10
-158.4012563394104
 20
159.4679181085543
  0
LWPOLYLINE
  5
65
330
1F
100
AcDbEntity
  8
0_Pen_No__1
  6
Continuous
100
AcDbPolyline
 90
        2
 70
   128
 43
0.0
 10
-158.4012563394104
 20
159.4679181085543
 10
-158.4012563394104
 20
224.2874337649729
  0
LWPOLYLINE
  5
66
330
1F
100
AcDbEntity
  8
0_Pen_No__1
  6
Continuous
100
AcDbPolyline
 90
        2
 70
   128
 43
0.0
 10
-93.4807318698574
 20
0.0
 10
-10.93082843843907
 20
0.0
  0
LWPOLYLINE
  5
67
330
1F
100
AcDbEntity
  8
0_Pen_No__1
  6
Continuous
100
AcDbPolyline
 90
        2
 70
   128
 43
0.0
 10
-10.93082843843907
 20
0.0
 10
-9.981620827547166
 20
-10.06834509472965
  0
LWPOLYLINE
  5
68
330
1F
100
AcDbEntity
  8
0_Pen_No__1
  6
Continuous
100
AcDbPolyline
 90
        2
 70
   128
 43
0.0
 10
-9.981620827547166
 20
-10.06834509472965
 10
-8.298566642288119
 20
9.571182867096795
  0
LWPOLYLINE
  5
69
330
1F
100
AcDbEntity
  8
0_Pen_No__1
  6
Continuous
100
AcDbPolyline
 90
        2
 70
   128
 43
0.0
 10
-8.298566642288119
 20
9.571182867096795
 10
-7.103158030996815
 20
0.0
  0
LWPOLYLINE
  5
6A
330
1F
100
AcDbEntity
  8
0_Pen_No__1
  6
Continuous
100
AcDbPolyline
 90
        2
 70
   128
 43
0.0
 10
-7.103158030996815
 20
0.0
 10
66.36181101184646
 20
0.0
  0
LWPOLYLINE
  5
6B
330
1F
100
AcDbEntity
  8
0_Pen_No__1
  6
Continuous
100
AcDbPolyline
 90
        2
 70
   128
 43
0.0
 10
55.5111775922732
 20
83.25536983202397
 10
55.5111775922732
 20
156.0906929475645
  0
LWPOLYLINE
  5
6C
330
1F
100
AcDbEntity
  8
0_Pen_No__1
  6
Continuous
100
AcDbPolyline
 90
        2
 70
   128
 43
0.0
 10
55.5111775922732
 20
156.0906929475645
 10
45.44283249754333
 20
156.9281965686375
  0
LWPOLYLINE
  5
6D
330
1F
100
AcDbEntity
  8
0_Pen_No__1
  6
Continuous
100
AcDbPolyline
 90
        2
 70
   128
 43
0.0
 10
45.44283249754333
 20
156.9281965686375
 10
65.08236045937
 20
158.4131867419594
  0
LWPOLYLINE
  5
6E
330
1F
100
AcDbEntity
  8
0_Pen_No__1
  6
Continuous
100
AcDbPolyline
 90
        2
 70
   128
 43
0.0
 10
65.08236045937
 20
158.4131867419594
 10
55.5111775922732
 20
159.4679181085543
  0
LWPOLYLINE
  5
6F
330
1F
100
AcDbEntity
  8
0_Pen_No__1
  6
Continuous
100
AcDbPolyline
 90
        2
 70
   128
 43
0.0
 10
55.5111775922732
 20
159.4679181085543
 10
55.5111775922732
 20
224.2874337649729
  0
LWPOLYLINE
  5
70
330
1F
100
AcDbEntity
  8
0_Pen_No__1
  6
Continuous
100
AcDbPolyline
 90
        2
 70
   128
 43
0.0
 10
-25.58200348401662
 20
140.283417442471
 10
-26.58927368668462
 20
140.283417442471
  0
LWPOLYLINE
  5
71
330
1F
100
AcDbEntity
  8
0_Pen_No__1
  6
Continuous
100
AcDbPolyline
 90
        2
 70
   128
 43
0.0
 10
-26.58927368668462
 20
140.283417442471
 10
-26.58927368668462
 20
144.7016404999582
  0
LWPOLYLINE
  5
72
330
1F
100
AcDbEntity
  8
0_Pen_No__1
  6
Continuous
100
AcDbPolyline
 90
        2
 70
   128
 43
0.0
 10
-24.4832731468938
 20
143.3841393679924
 10
-25.58200348401662
 20
140.283417442471
  0
LWPOLYLINE
  5
73
330
1F
100
AcDbEntity
  8
0_Pen_No__1
  6
Continuous
100
AcDbPolyline
 90
        2
 70
   128
 43
0.0
 10
15.02657436618837
 20
143.4419155909672
 10
18.41089732331502
 20
144.7016404999582
  0
LWPOLYLINE
  5
74
330
1F
100
AcDbEntity
  8
0_Pen_No__1
  6
Continuous
100
AcDbPolyline
 90
        2
 70
   128
 43
0.0
 10
-24.4832731468938
 20
143.3841393679924
 10
15.02657436618837
 20
143.4419155909672
  0
LWPOLYLINE
  5
75
330
1F
100
AcDbEntity
  8
0_Pen_No__1
  6
Continuous
100
AcDbPolyline
 90
        2
 70
   128
 43
0.0
 10
-25.58200348401662
 20
149.1198635574453
 10
-26.58927368668462
 20
149.1198635574453
  0
LWPOLYLINE
  5
76
330
1F
100
AcDbEntity
  8
0_Pen_No__1
  6
Continuous
100
AcDbPolyline
 90
        2
 70
   128
 43
0.0
 10
-26.58927368668462
 20
149.1198635574453
 10
-26.58927368668462
 20
144.7016404999582
  0
LWPOLYLINE
  5
77
330
1F
100
AcDbEntity
  8
0_Pen_No__1
  6
Continuous
100
AcDbPolyline
 90
        2
 70
   128
 43
0.0
 10
-24.4832731468938
 20
146.0191416318592
 10
-25.58200348401662
 20
149.1198635574453
  0
LWPOLYLINE
  5
78
330
1F
100
AcDbEntity
  8
0_Pen_No__1
  6
Continuous
100
AcDbPolyline
 90
        2
 70
   128
 43
0.0
 10
15.02657436618837
 20
145.9613654088843
 10
18.41089732331502
 20
144.7016404999582
  0
LWPOLYLINE
  5
79
330
1F
100
AcDbEntity
  8
0_Pen_No__1
  6
Continuous
100
AcDbPolyline
 90
        2
 70
   128
 43
0.0
 10
-24.4832731468938
 20
146.0191416318592
 10
15.02657436618837
 20
145.9613654088843
  0
LWPOLYLINE
  5
7A
330
1F
100
AcDbEntity
  8
0_Pen_No__1
  6
Continuous
100
AcDbPolyline
 90
        2
 70
   128
 43
0.0
 10
-9.877572976371818
 20
161.3074336026714
 10
-9.877572976371596
 20
163.3074336016684
  0
LWPOLYLINE
  5
7B
330
1F
100
AcDbEntity
  8
0_Pen_No__1
  6
Continuous
100
AcDbPolyline
 90
        2
 70
   128
 43
0.0
 10
-9.877572976371596
 20
163.3074336016684
 10
-27.08176991631728
 20
163.3074336016684
  0
LWPOLYLINE
  5
7C
330
1F
100
AcDbEntity
  8
0_Pen_No__1
  6
Continuous
100
AcDbPolyline
 90
        2
 70
   128
 43
0.0
 10
-27.08176991631728
 20
163.3074336016684
 10
-27.08176991631728
 20
166.8064956141699
  0
LWPOLYLINE
  5
7D
330
1F
100
AcDbEntity
  8
0_Pen_No__1
  6
Continuous
100
AcDbPolyline
 90
        2
 70
   128
 43
0.0
 10
-27.08176991631728
 20
166.8064956141699
 10
-29.08176991631728
 20
166.8064956141699
  0
LWPOLYLINE
  5
7E
330
1F
100
AcDbEntity
  8
0_Pen_No__1
  6
Continuous
100
AcDbPolyline
 90
        2
 70
   128
 43
0.0
 10
-29.08176991631728
 20
166.8064956141699
 10
-29.08176991631728
 20
136.8060480378201
  0
LWPOLYLINE
  5
7F
330
1F
100
AcDbEntity
  8
0_Pen_No__1
  6
Continuous
100
AcDbPolyline
 90
        2
 70
   128
 43
0.0
 10
-29.08176991631728
 20
136.8060480378201
 10
-27.08176991631728
 20
136.8060480378201
  0
LWPOLYLINE
  5
80
330
1F
100
AcDbEntity
  8
0_Pen_No__1
  6
Continuous
100
AcDbPolyline
 90
        2
 70
   128
 43
0.0
 10
-27.08176991631728
 20
136.8060480378201
 10
-27.08176991631728
 20
161.3074336016684
  0
LWPOLYLINE
  5
81
330
1F
100
AcDbEntity
  8
0_Pen_No__1
  6
Continuous
100
AcDbPolyline
 90
        2
 70
   128
 43
0.0
 10
-27.08176991631728
 20
161.3074336016684
 10
-9.877572976371818
 20
161.3074336026714
  0
LWPOLYLINE
  5
82
330
1F
100
AcDbEntity
  8
0_Pen_No__1
  6
Continuous
100
AcDbPolyline
 90
        2
 70
   128
 43
0.0
 10
-3.129061059991667
 20
165.5574336020473
 10
-11.70559636621471
 20
165.5574336020473
  0
LWPOLYLINE
  5
83
330
1F
100
AcDbEntity
  8
0_Pen_No__1
  6
Continuous
100
AcDbPolyline
 90
        2
 70
   128
 43
0.0
 10
-11.70559636621471
 20
165.5574336020473
 10
-18.12906105999157
 20
165.5574336020473
  0
LWPOLYLINE
  5
84
330
1F
100
AcDbEntity
  8
0_Pen_No__1
  6
Continuous
100
AcDbPolyline
 90
        2
 70
   128
 43
0.0
 10
-18.12906105999157
 20
165.5574336020473
 10
-18.12906105999157
 20
163.5574336020473
  0
LWPOLYLINE
  5
85
330
1F
100
AcDbEntity
  8
0_Pen_No__1
  6
Continuous
100
AcDbPolyline
 90
        2
 70
   128
 43
0.0
 10
-18.12906105999157
 20
163.5574336020473
 10
-5.129061059991447
 20
163.5574336020473
  0
LWPOLYLINE
  5
86
330
1F
100
AcDbEntity
  8
0_Pen_No__1
  6
Continuous
100
AcDbPolyline
 90
        2
 70
   128
 43
0.0
 10
-5.129061059991447
 20
163.5574336020473
 10
-5.129061059991447
 20
161.0574336020474
  0
LWPOLYLINE
  5
87
330
1F
100
AcDbEntity
  8
0_Pen_No__1
  6
Continuous
100
AcDbPolyline
 90
        2
 70
   128
 43
0.0
 10
-5.129061059991447
 20
161.0574336020474
 10
-11.26703447811228
 20
161.0574336020474
  0
LWPOLYLINE
  5
88
330
1F
100
AcDbEntity
  8
0_Pen_No__1
  6
Continuous
100
AcDbPolyline
 90
        2
 70
   128
 43
0.0
 10
-11.26703447811228
 20
161.0574336020474
 10
-18.12906105999157
 20
161.0574336020474
  0
LWPOLYLINE
  5
89
330
1F
100
AcDbEntity
  8
0_Pen_No__1
  6
Continuous
100
AcDbPolyline
 90
        2
 70
   128
 43
0.0
 10
-18.12906105999157
 20
161.0574336020474
 10
-18.12906106136336
 20
159.0574336020474
  0
LWPOLYLINE
  5
8A
330
1F
100
AcDbEntity
  8
0_Pen_No__1
  6
Continuous
100
AcDbPolyline
 90
        2
 70
   128
 43
0.0
 10
-18.12906106136336
 20
159.0574336020474
 10
-11.70559636621471
 20
159.0574336011448
  0
LWPOLYLINE
  5
8B
330
1F
100
AcDbEntity
  8
0_Pen_No__1
  6
Continuous
100
AcDbPolyline
 90
        2
 70
   128
 43
0.0
 10
-11.70559636621471
 20
159.0574336011448
 10
-5.129061059991447
 20
158.410425935686
  0
LWPOLYLINE
  5
8C
330
1F
100
AcDbEntity
  8
0_Pen_No__1
  6
Continuous
100
AcDbPolyline
 90
        2
 70
   128
 43
0.0
 10
-5.129061059991447
 20
158.410425935686
 10
-5.129061059991669
 20
138.5574336020474
  0
LWPOLYLINE
  5
8D
330
1F
100
AcDbEntity
  8
0_Pen_No__1
  6
Continuous
100
AcDbPolyline
 90
        2
 70
   128
 43
0.0
 10
-5.129061059991669
 20
138.5574336020474
 10
-3.129061059991667
 20
138.5574336020474
  0
LWPOLYLINE
  5
8E
330
1F
100
AcDbEntity
  8
0_Pen_No__1
  6
Continuous
100
AcDbPolyline
 90
        2
 70
   128
 43
0.0
 10
-3.129061059991667
 20
138.5574336020474
 10
-3.129061059991667
 20
165.5574336020473
  0
LWPOLYLINE
  5
90
330
1F
100
AcDbEntity
  8
0_Pen_No__1
  6
Above
100
AcDbPolyline
 90
        2
 70
   128
 43
0.0
 10
-1.99999999999978
 20
0.0
 10
-2.000000000000002
 20
178.5285456590884
  0
LWPOLYLINE
  5
91
330
1F
100
AcDbEntity
  8
0_Pen_No__1
  6
Continuous
100
AcDbPolyline
 90
        2
 70
   128
 43
0.0
 10
0.0
 20
0.0
 10
0.0
 20
178.5285456590884
  0
LWPOLYLINE
  5
92
330
1F
100
AcDbEntity
  8
0_Pen_No__1
  6
Continuous
100
AcDbPolyline
 90
        2
 70
   128
 43
0.0
 10
0.6374614000843604
 20
178.5285456590884
 10
55.51117759227342
 20
160.8905654544564
  0
LWPOLYLINE
  5
93
330
1F
100
AcDbEntity
  8
0_Pen_No__1
  6
Continuous
100
AcDbPolyline
 90
        2
 70
   128
 43
0.0
 10
0.6374614000843604
 20
133.5285456590887
 10
55.5111775922732
 20
151.1665258637209
  0
LWPOLYLINE
  5
94
330
1F
100
AcDbEntity
  8
0_Pen_No__1
  6
Continuous
100
AcDbPolyline
 90
        2
 70
   128
 43
0.0
 10
0.6374614000843604
 20
133.5285456590887
 10
55.5111775922732
 20
133.5285456590887
  0
LWPOLYLINE
  5
95
330
1F
100
AcDbEntity
  8
0_Pen_No__1
  6
Continuous
100
AcDbPolyline
 90
        2
 70
   128
 43
0.0
 10
0.6374614000843604
 20
178.5285456590884
 10
55.5111775922732
 20
178.5285456590884
  0
LWPOLYLINE
  5
96
330
1F
100
AcDbEntity
  8
0_Pen_No__1
  6
Continuous
100
AcDbPolyline
 90
        2
 70
   128
 43
0.0
 10
-17.77172463738053
 20
134.3081880393868
 10
-5.552550965136849
 20
154.0606985651831
  0
WIPEOUT
  5
98
330
1F
100
AcDbEntity
  8
Key_ Sections_Pen_No__1
  6
Wipeout_Contour
 48
977.5961995072336
 92
      296
310
28010000060000000C0000000E000000120000000C00000016000000000000C20C00000014000000010000006C0000000700000004000000AB932DA6BEBF5BC0E002D10969FF6D4000000000000000000344B5B0B80E44C0E002D10969FF6D4000000000000000000344B5B0B80E44C0BE27D78AFE7E6B4000000000000000
310
00AB932DA6BEBF5BC0BE27D78AFE7E6B4000000000000000000C0000000E00000007000000840000000600000005000000AB932DA6BEBF5BC0E002D10969FF6D4000000000000000000344B5B0B80E44C0E002D10969FF6D4000000000000000000344B5B0B80E44C0BE27D78AFE7E6B400000000000000000AB932DA6BEBF
310
5BC0BE27D78AFE7E6B400000000000000000AB932DA6BEBF5BC0E002D10969FF6D400000000000000000
100
AcDbWipeout
 90
        0
 10
-110.9960112996184
 20
219.9685720636607
 30
0.0
 11
70.881
 21
0.0
 31
0.0
 12
0.0
 22
20.01299999999998
 32
0.0
 13
1.0
 23
1.0
340
0
 70
    15
280
     1
281
    50
282
    50
283
     0
360
0
 71
     2
 91
        5
 14
-0.5
 24
-0.5
 14
0.4999999999999999
 24
-0.5
 14
0.4999999999999999
 24
0.5
 14
-0.5
 24
0.5
 14
-0.5
 24
-0.5
  0
MTEXT
  5
9B
102
{ACAD_REACTORS
330
9C
102
}
330
1F
100
AcDbEntity
  8
Key_ Sections_Pen_No__1
  6
Continuous
100
AcDbMText
 10
-42.11501129961836
 20
229.6549949024024
 30
0.0
 40
4.999999999999999
 41
66.881
 71
     6
 72
     1
  1
{Palliside 2 part \Pchannel base and cap}
  7
GENERATED_STYLE_1
 73
     1
 44
0.4791170684366272
  0
LEADER
  5
9C
330
1F
100
AcDbEntity
  8
Key_ Sections_Pen_No__1
  6
Continuous
100
AcDbLeader
  3
GENERATED_STYLE__1
 72
     1
 73
     0
 40
14.37986681531252
 41
54.31
 76
     3
 10
-22.25805217040672
 20
163.3074336016684
 30
0.0
 10
-33.59317491403102
 20
228.4473976269116
 30
0.0
 10
-42.02501129961836
 20
229.6549949024024
 30
0.0
340
9B
  0
WIPEOUT
  5
A3
330
1F
100
AcDbEntity
  8
Key_ Sections_Pen_No__1
  6
Wipeout_Contour
 48
941.5689795016565
 92
      296
310
28010000060000000C0000000E000000120000000C00000016000000000000C20C00000014000000010000006C000000070000000400000014D349BE24995FC04118511F94D46A40000000000000000056332F8F474456C04118511F94D46A40000000000000000056332F8F474456C0625942836054694000000000000000
310
0014D349BE24995FC0625942836054694000000000000000000C0000000E0000000700000084000000060000000500000014D349BE24995FC04118511F94D46A40000000000000000056332F8F474456C04118511F94D46A40000000000000000056332F8F474456C06259428360546940000000000000000014D349BE2499
310
5FC06259428360546940000000000000000014D349BE24995FC04118511F94D46A400000000000000000
100
AcDbWipeout
 90
        0
 10
-126.3928676339095
 20
202.6367813392527
 30
0.0
 11
37.32599999999999
 21
0.0
 31
0.0
 12
0.0
 22
12.00629999999998
 32
0.0
 13
1.0
 23
1.0
340
0
 70
    15
280
     1
281
    50
282
    50
283
     0
360
0
 71
     2
 91
        5
 14
-0.5
 24
-0.4999999999999988
 14
0.5
 24
-0.4999999999999988
 14
0.5
 24
0.5000000000000012
 14
-0.5
 24
0.5000000000000012
 14
-0.5
 24
-0.4999999999999988
  0
MTEXT
  5
A4
102
{ACAD_REACTORS
330
A5
102
}
330
1F
100
AcDbEntity
  8
Key_ Sections_Pen_No__1
  6
Continuous
100
AcDbMText
 10
-91.06686763390948
 20
208.2802241963955
 30
0.0
 40
4.999999999999998
 41
33.326
 71
     6
 72
     1
  1
{Soffit lining}
  7
GENERATED_STYLE_1
 73
     1
 44
1.0
  0
LEADER
  5
A5
330
1F
100
AcDbEntity
  8
Key_ Sections_Pen_No__1
  6
Continuous
100
AcDbLeader
  3
GENERATED_STYLE__1
 72
     1
 73
     0
 40
6.549999999999997
 41
33.34999999999999
 76
     3
 10
-70.9926918077064
 20
178.6399313392526
 30
0.0
 10
-77.62311437817459
 20
204.6452838945637
 30
0.0
 10
-90.97686763390948
 20
208.2802241963955
 30
0.0
340
A4
  0
WIPEOUT
  5
A6
330
1F
100
AcDbEntity
  8
Key_ Sections_Pen_No__1
  6
Wipeout_Contour
 48
625.4243471556982
 92
      296
310
28010000060000000C0000000E000000120000000C00000016000000000000C20C00000014000000010000006C0000000700000004000000FE21443A488461C09DFE26504E715E4000000000000000007E7362A13FA64EC09DFE26504E715E4000000000000000007E7362A13FA64EC0DE800918E7705B4000000000000000
310
00FE21443A488461C0DE800918E7705B4000000000000000000C0000000E00000007000000840000000600000005000000FE21443A488461C09DFE26504E715E4000000000000000007E7362A13FA64EC09DFE26504E715E4000000000000000007E7362A13FA64EC0DE800918E7705B400000000000000000FE21443A4884
310
61C0DE800918E7705B400000000000000000FE21443A488461C09DFE26504E715E400000000000000000
100
AcDbWipeout
 90
        0
 10
-140.1338168459624
 20
109.7641048519904
 30
0.0
 11
78.83499999999999
 21
0.0
 31
0.0
 12
0.0
 22
12.0063
 32
0.0
 13
1.0
 23
1.0
340
0
 70
    15
280
     1
281
    50
282
    50
283
     0
360
0
 71
     2
 91
        5
 14
-0.4999999999999999
 24
-0.4999999999999994
 14
0.5000000000000001
 24
-0.4999999999999994
 14
0.5000000000000001
 24
0.5000000000000006
 14
-0.4999999999999999
 24
0.5000000000000006
 14
-0.4999999999999999
 24
-0.4999999999999994
  0
MTEXT
  5
A7
102
{ACAD_REACTORS
330
A8
102
}
330
1F
100
AcDbEntity
  8
Key_ Sections_Pen_No__1
  6
Continuous
100
AcDbMText
 10
-63.29881684596238
 20
116.0881191377047
 30
0.0
 40
4.999999999999999
 41
74.835
 71
     6
 72
     1
  1
{Palliside nail face sealed}
  7
GENERATED_STYLE_1
 73
     1
 44
1.0
  0
LEADER
  5
A8
330
1F
100
AcDbEntity
  8
Key_ Sections_Pen_No__1
  6
Continuous
100
AcDbLeader
  3
GENERATED_STYLE__1
 72
     1
 73
     0
 40
13.49833333333333
 41
53.08499999999999
 76
     3
 10
-18.67856209423291
 20
143.3875096037198
 30
0.0
 10
-48.51703313516674
 20
119.190139405016
 30
0.0
 10
-63.20881684596237
 20
116.0881191377047
 30
0.0
340
A7
  0
WIPEOUT
  5
A9
330
1F
100
AcDbEntity
  8
Key_ Sections_Pen_No__1
  6
Wipeout_Contour
 48
526.2128882539271
 92
      296
310
28010000060000000C0000000E000000120000000C00000016000000000000C20C00000014000000010000006C000000070000000400000053E26145B3B35AC0ECBCB09C2D6B5A400000000000000000AAEF4AA13FA64EC0ECBCB09C2D6B5A400000000000000000AAEF4AA13FA64EC02D3F9364C66A574000000000000000
310
0053E26145B3B35AC02D3F9364C66A574000000000000000000C0000000E0000000700000084000000060000000500000053E26145B3B35AC0ECBCB09C2D6B5A400000000000000000AAEF4AA13FA64EC0ECBCB09C2D6B5A400000000000000000AAEF4AA13FA64EC02D3F9364C66A5740000000000000000053E26145B3B3
310
5AC02D3F9364C66A5740000000000000000053E26145B3B35AC0ECBCB09C2D6B5A400000000000000000
100
AcDbWipeout
 90
        0
 10
-106.8078168350124
 20
93.66835893992966
 30
0.0
 11
45.50899999999999
 21
0.0
 31
0.0
 12
0.0
 22
12.0063
 32
0.0
 13
1.0
 23
1.0
340
0
 70
    15
280
     1
281
    50
282
    50
283
     0
360
0
 71
     2
 91
        5
 14
-0.5
 24
-0.5000000000000006
 14
0.5
 24
-0.5000000000000006
 14
0.5
 24
0.4999999999999994
 14
-0.5
 24
0.4999999999999994
 14
-0.5
 24
-0.5000000000000006
  0
MTEXT
  5
AA
102
{ACAD_REACTORS
330
AB
102
}
330
1F
100
AcDbEntity
  8
Key_ Sections_Pen_No__1
  6
Continuous
100
AcDbMText
 10
-63.29881683501237
 20
99.99237322564395
 30
0.0
 40
4.999999999999998
 41
41.509
 71
     6
 72
     1
  1
{Packer to suit}
  7
GENERATED_STYLE_1
 73
     1
 44
1.0
  0
LEADER
  5
AB
330
1F
100
AcDbEntity
  8
Key_ Sections_Pen_No__1
  6
Continuous
100
AcDbLeader
  3
GENERATED_STYLE__1
 72
     1
 73
     0
 40
13.41333333333333
 41
28.67999999999999
 76
     3
 10
-11.6621378012588
 20
134.3081880393868
 30
0.0
 10
-48.75486921853439
 20
103.1911963643768
 30
0.0
 10
-63.20881683501237
 20
99.99237322564395
 30
0.0
340
AA
  0
WIPEOUT
  5
AC
330
1F
100
AcDbEntity
  8
Key_ Sections_Pen_No__1
  6
Wipeout_Contour
 48
477.1293174299566
 92
      296
310
28010000060000000C0000000E000000120000000C00000016000000000000C20C00000014000000010000006C000000070000000400000076BD5BC41DB85FC0AFE576720DF754400000000000000000AAEF4AA13FA64EC0AFE576720DF754400000000000000000AAEF4AA13FA64EC07E7B604DACEB4B4000000000000000
310
0076BD5BC41DB85FC07E7B604DACEB4B4000000000000000000C0000000E0000000700000084000000060000000500000076BD5BC41DB85FC0AFE576720DF754400000000000000000AAEF4AA13FA64EC0AFE576720DF754400000000000000000AAEF4AA13FA64EC07E7B604DACEB4B40000000000000000076BD5BC41DB8
310
5FC07E7B604DACEB4B40000000000000000076BD5BC41DB85FC0AFE576720DF754400000000000000000
100
AcDbWipeout
 90
        0
 10
-126.8768168350124
 20
55.84119574748091
 30
0.0
 11
65.57799999999999
 21
0.0
 31
0.0
 12
0.0
 22
28.01900000000001
 32
0.0
 13
1.0
 23
1.0
340
0
 70
    15
280
     1
281
    50
282
    50
283
     0
360
0
 71
     2
 91
        5
 14
-0.4999999999999999
 24
-0.5
 14
0.5000000000000001
 24
-0.5
 14
0.5000000000000001
 24
0.5
 14
-0.4999999999999999
 24
0.5
 14
-0.4999999999999999
 24
-0.5
  0
MTEXT
  5
AD
102
{ACAD_REACTORS
330
AE
102
}
330
1F
100
AcDbEntity
  8
Key_ Sections_Pen_No__1
  6
Continuous
100
AcDbMText
 10
-63.29881683501237
 20
70.17161285353569
 30
0.0
 40
4.999999999999999
 41
61.578
 71
     6
 72
     1
  1
{Palliside Rusticated \Pweatherboard fixed \Pwith Palliside nails}
  7
GENERATED_STYLE_1
 73
     1
 44
0.955815461076037
  0
LEADER
  5
AE
330
1F
100
AcDbEntity
  8
Key_ Sections_Pen_No__1
  6
Continuous
100
AcDbLeader
  3
GENERATED_STYLE__1
 72
     1
 73
     0
 40
21.09150199879208
 41
59.84999999999999
 76
     2
 10
-25.6785620942328
 20
69.85069574748091
 30
0.0
 10
-63.20881683501237
 20
70.17161285353569
 30
0.0
340
AD
  0
WIPEOUT
  5
AF
330
1F
100
AcDbEntity
  8
Key_ Sections_Pen_No__1
  6
Wipeout_Contour
 48
417.1566961768625
 92
      296
310
28010000060000000C0000000E000000120000000C00000016000000000000C20C00000014000000010000006C0000000700000004000000B5DCD7D1B67260C0F72E14C3BAB048400000000000000000DB1E7CA13FA64EC0F72E14C3BAB048400000000000000000DB1E7CA13FA64EC030BE0D57985C354000000000000000
310
00B5DCD7D1B67260C030BE0D57985C354000000000000000000C0000000E00000007000000840000000600000005000000B5DCD7D1B67260C0F72E14C3BAB048400000000000000000DB1E7CA13FA64EC0F72E14C3BAB048400000000000000000DB1E7CA13FA64EC030BE0D57985C35400000000000000000B5DCD7D1B672
310
60C030BE0D57985C35400000000000000000B5DCD7D1B67260C0F72E14C3BAB048400000000000000000
100
AcDbWipeout
 90
        0
 10
-131.5848168579156
 20
21.36169952474137
 30
0.0
 11
70.286
 21
0.0
 31
0.0
 12
0.0
 22
28.019
 32
0.0
 13
1.0
 23
1.0
340
0
 70
    15
280
     1
281
    50
282
    50
283
     0
360
0
 71
     2
 91
        5
 14
-0.5
 24
-0.4999999999999999
 14
0.5000000000000001
 24
-0.4999999999999999
 14
0.5000000000000001
 24
0.5000000000000001
 14
-0.5
 24
0.5000000000000001
 14
-0.5
 24
-0.4999999999999999
  0
MTEXT
  5
B0
102
{ACAD_REACTORS
330
B1
102
}
330
1F
100
AcDbEntity
  8
Key_ Sections_Pen_No__1
  6
Continuous
100
AcDbMText
 10
-63.2988168579156
 20
35.01154520222472
 30
0.0
 40
4.999999999999998
 41
66.286
 71
     6
 72
     1
  1
{Absorbent breather \Ptype building underlay\P correctly lapped}
  7
GENERATED_STYLE_1
 73
     1
 44
0.6398639104622983
  0
LEADER
  5
B1
330
1F
100
AcDbEntity
  8
Key_ Sections_Pen_No__1
  6
Continuous
100
AcDbLeader
  3
GENERATED_STYLE__1
 72
     1
 73
     0
 40
22.46159776155745
 41
59.84499999999998
 76
     2
 10
-1.999999999999558
 20
35.37119952474136
 30
0.0
 10
-63.20881685791559
 20
35.01154520222472
 30
0.0
340
B0
  0
WIPEOUT
  5
B2
330
1F
100
AcDbEntity
  8
Key_ Sections_Pen_No__1
  6
Wipeout_Contour
 48
823.9898350151701
 92
      296
310
28010000060000000C0000000E000000120000000C00000016000000000000C20C00000014000000010000006C000000070000000400000037891924F3CB2DC094788831DF5D6B400000000000000000A49BD83E2995394094788831DF5D6B400000000000000000A49BD83E299539409D24A58B43DD674000000000000000
310
0037891924F3CB2DC09D24A58B43DD674000000000000000000C0000000E0000000700000084000000060000000500000037891924F3CB2DC094788831DF5D6B400000000000000000A49BD83E2995394094788831DF5D6B400000000000000000A49BD83E299539409D24A58B43DD6740000000000000000037891924F3CB
310
2DC09D24A58B43DD6740000000000000000037891924F3CB2DC094788831DF5D6B400000000000000000
100
AcDbWipeout
 90
        0
 10
-14.89833939372748
 20
190.9144952989053
 30
0.0
 11
40.48099999999999
 21
0.0
 31
0.0
 12
0.0
 22
28.01899999999998
 32
0.0
 13
1.0
 23
1.0
340
0
 70
    15
280
     1
281
    50
282
    50
283
     0
360
0
 71
     2
 91
        5
 14
-0.5
 24
-0.5000000000000006
 14
0.5
 24
-0.5000000000000006
 14
0.5
 24
0.4999999999999995
 14
-0.5
 24
0.4999999999999995
 14
-0.5
 24
-0.5000000000000006
  0
MTEXT
  5
B3
102
{ACAD_REACTORS
330
B4
102
}
330
1F
100
AcDbEntity
  8
Key_ Sections_Pen_No__1
  6
Continuous
100
AcDbMText
 10
23.58266060627252
 20
204.6037695478172
 30
0.0
 40
4.999999999999999
 41
36.481
 71
     6
 72
     1
  1
{Continuous \Ppacker \Pfor support}
  7
GENERATED_STYLE_1
 73
     1
 44
0.9497091869870715
  0
LEADER
  5
B4
330
1F
100
AcDbEntity
  8
Key_ Sections_Pen_No__1
  6
Continuous
100
AcDbLeader
  3
GENERATED_STYLE__1
 72
     1
 73
     0
 40
22.37921173067842
 41
34.67999999999999
 76
     3
 10
40.51383847924884
 20
178.5285456590886
 30
0.0
 10
34.85802624265529
 20
201.7246583043444
 30
0.0
 10
23.67266060627252
 20
204.6037695478172
 30
0.0
340
B3
  0
ENDSEC
  0
SECTION
  2
OBJECTS
  0
DICTIONARY
  5
C
330
0
100
AcDbDictionary
281
     1
  3
ACAD_GROUP
350
D
  3
ACAD_LAYOUT
350
1A
  3
ACAD_MATERIAL
350
3B
  3
ACAD_MLEADERSTYLE
350
105
  3
ACAD_MLINESTYLE
350
17
  3
ACAD_PLOTSETTINGS
350
19
  3
ACAD_PLOTSTYLENAME
350
E
  3
ACAD_SCALELIST
350
B8
  3
ACAD_TABLESTYLE
350
104
  3
ACAD_VISUALSTYLE
350
2A
  3
AcDbVariableDictionary
350
DC
  3
WATERMARKS
350
DA
  0
DICTIONARY
  5
D
102
{ACAD_REACTORS
330
C
102
}
330
C
100
AcDbDictionary
281
     1
  0
DICTIONARY
  5
1A
102
{ACAD_REACTORS
330
C
102
}
330
C
100
AcDbDictionary
281
     1
  3
Layout1
350
1E
  3
Layout2
350
26
  3
Model
350
22
  0
DICTIONARY
  5
3B
102
{ACAD_REACTORS
330
C
102
}
330
C
100
AcDbDictionary
281
     1
  3
ByBlock
350
3D
  3
ByLayer
350
3C
  3
Global
350
3E
  0
DICTIONARY
  5
105
102
{ACAD_REACTORS
330
C
102
}
330
C
100
AcDbDictionary
281
     1
  0
DICTIONARY
  5
17
102
{ACAD_REACTORS
330
C
102
}
330
C
100
AcDbDictionary
281
     1
  3
Standard
350
18
  0
DICTIONARY
  5
19
102
{ACAD_REACTORS
330
C
102
}
330
C
100
AcDbDictionary
281
     1
  0
ACDBDICTIONARYWDFLT
  5
E
102
{ACAD_REACTORS
330
C
102
}
330
C
100
AcDbDictionary
281
     1
  3
Normal
350
F
100
AcDbDictionaryWithDefault
340
F
  0
DICTIONARY
  5
B8
102
{ACAD_REACTORS
330
C
102
}
330
C
100
AcDbDictionary
281
     1
  3
A0
350
B9
  3
A1
350
BA
  3
A2
350
BB
  3
A3
350
BC
  3
A4
350
BD
  3
A5
350
BE
  3
A6
350
BF
  3
A7
350
C0
  3
A8
350
C1
  3
A9
350
C2
  3
B0
350
C3
  3
B1
350
C4
  3
B2
350
C5
  3
B3
350
C6
  3
B4
350
C7
  3
B5
350
C8
  3
B6
350
C9
  3
B7
350
CA
  3
B8
350
CB
  3
B9
350
CC
  3
C0
350
CD
  3
C1
350
CE
  3
C2
350
CF
  3
C3
350
D0
  3
C4
350
D1
  3
C5
350
D2
  3
C6
350
D3
  3
C7
350
D4
  3
C8
350
D5
  3
C9
350
D6
  3
D0
350
D7
  3
D1
350
D8
  3
D2
350
D9
  0
DICTIONARY
  5
104
102
{ACAD_REACTORS
330
C
102
}
330
C
100
AcDbDictionary
281
     1
  0
DICTIONARY
  5
2A
102
{ACAD_REACTORS
330
C
102
}
330
C
100
AcDbDictionary
281
     1
  3
2dWireframe
350
2F
  3
3D Hidden
350
31
  3
3dWireframe
350
30
  3
Basic
350
32
  3
Brighten
350
36
  3
ColorChange
350
3A
  3
Conceptual
350
34
  3
Dim
350
35
  3
Facepattern
350
39
  3
Flat
350
2B
  3
FlatWithEdges
350
2C
  3
Gouraud
350
2D
  3
GouraudWithEdges
350
2E
  3
Linepattern
350
38
  3
Realistic
350
33
  3
Thicken
350
37
  0
DICTIONARY
  5
DC
102
{ACAD_REACTORS
330
C
102
}
330
C
100
AcDbDictionary
281
     1
  3
CANNOSCALE
350
DD
  3
XCLIPFRAME
350
106
  0
DICTIONARY
  5
DA
102
{ACAD_REACTORS
330
C
102
}
330
C
100
AcDbDictionary
281
     1
  3
AC_WATERMARK
350
DB
  0
LAYOUT
  5
1E
102
{ACAD_REACTORS
330
1A
102
}
330
1A
100
AcDbPlotSettings
  1

  2
none_device
  4

  6

 40
0.0
 41
0.0
 42
0.0
 43
0.0
 44
0.0
 45
0.0
 46
0.0
 47
0.0
 48
0.0
 49
0.0
140
0.0
141
0.0
142
1.0
143
1.0
 70
   688
 72
     0
 73
     0
 74
     5
  7

 75
    16
 76
     0
 77
     2
 78
   300
147
1.0
148
0.0
149
0.0
100
AcDbLayout
  1
Layout1
 70
     1
 71
     1
 10
0.0
 20
0.0
 11
12.0
 21
9.0
 12
0.0
 22
0.0
 32
0.0
 14
1.000000000000000E+20
 24
1.000000000000000E+20
 34
1.000000000000000E+20
 15
-1.000000000000000E+20
 25
-1.000000000000000E+20
 35
-1.000000000000000E+20
146
0.0
 13
0.0
 23
0.0
 33
0.0
 16
1.0
 26
0.0
 36
0.0
 17
0.0
 27
1.0
 37
0.0
 76
     0
330
1B
  0
LAYOUT
  5
26
102
{ACAD_REACTORS
330
1A
102
}
330
1A
100
AcDbPlotSettings
  1

  2
none_device
  4

  6

 40
0.0
 41
0.0
 42
0.0
 43
0.0
 44
0.0
 45
0.0
 46
0.0
 47
0.0
 48
0.0
 49
0.0
140
0.0
141
0.0
142
1.0
143
1.0
 70
   688
 72
     0
 73
     0
 74
     5
  7

 75
    16
 76
     0
 77
     2
 78
   300
147
1.0
148
0.0
149
0.0
100
AcDbLayout
  1
Layout2
 70
     1
 71
     2
 10
0.0
 20
0.0
 11
0.0
 21
0.0
 12
0.0
 22
0.0
 32
0.0
 14
0.0
 24
0.0
 34
0.0
 15
0.0
 25
0.0
 35
0.0
146
0.0
 13
0.0
 23
0.0
 33
0.0
 16
1.0
 26
0.0
 36
0.0
 17
0.0
 27
1.0
 37
0.0
 76
     0
330
23
  0
LAYOUT
  5
22
102
{ACAD_REACTORS
330
1A
102
}
330
1A
100
AcDbPlotSettings
  1

  2
none_device
  4

  6

 40
0.0
 41
0.0
 42
0.0
 43
0.0
 44
0.0
 45
0.0
 46
0.0
 47
0.0
 48
0.0
 49
0.0
140
0.0
141
0.0
142
1.0
143
1.0
 70
  1712
 72
     0
 73
     0
 74
     0
  7

 75
     0
 76
     0
 77
     2
 78
   300
147
1.0
148
0.0
149
0.0
100
AcDbLayout
  1
Model
 70
     1
 71
     0
 10
0.0
 20
0.0
 11
12.0
 21
9.0
 12
0.0
 22
0.0
 32
0.0
 14
1.000000000000000E+20
 24
1.000000000000000E+20
 34
1.000000000000000E+20
 15
-1.000000000000000E+20
 25
-1.000000000000000E+20
 35
-1.000000000000000E+20
146
0.0
 13
0.0
 23
0.0
 33
0.0
 16
1.0
 26
0.0
 36
0.0
 17
0.0
 27
1.0
 37
0.0
 76
     0
330
1F
331
29
  0
MATERIAL
  5
3D
102
{ACAD_REACTORS
330
3B
102
}
102
{ACAD_XDICTIONARY
360
100
102
}
330
3B
100
AcDbMaterial
  1
ByBlock
  0
MATERIAL
  5
3C
102
{ACAD_REACTORS
330
3B
102
}
102
{ACAD_XDICTIONARY
360
FE
102
}
330
3B
100
AcDbMaterial
  1
ByLayer
  0
MATERIAL
  5
3E
102
{ACAD_REACTORS
330
3B
102
}
102
{ACAD_XDICTIONARY
360
102
102
}
330
3B
100
AcDbMaterial
  1
Global
  0
MLINESTYLE
  5
18
102
{ACAD_REACTORS
330
17
102
}
330
17
100
AcDbMlineStyle
  2
Standard
 70
     0
  3

 62
   256
 51
90.0
 52
90.0
 71
     2
 49
0.5
 62
   256
  6
BYLAYER
 49
-0.5
 62
   256
  6
BYLAYER
  0
ACDBPLACEHOLDER
  5
F
102
{ACAD_REACTORS
330
E
102
}
330
E
  0
SCALE
  5
B9
102
{ACAD_REACTORS
330
B8
102
}
330
B8
100
AcDbScale
 70
     0
300
1:1
140
1.0
141
1.0
290
     1
  0
SCALE
  5
BA
102
{ACAD_REACTORS
330
B8
102
}
330
B8
100
AcDbScale
 70
     0
300
1:2
140
1.0
141
2.0
290
     0
  0
SCALE
  5
BB
102
{ACAD_REACTORS
330
B8
102
}
330
B8
100
AcDbScale
 70
     0
300
1:4
140
1.0
141
4.0
290
     0
  0
SCALE
  5
BC
102
{ACAD_REACTORS
330
B8
102
}
330
B8
100
AcDbScale
 70
     0
300
1:5
140
1.0
141
5.0
290
     0
  0
SCALE
  5
BD
102
{ACAD_REACTORS
330
B8
102
}
330
B8
100
AcDbScale
 70
     0
300
1:8
140
1.0
141
8.0
290
     0
  0
SCALE
  5
BE
102
{ACAD_REACTORS
330
B8
102
}
330
B8
100
AcDbScale
 70
     0
300
1:10
140
1.0
141
10.0
290
     0
  0
SCALE
  5
BF
102
{ACAD_REACTORS
330
B8
102
}
330
B8
100
AcDbScale
 70
     0
300
1:16
140
1.0
141
16.0
290
     0
  0
SCALE
  5
C0
102
{ACAD_REACTORS
330
B8
102
}
330
B8
100
AcDbScale
 70
     0
300
1:20
140
1.0
141
20.0
290
     0
  0
SCALE
  5
C1
102
{ACAD_REACTORS
330
B8
102
}
330
B8
100
AcDbScale
 70
     0
300
1:30
140
1.0
141
30.0
290
     0
  0
SCALE
  5
C2
102
{ACAD_REACTORS
330
B8
102
}
330
B8
100
AcDbScale
 70
     0
300
1:40
140
1.0
141
40.0
290
     0
  0
SCALE
  5
C3
102
{ACAD_REACTORS
330
B8
102
}
330
B8
100
AcDbScale
 70
     0
300
1:50
140
1.0
141
50.0
290
     0
  0
SCALE
  5
C4
102
{ACAD_REACTORS
330
B8
102
}
330
B8
100
AcDbScale
 70
     0
300
1:100
140
1.0
141
100.0
290
     0
  0
SCALE
  5
C5
102
{ACAD_REACTORS
330
B8
102
}
330
B8
100
AcDbScale
 70
     0
300
2:1
140
2.0
141
1.0
290
     0
  0
SCALE
  5
C6
102
{ACAD_REACTORS
330
B8
102
}
330
B8
100
AcDbScale
 70
     0
300
4:1
140
4.0
141
1.0
290
     0
  0
SCALE
  5
C7
102
{ACAD_REACTORS
330
B8
102
}
330
B8
100
AcDbScale
 70
     0
300
8:1
140
8.0
141
1.0
290
     0
  0
SCALE
  5
C8
102
{ACAD_REACTORS
330
B8
102
}
330
B8
100
AcDbScale
 70
     0
300
10:1
140
10.0
141
1.0
290
     0
  0
SCALE
  5
C9
102
{ACAD_REACTORS
330
B8
102
}
330
B8
100
AcDbScale
 70
     0
300
100:1
140
100.0
141
1.0
290
     0
  0
SCALE
  5
CA
102
{ACAD_REACTORS
330
B8
102
}
330
B8
100
AcDbScale
 70
     0
300
1/128" = 1'-0"
140
0.0078125
141
12.0
290
     0
  0
SCALE
  5
CB
102
{ACAD_REACTORS
330
B8
102
}
330
B8
100
AcDbScale
 70
     0
300
1/64" = 1'-0"
140
0.015625
141
12.0
290
     0
  0
SCALE
  5
CC
102
{ACAD_REACTORS
330
B8
102
}
330
B8
100
AcDbScale
 70
     0
300
1/32" = 1'-0"
140
0.03125
141
12.0
290
     0
  0
SCALE
  5
CD
102
{ACAD_REACTORS
330
B8
102
}
330
B8
100
AcDbScale
 70
     0
300
1/16" = 1'-0"
140
0.0625
141
12.0
290
     0
  0
SCALE
  5
CE
102
{ACAD_REACTORS
330
B8
102
}
330
B8
100
AcDbScale
 70
     0
300
3/32" = 1'-0"
140
0.09375
141
12.0
290
     0
  0
SCALE
  5
CF
102
{ACAD_REACTORS
330
B8
102
}
330
B8
100
AcDbScale
 70
     0
300
1/8" = 1'-0"
140
0.125
141
12.0
290
     0
  0
SCALE
  5
D0
102
{ACAD_REACTORS
330
B8
102
}
330
B8
100
AcDbScale
 70
     0
300
3/16" = 1'-0"
140
0.1875
141
12.0
290
     0
  0
SCALE
  5
D1
102
{ACAD_REACTORS
330
B8
102
}
330
B8
100
AcDbScale
 70
     0
300
1/4" = 1'-0"
140
0.25
141
12.0
290
     0
  0
SCALE
  5
D2
102
{ACAD_REACTORS
330
B8
102
}
330
B8
100
AcDbScale
 70
     0
300
3/8" = 1'-0"
140
0.375
141
12.0
290
     0
  0
SCALE
  5
D3
102
{ACAD_REACTORS
330
B8
102
}
330
B8
100
AcDbScale
 70
     0
300
1/2" = 1'-0"
140
0.5
141
12.0
290
     0
  0
SCALE
  5
D4
102
{ACAD_REACTORS
330
B8
102
}
330
B8
100
AcDbScale
 70
     0
300
3/4" = 1'-0"
140
0.75
141
12.0
290
     0
  0
SCALE
  5
D5
102
{ACAD_REACTORS
330
B8
102
}
330
B8
100
AcDbScale
 70
     0
300
1" = 1'-0"
140
1.0
141
12.0
290
     0
  0
SCALE
  5
D6
102
{ACAD_REACTORS
330
B8
102
}
330
B8
100
AcDbScale
 70
     0
300
1-1/2" = 1'-0"
140
1.5
141
12.0
290
     0
  0
SCALE
  5
D7
102
{ACAD_REACTORS
330
B8
102
}
330
B8
100
AcDbScale
 70
     0
300
3" = 1'-0"
140
3.0
141
12.0
290
     0
  0
SCALE
  5
D8
102
{ACAD_REACTORS
330
B8
102
}
330
B8
100
AcDbScale
 70
     0
300
6" = 1'-0"
140
6.0
141
12.0
290
     0
  0
SCALE
  5
D9
102
{ACAD_REACTORS
330
B8
102
}
330
B8
100
AcDbScale
 70
     0
300
1'-0" = 1'-0"
140
12.0
141
12.0
290
     0
  0
VISUALSTYLE
  5
2F
102
{ACAD_REACTORS
330
2A
102
}
102
{ACAD_XDICTIONARY
360
E6
102
}
330
2A
100
AcDbVisualStyle
  2
2dWireframe
 70
     4
 71
     0
 72
     2
 73
     0
 90
        0
 40
-0.6
 41
-30.0
 62
     5
 63
     7
421
 16777215
 74
     1
 91
        4
 64
     7
 65
   257
 75
     1
175
     1
 42
1.0
 92
        0
 66
   257
 43
1.0
 76
     1
 77
     6
 78
     2
 67
     7
 79
     5
170
     0
171
     0
290
     0
174
     0
 93
        1
 44
0.0
173
     0
291
     0
 45
0.0
1001
ACAD
1000
AcDbSavedByObjectVersion
1070
     0
  0
VISUALSTYLE
  5
31
102
{ACAD_REACTORS
330
2A
102
}
102
{ACAD_XDICTIONARY
360
EA
102
}
330
2A
100
AcDbVisualStyle
  2
3D Hidden
 70
     6
 71
     1
 72
     2
 73
     2
 90
        0
 40
-0.6
 41
-30.0
 62
     5
 63
     7
421
 16777215
 74
     2
 91
        2
 64
     7
 65
   257
 75
     2
175
     1
 42
40.0
 92
        0
 66
   257
 43
1.0
 76
     1
 77
     6
 78
     2
 67
     7
 79
     3
170
     0
171
     0
290
     0
174
     0
 93
        1
 44
0.0
173
     0
291
     0
 45
0.0
1001
ACAD
1000
AcDbSavedByObjectVersion
1070
     0
  0
VISUALSTYLE
  5
30
102
{ACAD_REACTORS
330
2A
102
}
102
{ACAD_XDICTIONARY
360
E8
102
}
330
2A
100
AcDbVisualStyle
  2
3dWireframe
 70
     5
 71
     0
 72
     2
 73
     0
 90
        0
 40
-0.6
 41
-30.0
 62
     5
 63
     7
421
 16777215
 74
     1
 91
        4
 64
     7
 65
   257
 75
     1
175
     1
 42
1.0
 92
        0
 66
   257
 43
1.0
 76
     1
 77
     6
 78
     2
 67
     7
 79
     5
170
     0
171
     0
290
     0
174
     0
 93
        1
 44
0.0
173
     0
291
     0
 45
0.0
1001
ACAD
1000
AcDbSavedByObjectVersion
1070
     0
  0
VISUALSTYLE
  5
32
102
{ACAD_REACTORS
330
2A
102
}
102
{ACAD_XDICTIONARY
360
EC
102
}
330
2A
100
AcDbVisualStyle
  2
Basic
 70
     7
 71
     1
 72
     0
 73
     1
 90
        0
 40
-0.6
 41
-30.0
 62
     5
 63
     7
421
 16777215
 74
     0
 91
        4
 64
     7
 65
   257
 75
     1
175
     1
 42
1.0
 92
        8
 66
     7
 43
1.0
 76
     1
 77
     6
 78
     2
 67
     7
 79
     5
170
     0
171
     0
290
     0
174
     0
 93
        1
 44
0.0
173
     0
291
     1
 45
0.0
1001
ACAD
1000
AcDbSavedByObjectVersion
1070
     0
  0
VISUALSTYLE
  5
36
102
{ACAD_REACTORS
330
2A
102
}
102
{ACAD_XDICTIONARY
360
F4
102
}
330
2A
100
AcDbVisualStyle
  2
Brighten
 70
    12
 71
     2
 72
     2
 73
     0
 90
        0
 40
-0.6
 41
-30.0
 62
     5
 63
     7
421
 16777215
 74
     1
 91
        4
 64
     7
 65
   257
 75
     1
175
     1
 42
1.0
 92
        8
 66
     7
 43
1.0
 76
     1
 77
     6
 78
     2
 67
     7
 79
     5
170
     0
171
     0
290
     0
174
     0
 93
        1
 44
50.0
173
     0
291
     1
 45
0.0
1001
ACAD
1000
AcDbSavedByObjectVersion
1070
     0
  0
VISUALSTYLE
  5
3A
102
{ACAD_REACTORS
330
2A
102
}
102
{ACAD_XDICTIONARY
360
FC
102
}
330
2A
100
AcDbVisualStyle
  2
ColorChange
 70
    16
 71
     2
 72
     2
 73
     3
 90
        0
 40
-0.6
 41
-30.0
 62
     5
 63
     8
421
  8421504
 74
     1
 91
        4
 64
     7
 65
   257
 75
     1
175
     1
 42
1.0
 92
        8
 66
     8
424
  8421504
 43
1.0
 76
     1
 77
     6
 78
     2
 67
     7
 79
     5
170
     0
171
     0
290
     0
174
     0
 93
        1
 44
0.0
173
     0
291
     1
 45
0.0
1001
ACAD
1000
AcDbSavedByObjectVersion
1070
     0
  0
VISUALSTYLE
  5
34
102
{ACAD_REACTORS
330
2A
102
}
102
{ACAD_XDICTIONARY
360
F0
102
}
330
2A
100
AcDbVisualStyle
  2
Conceptual
 70
     9
 71
     3
 72
     2
 73
     0
 90
        0
 40
-0.6
 41
-30.0
 62
     5
 63
     7
421
 16777215
 74
     2
 91
        2
 64
     7
 65
   257
 75
     1
175
     1
 42
40.0
 92
        8
 66
     7
 43
1.0
 76
     1
 77
     6
 78
     2
 67
     7
 79
     3
170
     0
171
     0
290
     0
174
     0
 93
        1
 44
0.0
173
     0
291
     0
 45
0.0
1001
ACAD
1000
AcDbSavedByObjectVersion
1070
     0
  0
VISUALSTYLE
  5
35
102
{ACAD_REACTORS
330
2A
102
}
102
{ACAD_XDICTIONARY
360
F2
102
}
330
2A
100
AcDbVisualStyle
  2
Dim
 70
    11
 71
     2
 72
     2
 73
     0
 90
        0
 40
-0.6
 41
-30.0
 62
     5
 63
     7
421
 16777215
 74
     1
 91
        4
 64
     7
 65
   257
 75
     1
175
     1
 42
1.0
 92
        8
 66
     7
 43
1.0
 76
     1
 77
     6
 78
     2
 67
     7
 79
     5
170
     0
171
     0
290
     0
174
     0
 93
        1
 44
-50.0
173
     0
291
     1
 45
0.0
1001
ACAD
1000
AcDbSavedByObjectVersion
1070
     0
  0
VISUALSTYLE
  5
39
102
{ACAD_REACTORS
330
2A
102
}
102
{ACAD_XDICTIONARY
360
FA
102
}
330
2A
100
AcDbVisualStyle
  2
Facepattern
 70
    15
 71
     2
 72
     2
 73
     0
 90
        0
 40
-0.6
 41
-30.0
 62
     5
 63
     7
421
 16777215
 74
     1
 91
        4
 64
     7
 65
   257
 75
     1
175
     1
 42
1.0
 92
        8
 66
     7
 43
1.0
 76
     1
 77
     6
 78
     2
 67
     7
 79
     5
170
     0
171
     0
290
     0
174
     0
 93
        1
 44
0.0
173
     0
291
     1
 45
0.0
1001
ACAD
1000
AcDbSavedByObjectVersion
1070
     0
  0
VISUALSTYLE
  5
2B
102
{ACAD_REACTORS
330
2A
102
}
102
{ACAD_XDICTIONARY
360
DE
102
}
330
2A
100
AcDbVisualStyle
  2
Flat
 70
     0
 71
     2
 72
     1
 73
     1
 90
        2
 40
-0.6
 41
30.0
 62
     5
 63
     7
421
 16777215
 74
     0
 91
        4
 64
     7
 65
   257
 75
     1
175
     1
 42
1.0
 92
        8
 66
     7
 43
1.0
 76
     1
 77
     6
 78
     2
 67
     7
 79
     5
170
     0
171
     0
290
     0
174
     0
 93
       13
 44
0.0
173
     0
291
     1
 45
0.0
1001
ACAD
1000
AcDbSavedByObjectVersion
1070
     0
  0
VISUALSTYLE
  5
2C
102
{ACAD_REACTORS
330
2A
102
}
102
{ACAD_XDICTIONARY
360
E0
102
}
330
2A
100
AcDbVisualStyle
  2
FlatWithEdges
 70
     1
 71
     2
 72
     1
 73
     1
 90
        2
 40
-0.6
 41
30.0
 62
     5
 63
     7
421
 16777215
 74
     1
 91
        4
 64
     7
 65
   257
 75
     1
175
     1
 42
1.0
 92
        0
 66
   257
 43
1.0
 76
     1
 77
     6
 78
     2
 67
     7
 79
     5
170
     0
171
     0
290
     0
174
     0
 93
       13
 44
0.0
173
     0
291
     1
 45
0.0
1001
ACAD
1000
AcDbSavedByObjectVersion
1070
     0
  0
VISUALSTYLE
  5
2D
102
{ACAD_REACTORS
330
2A
102
}
102
{ACAD_XDICTIONARY
360
E2
102
}
330
2A
100
AcDbVisualStyle
  2
Gouraud
 70
     2
 71
     2
 72
     2
 73
     1
 90
        2
 40
-0.6
 41
30.0
 62
     5
 63
     7
421
 16777215
 74
     0
 91
        4
 64
     7
 65
   257
 75
     1
175
     1
 42
1.0
 92
        0
 66
     7
 43
1.0
 76
     1
 77
     6
 78
     2
 67
     7
 79
     5
170
     0
171
     0
290
     0
174
     0
 93
       13
 44
0.0
173
     0
291
     1
 45
0.0
1001
ACAD
1000
AcDbSavedByObjectVersion
1070
     0
  0
VISUALSTYLE
  5
2E
102
{ACAD_REACTORS
330
2A
102
}
102
{ACAD_XDICTIONARY
360
E4
102
}
330
2A
100
AcDbVisualStyle
  2
GouraudWithEdges
 70
     3
 71
     2
 72
     2
 73
     1
 90
        2
 40
-0.6
 41
30.0
 62
     5
 63
     7
421
 16777215
 74
     1
 91
        4
 64
     7
 65
   257
 75
     1
175
     1
 42
1.0
 92
        0
 66
   257
 43
1.0
 76
     1
 77
     6
 78
     2
 67
     7
 79
     5
170
     0
171
     0
290
     0
174
     0
 93
       13
 44
0.0
173
     0
291
     1
 45
0.0
1001
ACAD
1000
AcDbSavedByObjectVersion
1070
     0
  0
VISUALSTYLE
  5
38
102
{ACAD_REACTORS
330
2A
102
}
102
{ACAD_XDICTIONARY
360
F8
102
}
330
2A
100
AcDbVisualStyle
  2
Linepattern
 70
    14
 71
     2
 72
     2
 73
     0
 90
        0
 40
-0.6
 41
-30.0
 62
     5
 63
     7
421
 16777215
 74
     1
 91
        4
 64
     7
 65
   257
 75
     7
175
     7
 42
1.0
 92
        8
 66
     7
 43
1.0
 76
     1
 77
     6
 78
     2
 67
     7
 79
     5
170
     0
171
     0
290
     0
174
     0
 93
        1
 44
0.0
173
     0
291
     1
 45
0.0
1001
ACAD
1000
AcDbSavedByObjectVersion
1070
     0
  0
VISUALSTYLE
  5
33
102
{ACAD_REACTORS
330
2A
102
}
102
{ACAD_XDICTIONARY
360
EE
102
}
330
2A
100
AcDbVisualStyle
  2
Realistic
 70
     8
 71
     2
 72
     2
 73
     0
 90
        0
 40
-0.6
 41
-30.0
 62
     5
 63
     7
421
 16777215
 74
     1
 91
        0
 64
     7
 65
   257
 75
     1
175
     1
 42
1.0
 92
        8
 66
     8
424
  7895160
 43
1.0
 76
     1
 77
     6
 78
     2
 67
     7
 79
     5
170
     0
171
     0
290
     0
174
     0
 93
       13
 44
0.0
173
     0
291
     0
 45
0.0
1001
ACAD
1000
AcDbSavedByObjectVersion
1070
     0
  0
VISUALSTYLE
  5
37
102
{ACAD_REACTORS
330
2A
102
}
102
{ACAD_XDICTIONARY
360
F6
102
}
330
2A
100
AcDbVisualStyle
  2
Thicken
 70
    13
 71
     2
 72
     2
 73
     0
 90
        0
 40
-0.6
 41
-30.0
 62
     5
 63
     7
421
 16777215
 74
     1
 91
        4
 64
     7
 65
   257
 75
     1
175
     1
 42
1.0
 92
       12
 66
     7
 43
1.0
 76
     1
 77
     6
 78
     2
 67
     7
 79
     5
170
     0
171
     0
290
     0
174
     0
 93
        1
 44
0.0
173
     0
291
     1
 45
0.0
1001
ACAD
1000
AcDbSavedByObjectVersion
1070
     0
  0
DICTIONARYVAR
  5
DD
102
{ACAD_REACTORS
330
DC
102
}
330
DC
100
DictionaryVariables
280
     0
  1
1:1
  0
DICTIONARYVAR
  5
106
102
{ACAD_REACTORS
330
DC
102
}
330
DC
100
DictionaryVariables
280
     0
  1
0
  0
XRECORD
  5
DB
102
{ACAD_REACTORS
330
DA
102
}
330
DA
100
AcDbXrecord
280
     1
1000
This DWG file was created in ArchiCAD(TM)®
  0
DICTIONARY
  5
100
330
3D
100
AcDbDictionary
280
     1
281
     1
  3
ACAD_XREC_ROUNDTRIP
360
101
  0
DICTIONARY
  5
FE
330
3C
100
AcDbDictionary
280
     1
281
     1
  3
ACAD_XREC_ROUNDTRIP
360
FF
  0
DICTIONARY
  5
102
330
3E
100
AcDbDictionary
280
     1
281
     1
  3
ACAD_XREC_ROUNDTRIP
360
103
  0
DICTIONARY
  5
E6
330
2F
100
AcDbDictionary
280
     1
281
     1
  3
ACAD_XREC_ROUNDTRIP
360
E7
  0
DICTIONARY
  5
EA
330
31
100
AcDbDictionary
280
     1
281
     1
  3
ACAD_XREC_ROUNDTRIP
360
EB
  0
DICTIONARY
  5
E8
330
30
100
AcDbDictionary
280
     1
281
     1
  3
ACAD_XREC_ROUNDTRIP
360
E9
  0
DICTIONARY
  5
EC
330
32
100
AcDbDictionary
280
     1
281
     1
  3
ACAD_XREC_ROUNDTRIP
360
ED
  0
DICTIONARY
  5
F4
330
36
100
AcDbDictionary
280
     1
281
     1
  3
ACAD_XREC_ROUNDTRIP
360
F5
  0
DICTIONARY
  5
FC
330
3A
100
AcDbDictionary
280
     1
281
     1
  3
ACAD_XREC_ROUNDTRIP
360
FD
  0
DICTIONARY
  5
F0
330
34
100
AcDbDictionary
280
     1
281
     1
  3
ACAD_XREC_ROUNDTRIP
360
F1
  0
DICTIONARY
  5
F2
330
35
100
AcDbDictionary
280
     1
281
     1
  3
ACAD_XREC_ROUNDTRIP
360
F3
  0
DICTIONARY
  5
FA
330
39
100
AcDbDictionary
280
     1
281
     1
  3
ACAD_XREC_ROUNDTRIP
360
FB
  0
DICTIONARY
  5
DE
330
2B
100
AcDbDictionary
280
     1
281
     1
  3
ACAD_XREC_ROUNDTRIP
360
DF
  0
DICTIONARY
  5
E0
330
2C
100
AcDbDictionary
280
     1
281
     1
  3
ACAD_XREC_ROUNDTRIP
360
E1
  0
DICTIONARY
  5
E2
330
2D
100
AcDbDictionary
280
     1
281
     1
  3
ACAD_XREC_ROUNDTRIP
360
E3
  0
DICTIONARY
  5
E4
330
2E
100
AcDbDictionary
280
     1
281
     1
  3
ACAD_XREC_ROUNDTRIP
360
E5
  0
DICTIONARY
  5
F8
330
38
100
AcDbDictionary
280
     1
281
     1
  3
ACAD_XREC_ROUNDTRIP
360
F9
  0
DICTIONARY
  5
EE
330
33
100
AcDbDictionary
280
     1
281
     1
  3
ACAD_XREC_ROUNDTRIP
360
EF
  0
DICTIONARY
  5
F6
330
37
100
AcDbDictionary
280
     1
281
     1
  3
ACAD_XREC_ROUNDTRIP
360
F7
  0
XRECORD
  5
101
102
{ACAD_REACTORS
330
100
102
}
330
100
100
AcDbXrecord
280
     1
102
MATERIAL
148
0.0
149
0.0
149
0.0
 93
        0
 94
      127
282
     0
 72
     1
 77
     1
171
     1
175
     1
179
     1
273
     0
  0
XRECORD
  5
FF
102
{ACAD_REACTORS
330
FE
102
}
330
FE
100
AcDbXrecord
280
     1
102
MATERIAL
148
0.0
149
0.0
149
0.0
 93
        0
 94
      127
282
     0
 72
     1
 77
     1
171
     1
175
     1
179
     1
273
     0
  0
XRECORD
  5
103
102
{ACAD_REACTORS
330
102
102
}
330
102
100
AcDbXrecord
280
     1
102
MATERIAL
148
0.0
149
0.0
149
0.0
 93
        0
 94
      127
282
     0
 72
     1
 77
     1
171
     1
175
     1
179
     1
273
     0
  0
XRECORD
  5
E7
102
{ACAD_REACTORS
330
E6
102
}
330
E6
100
AcDbXrecord
280
     1
102
RTVSPropertyOp0
 70
     1
102
RTVSPropertyOp1
 70
     1
102
RTVSPropertyOp2
 70
     1
102
RTVSPropertyOp3
 70
     1
102
RTVSPropertyOp4
 70
     1
102
RTVSPropertyOp5
 70
     1
102
RTVSPropertyOp6
 70
     1
102
RTVSPropertyOp7
 70
     1
102
RTVSPropertyOp8
 70
     1
102
RTVSPropertyOp9
 70
     1
102
RTVSPropertyOp10
 70
     1
102
RTVSPropertyOp11
 70
     1
102
RTVSPropertyOp12
 70
     1
102
RTVSPropertyOp13
 70
     1
102
RTVSPropertyOp14
 70
     1
102
RTVSPropertyOp15
 70
     1
102
RTVSPropertyOp16
 70
     1
102
RTVSPropertyOp17
 70
     1
102
RTVSPropertyOp18
 70
     1
102
RTVSPropertyOp19
 70
     1
102
RTVSPropertyOp20
 70
     1
102
RTVSPropertyOp21
 70
     1
102
RTVSPropertyOp22
 70
     1
102
RTVSPropertyOp23
 70
     1
102
RTVSPropertyOp24
 70
     1
102
RTVSPropertyOp25
 70
     1
102
RTVSPropertyOp26
 70
     1
102
RTVSPropertyOp27
 70
     1
102
RTVSPropertyOp28
 70
     1
102
RTVSPropertyOp29
 70
     1
102
RTVSPropertyOp30
 70
     1
102
RTVSPropertyOp31
 70
     1
102
RTVSPropertyOp32
 70
     1
  0
XRECORD
  5
EB
102
{ACAD_REACTORS
330
EA
102
}
330
EA
100
AcDbXrecord
280
     1
102
RTVSPropertyOp0
 70
     1
102
RTVSPropertyOp1
 70
     1
102
RTVSPropertyOp2
 70
     1
102
RTVSPropertyOp3
 70
     1
102
RTVSPropertyOp4
 70
     1
102
RTVSPropertyOp5
 70
     1
102
RTVSPropertyOp6
 70
     1
102
RTVSPropertyOp7
 70
     1
102
RTVSPropertyOp8
 70
     1
102
RTVSPropertyOp9
 70
     1
102
RTVSPropertyOp10
 70
     1
102
RTVSPropertyOp11
 70
     1
102
RTVSPropertyOp12
 70
     1
102
RTVSPropertyOp13
 70
     1
102
RTVSPropertyOp14
 70
     1
102
RTVSPropertyOp15
 70
     1
102
RTVSPropertyOp16
 70
     1
102
RTVSPropertyOp17
 70
     1
102
RTVSPropertyOp18
 70
     1
102
RTVSPropertyOp19
 70
     1
102
RTVSPropertyOp20
 70
     1
102
RTVSPropertyOp21
 70
     1
102
RTVSPropertyOp22
 70
     1
102
RTVSPropertyOp23
 70
     1
102
RTVSPropertyOp24
 70
     1
102
RTVSPropertyOp25
 70
     1
102
RTVSPropertyOp26
 70
     1
102
RTVSPropertyOp27
 70
     1
102
RTVSPropertyOp28
 70
     1
102
RTVSPropertyOp29
 70
     1
102
RTVSPropertyOp30
 70
     1
102
RTVSPropertyOp31
 70
     1
102
RTVSPropertyOp32
 70
     1
  0
XRECORD
  5
E9
102
{ACAD_REACTORS
330
E8
102
}
330
E8
100
AcDbXrecord
280
     1
102
RTVSPropertyOp0
 70
     1
102
RTVSPropertyOp1
 70
     1
102
RTVSPropertyOp2
 70
     1
102
RTVSPropertyOp3
 70
     1
102
RTVSPropertyOp4
 70
     1
102
RTVSPropertyOp5
 70
     1
102
RTVSPropertyOp6
 70
     1
102
RTVSPropertyOp7
 70
     1
102
RTVSPropertyOp8
 70
     1
102
RTVSPropertyOp9
 70
     1
102
RTVSPropertyOp10
 70
     1
102
RTVSPropertyOp11
 70
     1
102
RTVSPropertyOp12
 70
     1
102
RTVSPropertyOp13
 70
     1
102
RTVSPropertyOp14
 70
     1
102
RTVSPropertyOp15
 70
     1
102
RTVSPropertyOp16
 70
     1
102
RTVSPropertyOp17
 70
     1
102
RTVSPropertyOp18
 70
     1
102
RTVSPropertyOp19
 70
     1
102
RTVSPropertyOp20
 70
     1
102
RTVSPropertyOp21
 70
     1
102
RTVSPropertyOp22
 70
     1
102
RTVSPropertyOp23
 70
     1
102
RTVSPropertyOp24
 70
     1
102
RTVSPropertyOp25
 70
     1
102
RTVSPropertyOp26
 70
     1
102
RTVSPropertyOp27
 70
     1
102
RTVSPropertyOp28
 70
     1
102
RTVSPropertyOp29
 70
     1
102
RTVSPropertyOp30
 70
     1
102
RTVSPropertyOp31
 70
     1
102
RTVSPropertyOp32
 70
     1
  0
XRECORD
  5
ED
102
{ACAD_REACTORS
330
EC
102
}
330
EC
100
AcDbXrecord
280
     1
102
RTVSPropertyOp0
 70
     1
102
RTVSPropertyOp1
 70
     1
102
RTVSPropertyOp2
 70
     1
102
RTVSPropertyOp3
 70
     1
102
RTVSPropertyOp4
 70
     1
102
RTVSPropertyOp5
 70
     1
102
RTVSPropertyOp6
 70
     1
102
RTVSPropertyOp7
 70
     1
102
RTVSPropertyOp8
 70
     1
102
RTVSPropertyOp9
 70
     1
102
RTVSPropertyOp10
 70
     1
102
RTVSPropertyOp11
 70
     1
102
RTVSPropertyOp12
 70
     1
102
RTVSPropertyOp13
 70
     1
102
RTVSPropertyOp14
 70
     1
102
RTVSPropertyOp15
 70
     1
102
RTVSPropertyOp16
 70
     1
102
RTVSPropertyOp17
 70
     1
102
RTVSPropertyOp18
 70
     1
102
RTVSPropertyOp19
 70
     1
102
RTVSPropertyOp20
 70
     1
102
RTVSPropertyOp21
 70
     1
102
RTVSPropertyOp22
 70
     1
102
RTVSPropertyOp23
 70
     1
102
RTVSPropertyOp24
 70
     1
102
RTVSPropertyOp25
 70
     1
102
RTVSPropertyOp26
 70
     1
102
RTVSPropertyOp27
 70
     1
102
RTVSPropertyOp28
 70
     1
102
RTVSPropertyOp29
 70
     1
102
RTVSPropertyOp30
 70
     1
102
RTVSPropertyOp31
 70
     1
102
RTVSPropertyOp32
 70
     1
  0
XRECORD
  5
F5
102
{ACAD_REACTORS
330
F4
102
}
330
F4
100
AcDbXrecord
280
     1
102
RTVSPropertyOp0
 70
     1
102
RTVSPropertyOp1
 70
     1
102
RTVSPropertyOp2
 70
     1
102
RTVSPropertyOp3
 70
     1
102
RTVSPropertyOp4
 70
     1
102
RTVSPropertyOp5
 70
     1
102
RTVSPropertyOp6
 70
     1
102
RTVSPropertyOp7
 70
     1
102
RTVSPropertyOp8
 70
     1
102
RTVSPropertyOp9
 70
     1
102
RTVSPropertyOp10
 70
     1
102
RTVSPropertyOp11
 70
     1
102
RTVSPropertyOp12
 70
     1
102
RTVSPropertyOp13
 70
     1
102
RTVSPropertyOp14
 70
     1
102
RTVSPropertyOp15
 70
     1
102
RTVSPropertyOp16
 70
     1
102
RTVSPropertyOp17
 70
     1
102
RTVSPropertyOp18
 70
     1
102
RTVSPropertyOp19
 70
     1
102
RTVSPropertyOp20
 70
     1
102
RTVSPropertyOp21
 70
     1
102
RTVSPropertyOp22
 70
     1
102
RTVSPropertyOp23
 70
     1
102
RTVSPropertyOp24
 70
     1
102
RTVSPropertyOp25
 70
     1
102
RTVSPropertyOp26
 70
     1
102
RTVSPropertyOp27
 70
     1
102
RTVSPropertyOp28
 70
     1
102
RTVSPropertyOp29
 70
     1
102
RTVSPropertyOp30
 70
     1
102
RTVSPropertyOp31
 70
     1
102
RTVSPropertyOp32
 70
     1
  0
XRECORD
  5
FD
102
{ACAD_REACTORS
330
FC
102
}
330
FC
100
AcDbXrecord
280
     1
102
RTVSPropertyOp0
 70
     1
102
RTVSPropertyOp1
 70
     1
102
RTVSPropertyOp2
 70
     1
102
RTVSPropertyOp3
 70
     1
102
RTVSPropertyOp4
 70
     1
102
RTVSPropertyOp5
 70
     1
102
RTVSPropertyOp6
 70
     1
102
RTVSPropertyOp7
 70
     1
102
RTVSPropertyOp8
 70
     1
102
RTVSPropertyOp9
 70
     1
102
RTVSPropertyOp10
 70
     1
102
RTVSPropertyOp11
 70
     1
102
RTVSPropertyOp12
 70
     1
102
RTVSPropertyOp13
 70
     1
102
RTVSPropertyOp14
 70
     1
102
RTVSPropertyOp15
 70
     1
102
RTVSPropertyOp16
 70
     1
102
RTVSPropertyOp17
 70
     1
102
RTVSPropertyOp18
 70
     1
102
RTVSPropertyOp19
 70
     1
102
RTVSPropertyOp20
 70
     1
102
RTVSPropertyOp21
 70
     1
102
RTVSPropertyOp22
 70
     1
102
RTVSPropertyOp23
 70
     1
102
RTVSPropertyOp24
 70
     1
102
RTVSPropertyOp25
 70
     1
102
RTVSPropertyOp26
 70
     1
102
RTVSPropertyOp27
 70
     1
102
RTVSPropertyOp28
 70
     1
102
RTVSPropertyOp29
 70
     1
102
RTVSPropertyOp30
 70
     1
102
RTVSPropertyOp31
 70
     1
102
RTVSPropertyOp32
 70
     1
  0
XRECORD
  5
F1
102
{ACAD_REACTORS
330
F0
102
}
330
F0
100
AcDbXrecord
280
     1
102
RTVSPropertyOp0
 70
     1
102
RTVSPropertyOp1
 70
     1
102
RTVSPropertyOp2
 70
     1
102
RTVSPropertyOp3
 70
     1
102
RTVSPropertyOp4
 70
     1
102
RTVSPropertyOp5
 70
     1
102
RTVSPropertyOp6
 70
     1
102
RTVSPropertyOp7
 70
     1
102
RTVSPropertyOp8
 70
     1
102
RTVSPropertyOp9
 70
     1
102
RTVSPropertyOp10
 70
     1
102
RTVSPropertyOp11
 70
     1
102
RTVSPropertyOp12
 70
     1
102
RTVSPropertyOp13
 70
     1
102
RTVSPropertyOp14
 70
     1
102
RTVSPropertyOp15
 70
     1
102
RTVSPropertyOp16
 70
     1
102
RTVSPropertyOp17
 70
     1
102
RTVSPropertyOp18
 70
     1
102
RTVSPropertyOp19
 70
     1
102
RTVSPropertyOp20
 70
     1
102
RTVSPropertyOp21
 70
     1
102
RTVSPropertyOp22
 70
     1
102
RTVSPropertyOp23
 70
     1
102
RTVSPropertyOp24
 70
     1
102
RTVSPropertyOp25
 70
     1
102
RTVSPropertyOp26
 70
     1
102
RTVSPropertyOp27
 70
     1
102
RTVSPropertyOp28
 70
     1
102
RTVSPropertyOp29
 70
     1
102
RTVSPropertyOp30
 70
     1
102
RTVSPropertyOp31
 70
     1
102
RTVSPropertyOp32
 70
     1
  0
XRECORD
  5
F3
102
{ACAD_REACTORS
330
F2
102
}
330
F2
100
AcDbXrecord
280
     1
102
RTVSPropertyOp0
 70
     1
102
RTVSPropertyOp1
 70
     1
102
RTVSPropertyOp2
 70
     1
102
RTVSPropertyOp3
 70
     1
102
RTVSPropertyOp4
 70
     1
102
RTVSPropertyOp5
 70
     1
102
RTVSPropertyOp6
 70
     1
102
RTVSPropertyOp7
 70
     1
102
RTVSPropertyOp8
 70
     1
102
RTVSPropertyOp9
 70
     1
102
RTVSPropertyOp10
 70
     1
102
RTVSPropertyOp11
 70
     1
102
RTVSPropertyOp12
 70
     1
102
RTVSPropertyOp13
 70
     1
102
RTVSPropertyOp14
 70
     1
102
RTVSPropertyOp15
 70
     1
102
RTVSPropertyOp16
 70
     1
102
RTVSPropertyOp17
 70
     1
102
RTVSPropertyOp18
 70
     1
102
RTVSPropertyOp19
 70
     1
102
RTVSPropertyOp20
 70
     1
102
RTVSPropertyOp21
 70
     1
102
RTVSPropertyOp22
 70
     1
102
RTVSPropertyOp23
 70
     1
102
RTVSPropertyOp24
 70
     1
102
RTVSPropertyOp25
 70
     1
102
RTVSPropertyOp26
 70
     1
102
RTVSPropertyOp27
 70
     1
102
RTVSPropertyOp28
 70
     1
102
RTVSPropertyOp29
 70
     1
102
RTVSPropertyOp30
 70
     1
102
RTVSPropertyOp31
 70
     1
102
RTVSPropertyOp32
 70
     1
  0
XRECORD
  5
FB
102
{ACAD_REACTORS
330
FA
102
}
330
FA
100
AcDbXrecord
280
     1
102
RTVSPropertyOp0
 70
     1
102
RTVSPropertyOp1
 70
     1
102
RTVSPropertyOp2
 70
     1
102
RTVSPropertyOp3
 70
     1
102
RTVSPropertyOp4
 70
     1
102
RTVSPropertyOp5
 70
     1
102
RTVSPropertyOp6
 70
     1
102
RTVSPropertyOp7
 70
     1
102
RTVSPropertyOp8
 70
     1
102
RTVSPropertyOp9
 70
     1
102
RTVSPropertyOp10
 70
     1
102
RTVSPropertyOp11
 70
     1
102
RTVSPropertyOp12
 70
     1
102
RTVSPropertyOp13
 70
     1
102
RTVSPropertyOp14
 70
     1
102
RTVSPropertyOp15
 70
     1
102
RTVSPropertyOp16
 70
     1
102
RTVSPropertyOp17
 70
     1
102
RTVSPropertyOp18
 70
     1
102
RTVSPropertyOp19
 70
     1
102
RTVSPropertyOp20
 70
     1
102
RTVSPropertyOp21
 70
     1
102
RTVSPropertyOp22
 70
     1
102
RTVSPropertyOp23
 70
     1
102
RTVSPropertyOp24
 70
     1
102
RTVSPropertyOp25
 70
     1
102
RTVSPropertyOp26
 70
     1
102
RTVSPropertyOp27
 70
     1
102
RTVSPropertyOp28
 70
     1
102
RTVSPropertyOp29
 70
     1
102
RTVSPropertyOp30
 70
     1
102
RTVSPropertyOp31
 70
     1
102
RTVSPropertyOp32
 70
     1
  0
XRECORD
  5
DF
102
{ACAD_REACTORS
330
DE
102
}
330
DE
100
AcDbXrecord
280
     1
102
RTVSPropertyOp0
 70
     1
102
RTVSPropertyOp1
 70
     1
102
RTVSPropertyOp2
 70
     1
102
RTVSPropertyOp3
 70
     1
102
RTVSPropertyOp4
 70
     1
102
RTVSPropertyOp5
 70
     1
102
RTVSPropertyOp6
 70
     1
102
RTVSPropertyOp7
 70
     1
102
RTVSPropertyOp8
 70
     1
102
RTVSPropertyOp9
 70
     1
102
RTVSPropertyOp10
 70
     1
102
RTVSPropertyOp11
 70
     1
102
RTVSPropertyOp12
 70
     1
102
RTVSPropertyOp13
 70
     1
102
RTVSPropertyOp14
 70
     1
102
RTVSPropertyOp15
 70
     1
102
RTVSPropertyOp16
 70
     1
102
RTVSPropertyOp17
 70
     1
102
RTVSPropertyOp18
 70
     1
102
RTVSPropertyOp19
 70
     1
102
RTVSPropertyOp20
 70
     1
102
RTVSPropertyOp21
 70
     1
102
RTVSPropertyOp22
 70
     1
102
RTVSPropertyOp23
 70
     1
102
RTVSPropertyOp24
 70
     1
102
RTVSPropertyOp25
 70
     1
102
RTVSPropertyOp26
 70
     1
102
RTVSPropertyOp27
 70
     1
102
RTVSPropertyOp28
 70
     1
102
RTVSPropertyOp29
 70
     1
102
RTVSPropertyOp30
 70
     1
102
RTVSPropertyOp31
 70
     1
102
RTVSPropertyOp32
 70
     1
  0
XRECORD
  5
E1
102
{ACAD_REACTORS
330
E0
102
}
330
E0
100
AcDbXrecord
280
     1
102
RTVSPropertyOp0
 70
     1
102
RTVSPropertyOp1
 70
     1
102
RTVSPropertyOp2
 70
     1
102
RTVSPropertyOp3
 70
     1
102
RTVSPropertyOp4
 70
     1
102
RTVSPropertyOp5
 70
     1
102
RTVSPropertyOp6
 70
     1
102
RTVSPropertyOp7
 70
     1
102
RTVSPropertyOp8
 70
     1
102
RTVSPropertyOp9
 70
     1
102
RTVSPropertyOp10
 70
     1
102
RTVSPropertyOp11
 70
     1
102
RTVSPropertyOp12
 70
     1
102
RTVSPropertyOp13
 70
     1
102
RTVSPropertyOp14
 70
     1
102
RTVSPropertyOp15
 70
     1
102
RTVSPropertyOp16
 70
     1
102
RTVSPropertyOp17
 70
     1
102
RTVSPropertyOp18
 70
     1
102
RTVSPropertyOp19
 70
     1
102
RTVSPropertyOp20
 70
     1
102
RTVSPropertyOp21
 70
     1
102
RTVSPropertyOp22
 70
     1
102
RTVSPropertyOp23
 70
     1
102
RTVSPropertyOp24
 70
     1
102
RTVSPropertyOp25
 70
     1
102
RTVSPropertyOp26
 70
     1
102
RTVSPropertyOp27
 70
     1
102
RTVSPropertyOp28
 70
     1
102
RTVSPropertyOp29
 70
     1
102
RTVSPropertyOp30
 70
     1
102
RTVSPropertyOp31
 70
     1
102
RTVSPropertyOp32
 70
     1
  0
XRECORD
  5
E3
102
{ACAD_REACTORS
330
E2
102
}
330
E2
100
AcDbXrecord
280
     1
102
RTVSPropertyOp0
 70
     1
102
RTVSPropertyOp1
 70
     1
102
RTVSPropertyOp2
 70
     1
102
RTVSPropertyOp3
 70
     1
102
RTVSPropertyOp4
 70
     1
102
RTVSPropertyOp5
 70
     1
102
RTVSPropertyOp6
 70
     1
102
RTVSPropertyOp7
 70
     1
102
RTVSPropertyOp8
 70
     1
102
RTVSPropertyOp9
 70
     1
102
RTVSPropertyOp10
 70
     1
102
RTVSPropertyOp11
 70
     1
102
RTVSPropertyOp12
 70
     1
102
RTVSPropertyOp13
 70
     1
102
RTVSPropertyOp14
 70
     1
102
RTVSPropertyOp15
 70
     1
102
RTVSPropertyOp16
 70
     1
102
RTVSPropertyOp17
 70
     1
102
RTVSPropertyOp18
 70
     1
102
RTVSPropertyOp19
 70
     1
102
RTVSPropertyOp20
 70
     1
102
RTVSPropertyOp21
 70
     1
102
RTVSPropertyOp22
 70
     1
102
RTVSPropertyOp23
 70
     1
102
RTVSPropertyOp24
 70
     1
102
RTVSPropertyOp25
 70
     1
102
RTVSPropertyOp26
 70
     1
102
RTVSPropertyOp27
 70
     1
102
RTVSPropertyOp28
 70
     1
102
RTVSPropertyOp29
 70
     1
102
RTVSPropertyOp30
 70
     1
102
RTVSPropertyOp31
 70
     1
102
RTVSPropertyOp32
 70
     1
  0
XRECORD
  5
E5
102
{ACAD_REACTORS
330
E4
102
}
330
E4
100
AcDbXrecord
280
     1
102
RTVSPropertyOp0
 70
     1
102
RTVSPropertyOp1
 70
     1
102
RTVSPropertyOp2
 70
     1
102
RTVSPropertyOp3
 70
     1
102
RTVSPropertyOp4
 70
     1
102
RTVSPropertyOp5
 70
     1
102
RTVSPropertyOp6
 70
     1
102
RTVSPropertyOp7
 70
     1
102
RTVSPropertyOp8
 70
     1
102
RTVSPropertyOp9
 70
     1
102
RTVSPropertyOp10
 70
     1
102
RTVSPropertyOp11
 70
     1
102
RTVSPropertyOp12
 70
     1
102
RTVSPropertyOp13
 70
     1
102
RTVSPropertyOp14
 70
     1
102
RTVSPropertyOp15
 70
     1
102
RTVSPropertyOp16
 70
     1
102
RTVSPropertyOp17
 70
     1
102
RTVSPropertyOp18
 70
     1
102
RTVSPropertyOp19
 70
     1
102
RTVSPropertyOp20
 70
     1
102
RTVSPropertyOp21
 70
     1
102
RTVSPropertyOp22
 70
     1
102
RTVSPropertyOp23
 70
     1
102
RTVSPropertyOp24
 70
     1
102
RTVSPropertyOp25
 70
     1
102
RTVSPropertyOp26
 70
     1
102
RTVSPropertyOp27
 70
     1
102
RTVSPropertyOp28
 70
     1
102
RTVSPropertyOp29
 70
     1
102
RTVSPropertyOp30
 70
     1
102
RTVSPropertyOp31
 70
     1
102
RTVSPropertyOp32
 70
     1
  0
XRECORD
  5
F9
102
{ACAD_REACTORS
330
F8
102
}
330
F8
100
AcDbXrecord
280
     1
102
RTVSPropertyOp0
 70
     1
102
RTVSPropertyOp1
 70
     1
102
RTVSPropertyOp2
 70
     1
102
RTVSPropertyOp3
 70
     1
102
RTVSPropertyOp4
 70
     1
102
RTVSPropertyOp5
 70
     1
102
RTVSPropertyOp6
 70
     1
102
RTVSPropertyOp7
 70
     1
102
RTVSPropertyOp8
 70
     1
102
RTVSPropertyOp9
 70
     1
102
RTVSPropertyOp10
 70
     1
102
RTVSPropertyOp11
 70
     1
102
RTVSPropertyOp12
 70
     1
102
RTVSPropertyOp13
 70
     1
102
RTVSPropertyOp14
 70
     1
102
RTVSPropertyOp15
 70
     1
102
RTVSPropertyOp16
 70
     1
102
RTVSPropertyOp17
 70
     1
102
RTVSPropertyOp18
 70
     1
102
RTVSPropertyOp19
 70
     1
102
RTVSPropertyOp20
 70
     1
102
RTVSPropertyOp21
 70
     1
102
RTVSPropertyOp22
 70
     1
102
RTVSPropertyOp23
 70
     1
102
RTVSPropertyOp24
 70
     1
102
RTVSPropertyOp25
 70
     1
102
RTVSPropertyOp26
 70
     1
102
RTVSPropertyOp27
 70
     1
102
RTVSPropertyOp28
 70
     1
102
RTVSPropertyOp29
 70
     1
102
RTVSPropertyOp30
 70
     1
102
RTVSPropertyOp31
 70
     1
102
RTVSPropertyOp32
 70
     1
  0
XRECORD
  5
EF
102
{ACAD_REACTORS
330
EE
102
}
330
EE
100
AcDbXrecord
280
     1
102
RTVSPropertyOp0
 70
     1
102
RTVSPropertyOp1
 70
     1
102
RTVSPropertyOp2
 70
     1
102
RTVSPropertyOp3
 70
     1
102
RTVSPropertyOp4
 70
     1
102
RTVSPropertyOp5
 70
     1
102
RTVSPropertyOp6
 70
     1
102
RTVSPropertyOp7
 70
     1
102
RTVSPropertyOp8
 70
     1
102
RTVSPropertyOp9
 70
     1
102
RTVSPropertyOp10
 70
     1
102
RTVSPropertyOp11
 70
     1
102
RTVSPropertyOp12
 70
     1
102
RTVSPropertyOp13
 70
     1
102
RTVSPropertyOp14
 70
     1
102
RTVSPropertyOp15
 70
     1
102
RTVSPropertyOp16
 70
     1
102
RTVSPropertyOp17
 70
     1
102
RTVSPropertyOp18
 70
     1
102
RTVSPropertyOp19
 70
     1
102
RTVSPropertyOp20
 70
     1
102
RTVSPropertyOp21
 70
     1
102
RTVSPropertyOp22
 70
     1
102
RTVSPropertyOp23
 70
     1
102
RTVSPropertyOp24
 70
     1
102
RTVSPropertyOp25
 70
     1
102
RTVSPropertyOp26
 70
     1
102
RTVSPropertyOp27
 70
     1
102
RTVSPropertyOp28
 70
     1
102
RTVSPropertyOp29
 70
     1
102
RTVSPropertyOp30
 70
     1
102
RTVSPropertyOp31
 70
     1
102
RTVSPropertyOp32
 70
     1
  0
XRECORD
  5
F7
102
{ACAD_REACTORS
330
F6
102
}
330
F6
100
AcDbXrecord
280
     1
102
RTVSPropertyOp0
 70
     1
102
RTVSPropertyOp1
 70
     1
102
RTVSPropertyOp2
 70
     1
102
RTVSPropertyOp3
 70
     1
102
RTVSPropertyOp4
 70
     1
102
RTVSPropertyOp5
 70
     1
102
RTVSPropertyOp6
 70
     1
102
RTVSPropertyOp7
 70
     1
102
RTVSPropertyOp8
 70
     1
102
RTVSPropertyOp9
 70
     1
102
RTVSPropertyOp10
 70
     1
102
RTVSPropertyOp11
 70
     1
102
RTVSPropertyOp12
 70
     1
102
RTVSPropertyOp13
 70
     1
102
RTVSPropertyOp14
 70
     1
102
RTVSPropertyOp15
 70
     1
102
RTVSPropertyOp16
 70
     1
102
RTVSPropertyOp17
 70
     1
102
RTVSPropertyOp18
 70
     1
102
RTVSPropertyOp19
 70
     1
102
RTVSPropertyOp20
 70
     1
102
RTVSPropertyOp21
 70
     1
102
RTVSPropertyOp22
 70
     1
102
RTVSPropertyOp23
 70
     1
102
RTVSPropertyOp24
 70
     1
102
RTVSPropertyOp25
 70
     1
102
RTVSPropertyOp26
 70
     1
102
RTVSPropertyOp27
 70
     1
102
RTVSPropertyOp28
 70
     1
102
RTVSPropertyOp29
 70
     1
102
RTVSPropertyOp30
 70
     1
102
RTVSPropertyOp31
 70
     1
102
RTVSPropertyOp32
 70
     1
  0
ENDSEC
  0
EOF
