  0
SECTION
  2
HEADER
  9
$ACADVER
  1
AC1018
  9
$ACADMAINTVER
 70
     0
  9
$DWGCODEPAGE
  3
ANSI_1252
  9
$INSBASE
 10
0.0
 20
0.0
 30
0.0
  9
$EXTMIN
 10
1.000000000000000E+20
 20
1.000000000000000E+20
 30
1.000000000000000E+20
  9
$EXTMAX
 10
-1.000000000000000E+20
 20
-1.000000000000000E+20
 30
-1.000000000000000E+20
  9
$LIMMIN
 10
0.0
 20
0.0
  9
$LIMMAX
 10
12.0
 20
9.0
  9
$ORTHOMODE
 70
     0
  9
$REGENMODE
 70
     1
  9
$FILLMODE
 70
     1
  9
$QTEXTMODE
 70
     0
  9
$MIRRTEXT
 70
     1
  9
$LTSCALE
 40
1.0
  9
$ATTMODE
 70
     1
  9
$TEXTSIZE
 40
0.2
  9
$TRACEWID
 40
0.05
  9
$TEXTSTYLE
  7
Standard
  9
$CLAYER
  8
0
  9
$CELTYPE
  6
ByLayer
  9
$CECOLOR
 62
   256
  9
$CELTSCALE
 40
1.0
  9
$DISPSILH
 70
     0
  9
$DIMSCALE
 40
1.0
  9
$DIMASZ
 40
0.18
  9
$DIMEXO
 40
0.0625
  9
$DIMDLI
 40
0.38
  9
$DIMRND
 40
0.0
  9
$DIMDLE
 40
0.0
  9
$DIMEXE
 40
0.18
  9
$DIMTP
 40
0.0
  9
$DIMTM
 40
0.0
  9
$DIMTXT
 40
0.18
  9
$DIMCEN
 40
0.09
  9
$DIMTSZ
 40
0.0
  9
$DIMTOL
 70
     0
  9
$DIMLIM
 70
     0
  9
$DIMTIH
 70
     1
  9
$DIMTOH
 70
     1
  9
$DIMSE1
 70
     0
  9
$DIMSE2
 70
     0
  9
$DIMTAD
 70
     0
  9
$DIMZIN
 70
     0
  9
$DIMBLK
  1

  9
$DIMASO
 70
     1
  9
$DIMSHO
 70
     1
  9
$DIMPOST
  1

  9
$DIMAPOST
  1

  9
$DIMALT
 70
     0
  9
$DIMALTD
 70
     2
  9
$DIMALTF
 40
25.4
  9
$DIMLFAC
 40
1.0
  9
$DIMTOFL
 70
     0
  9
$DIMTVP
 40
0.0
  9
$DIMTIX
 70
     0
  9
$DIMSOXD
 70
     0
  9
$DIMSAH
 70
     0
  9
$DIMBLK1
  1

  9
$DIMBLK2
  1

  9
$DIMSTYLE
  2
Standard
  9
$DIMCLRD
 70
     0
  9
$DIMCLRE
 70
     0
  9
$DIMCLRT
 70
     0
  9
$DIMTFAC
 40
1.0
  9
$DIMGAP
 40
0.09
  9
$DIMJUST
 70
     0
  9
$DIMSD1
 70
     0
  9
$DIMSD2
 70
     0
  9
$DIMTOLJ
 70
     1
  9
$DIMTZIN
 70
     0
  9
$DIMALTZ
 70
     0
  9
$DIMALTTZ
 70
     0
  9
$DIMUPT
 70
     0
  9
$DIMDEC
 70
     4
  9
$DIMTDEC
 70
     4
  9
$DIMALTU
 70
     2
  9
$DIMALTTD
 70
     2
  9
$DIMTXSTY
  7
Standard
  9
$DIMAUNIT
 70
     0
  9
$DIMADEC
 70
     0
  9
$DIMALTRND
 40
0.0
  9
$DIMAZIN
 70
     0
  9
$DIMDSEP
 70
    46
  9
$DIMATFIT
 70
     3
  9
$DIMFRAC
 70
     0
  9
$DIMLDRBLK
  1

  9
$DIMLUNIT
 70
     2
  9
$DIMLWD
 70
    -2
  9
$DIMLWE
 70
    -2
  9
$DIMTMOVE
 70
     0
  9
$LUNITS
 70
     2
  9
$LUPREC
 70
     4
  9
$SKETCHINC
 40
0.1
  9
$FILLETRAD
 40
0.5
  9
$AUNITS
 70
     0
  9
$AUPREC
 70
     0
  9
$MENU
  1
.
  9
$ELEVATION
 40
0.0
  9
$PELEVATION
 40
0.0
  9
$THICKNESS
 40
0.0
  9
$LIMCHECK
 70
     0
  9
$CHAMFERA
 40
0.5
  9
$CHAMFERB
 40
0.5
  9
$CHAMFERC
 40
1.0
  9
$CHAMFERD
 40
0.0
  9
$SKPOLY
 70
     0
  9
$TDCREATE
 40
2457126.417537118
  9
$TDUCREATE
 40
2457125.917537118
  9
$TDUPDATE
 40
2457126.417538588
  9
$TDUUPDATE
 40
2457125.917538588
  9
$TDINDWG
 40
0.0000000116
  9
$TDUSRTIMER
 40
0.0000000116
  9
$USRTIMER
 70
     1
  9
$ANGBASE
 50
0.0
  9
$ANGDIR
 70
     0
  9
$PDMODE
 70
     0
  9
$PDSIZE
 40
0.0
  9
$PLINEWID
 40
0.0
  9
$SPLFRAME
 70
     0
  9
$SPLINETYPE
 70
     6
  9
$SPLINESEGS
 70
     8
  9
$HANDSEED
  5
1B5
  9
$SURFTAB1
 70
     6
  9
$SURFTAB2
 70
     6
  9
$SURFTYPE
 70
     6
  9
$SURFU
 70
     6
  9
$SURFV
 70
     6
  9
$UCSBASE
  2

  9
$UCSNAME
  2

  9
$UCSORG
 10
0.0
 20
0.0
 30
0.0
  9
$UCSXDIR
 10
1.0
 20
0.0
 30
0.0
  9
$UCSYDIR
 10
0.0
 20
1.0
 30
0.0
  9
$UCSORTHOREF
  2

  9
$UCSORTHOVIEW
 70
     0
  9
$UCSORGTOP
 10
0.0
 20
0.0
 30
0.0
  9
$UCSORGBOTTOM
 10
0.0
 20
0.0
 30
0.0
  9
$UCSORGLEFT
 10
0.0
 20
0.0
 30
0.0
  9
$UCSORGRIGHT
 10
0.0
 20
0.0
 30
0.0
  9
$UCSORGFRONT
 10
0.0
 20
0.0
 30
0.0
  9
$UCSORGBACK
 10
0.0
 20
0.0
 30
0.0
  9
$PUCSBASE
  2

  9
$PUCSNAME
  2

  9
$PUCSORG
 10
0.0
 20
0.0
 30
0.0
  9
$PUCSXDIR
 10
1.0
 20
0.0
 30
0.0
  9
$PUCSYDIR
 10
0.0
 20
1.0
 30
0.0
  9
$PUCSORTHOREF
  2

  9
$PUCSORTHOVIEW
 70
     0
  9
$PUCSORGTOP
 10
0.0
 20
0.0
 30
0.0
  9
$PUCSORGBOTTOM
 10
0.0
 20
0.0
 30
0.0
  9
$PUCSORGLEFT
 10
0.0
 20
0.0
 30
0.0
  9
$PUCSORGRIGHT
 10
0.0
 20
0.0
 30
0.0
  9
$PUCSORGFRONT
 10
0.0
 20
0.0
 30
0.0
  9
$PUCSORGBACK
 10
0.0
 20
0.0
 30
0.0
  9
$USERI1
 70
     0
  9
$USERI2
 70
     0
  9
$USERI3
 70
     0
  9
$USERI4
 70
     0
  9
$USERI5
 70
     0
  9
$USERR1
 40
0.0
  9
$USERR2
 40
0.0
  9
$USERR3
 40
0.0
  9
$USERR4
 40
0.0
  9
$USERR5
 40
0.0
  9
$WORLDVIEW
 70
     1
  9
$SHADEDGE
 70
     3
  9
$SHADEDIF
 70
    70
  9
$TILEMODE
 70
     1
  9
$MAXACTVP
 70
    64
  9
$PINSBASE
 10
0.0
 20
0.0
 30
0.0
  9
$PLIMCHECK
 70
     0
  9
$PEXTMIN
 10
1.000000000000000E+20
 20
1.000000000000000E+20
 30
1.000000000000000E+20
  9
$PEXTMAX
 10
-1.000000000000000E+20
 20
-1.000000000000000E+20
 30
-1.000000000000000E+20
  9
$PLIMMIN
 10
0.0
 20
0.0
  9
$PLIMMAX
 10
12.0
 20
9.0
  9
$UNITMODE
 70
     0
  9
$VISRETAIN
 70
     1
  9
$PLINEGEN
 70
     0
  9
$PSLTSCALE
 70
     1
  9
$TREEDEPTH
 70
  3020
  9
$CMLSTYLE
  2
Standard
  9
$CMLJUST
 70
     0
  9
$CMLSCALE
 40
1.0
  9
$PROXYGRAPHICS
 70
     1
  9
$MEASUREMENT
 70
     0
  9
$CELWEIGHT
370
    -1
  9
$ENDCAPS
280
     0
  9
$JOINSTYLE
280
     0
  9
$LWDISPLAY
290
     1
  9
$INSUNITS
 70
     4
  9
$HYPERLINKBASE
  1

  9
$STYLESHEET
  1

  9
$XEDIT
290
     1
  9
$CEPSNTYPE
380
     0
  9
$PSTYLEMODE
290
     1
  9
$FINGERPRINTGUID
  2
{D82CBA65-F189-45EE-8636-888B52DF8898}
  9
$VERSIONGUID
  2
{FAEB1C32-E019-11D5-929B-00C0DF256EC4}
  9
$EXTNAMES
290
     1
  9
$PSVPSCALE
 40
0.0
  9
$OLESTARTUP
290
     0
  9
$SORTENTS
280
   127
  9
$INDEXCTL
280
     0
  9
$HIDETEXT
280
     1
  9
$XCLIPFRAME
290
     0
  9
$HALOGAP
280
     0
  9
$OBSCOLOR
 70
   257
  9
$OBSLTYPE
280
     0
  9
$INTERSECTIONDISPLAY
280
     0
  9
$INTERSECTIONCOLOR
 70
   257
  9
$DIMASSOC
280
     2
  9
$PROJECTNAME
  1

  0
ENDSEC
  0
SECTION
  2
CLASSES
  0
CLASS
  1
ACDBDICTIONARYWDFLT
  2
AcDbDictionaryWithDefault
  3
ObjectDBX Classes
 90
        0
 91
        4
280
     0
281
     0
  0
CLASS
  1
VISUALSTYLE
  2
AcDbVisualStyle
  3
ObjectDBX Classes
 90
     4095
 91
        4
280
     0
281
     0
  0
CLASS
  1
MATERIAL
  2
AcDbMaterial
  3
ObjectDBX Classes
 90
     1153
 91
        4
280
     0
281
     0
  0
CLASS
  1
WIPEOUT
  2
AcDbWipeout
  3
WipeOut|AutoCAD Express Tool|expresstools@autodesk.com
 90
      127
 91
        4
280
     0
281
     1
  0
CLASS
  1
SCALE
  2
AcDbScale
  3
ObjectDBX Classes
 90
     1153
 91
        4
280
     0
281
     0
  0
CLASS
  1
DICTIONARYVAR
  2
AcDbDictionaryVar
  3
ObjectDBX Classes
 90
        0
 91
        4
280
     0
281
     0
  0
ENDSEC
  0
SECTION
  2
TABLES
  0
TABLE
  2
VPORT
  5
8
330
0
100
AcDbSymbolTable
 70
     1
  0
VPORT
  5
29
330
8
100
AcDbSymbolTableRecord
100
AcDbViewportTableRecord
  2
*Active
 70
     0
 10
0.0
 20
0.0
 11
1.0
 21
1.0
 12
100.0733239561422
 22
257.075021503331
 13
0.0
 23
0.0
 14
0.5
 24
0.5
 15
0.5
 25
0.5
 16
0.0
 26
0.0
 36
1.0
 17
0.0
 27
0.0
 37
0.0
 40
1010.644461878299
 41
0.9497243148649959
 42
50.0
 43
0.0
 44
0.0
 50
0.0
 51
0.0
 71
     0
 72
   100
 73
     1
 74
     3
 75
     0
 76
     0
 77
     0
 78
     0
281
     0
 65
     1
110
0.0
120
0.0
130
0.0
111
1.0
121
0.0
131
0.0
112
0.0
122
1.0
132
0.0
 79
     0
146
0.0
  0
ENDTAB
  0
TABLE
  2
LTYPE
  5
5
330
0
100
AcDbSymbolTable
 70
     5
  0
LTYPE
  5
14
330
5
100
AcDbSymbolTableRecord
100
AcDbLinetypeTableRecord
  2
ByBlock
 70
     0
  3

 72
    65
 73
     0
 40
0.0
  0
LTYPE
  5
15
330
5
100
AcDbSymbolTableRecord
100
AcDbLinetypeTableRecord
  2
ByLayer
 70
     0
  3

 72
    65
 73
     0
 40
0.0
  0
LTYPE
  5
16
330
5
100
AcDbSymbolTableRecord
100
AcDbLinetypeTableRecord
  2
Continuous
 70
     0
  3
Solid line
 72
    65
 73
     0
 40
0.0
  0
LTYPE
  5
A6
330
5
100
AcDbSymbolTableRecord
100
AcDbLinetypeTableRecord
  2
DASHED2
 70
     0
  3
- - - - - 
 72
    65
 73
     2
 40
7.5
 49
5.0
 74
     0
 49
-2.5
 74
     0
  0
LTYPE
  5
107
330
5
100
AcDbSymbolTableRecord
100
AcDbLinetypeTableRecord
  2
Above
 70
     0
  3
- - - - - 
 72
    65
 73
     2
 40
15.0
 49
10.0
 74
     0
 49
-4.999999999999999
 74
     0
  0
LTYPE
  5
11C
330
5
100
AcDbSymbolTableRecord
100
AcDbLinetypeTableRecord
  2
AStair_dashed
 70
     0
  3
- - - - - 
 72
    65
 73
     2
 40
18.00000000000001
 49
8.000000000000004
 74
     0
 49
-10.0
 74
     0
  0
LTYPE
  5
13C
330
5
100
AcDbSymbolTableRecord
100
AcDbLinetypeTableRecord
  2
Wipeout_Contour
 70
     0
  3
- - - - - 
 72
    65
 73
     2
 40
1000.0
 49
0.0
 74
     0
 49
-1000.0
 74
     0
  0
ENDTAB
  0
TABLE
  2
LAYER
  5
2
330
0
100
AcDbSymbolTable
 70
     4
  0
LAYER
  5
10
330
2
100
AcDbSymbolTableRecord
100
AcDbLayerTableRecord
  2
0
 70
     0
 62
     7
  6
Continuous
370
    -3
390
F
  0
LAYER
  5
40
330
2
100
AcDbSymbolTableRecord
100
AcDbLayerTableRecord
  2
0_Pen_No__146
 70
     0
 62
     9
420
 13290186
  6
Continuous
370
     5
390
F
  0
LAYER
  5
47
330
2
100
AcDbSymbolTableRecord
100
AcDbLayerTableRecord
  2
0_Pen_No__1
 70
     0
 62
     7
  6
Continuous
370
    13
390
F
  0
LAYER
  5
13D
330
2
100
AcDbSymbolTableRecord
100
AcDbLayerTableRecord
  2
Key_ Sections_Pen_No__1
 70
     0
 62
     7
  6
Continuous
370
    13
390
F
  0
ENDTAB
  0
TABLE
  2
STYLE
  5
3
330
0
100
AcDbSymbolTable
 70
     2
  0
STYLE
  5
11
330
3
100
AcDbSymbolTableRecord
100
AcDbTextStyleTableRecord
  2
Standard
 70
     0
 40
0.0
 41
1.0
 50
0.0
 71
     0
 42
0.2
  3
txt
  4

  0
STYLE
  5
13A
330
3
100
AcDbSymbolTableRecord
100
AcDbTextStyleTableRecord
  2
GENERATED_STYLE_1
 70
     0
 40
0.0
 41
1.0
 50
0.0
 71
     0
 42
0.2
  3

  4

1001
ACAD
1000
Arial
1071
       34
  0
ENDTAB
  0
TABLE
  2
VIEW
  5
6
330
0
100
AcDbSymbolTable
 70
     0
  0
ENDTAB
  0
TABLE
  2
UCS
  5
7
330
0
100
AcDbSymbolTable
 70
     0
  0
ENDTAB
  0
TABLE
  2
APPID
  5
9
330
0
100
AcDbSymbolTable
 70
     1
  0
APPID
  5
12
330
9
100
AcDbSymbolTableRecord
100
AcDbRegAppTableRecord
  2
ACAD
 70
     0
  0
ENDTAB
  0
TABLE
  2
DIMSTYLE
  5
A
330
0
100
AcDbSymbolTable
 70
     2
100
AcDbDimStyleTable
  0
DIMSTYLE
105
27
330
A
100
AcDbSymbolTableRecord
100
AcDbDimStyleTableRecord
  2
Standard
 70
     0
178
     0
340
11
  0
DIMSTYLE
105
140
330
A
100
AcDbSymbolTableRecord
100
AcDbDimStyleTableRecord
  2
GENERATED_STYLE__1
 70
     0
 41
9.12
172
     1
178
     0
340
0
341
141
  0
ENDTAB
  0
TABLE
  2
BLOCK_RECORD
  5
1
330
0
100
AcDbSymbolTable
 70
     3
  0
BLOCK_RECORD
  5
1F
330
1
100
AcDbSymbolTableRecord
100
AcDbBlockTableRecord
  2
*Model_Space
340
22
  0
BLOCK_RECORD
  5
1B
330
1
100
AcDbSymbolTableRecord
100
AcDbBlockTableRecord
  2
*Paper_Space
340
1E
  0
BLOCK_RECORD
  5
23
330
1
100
AcDbSymbolTableRecord
100
AcDbBlockTableRecord
  2
*Paper_Space0
340
26
  0
BLOCK_RECORD
  5
141
330
1
100
AcDbSymbolTableRecord
100
AcDbBlockTableRecord
  2
ARROWHEAD_5
340
0
  0
BLOCK_RECORD
  5
163
330
1
100
AcDbSymbolTableRecord
100
AcDbBlockTableRecord
  2
DC-40-T Window Head Layout_STORY_MARKER
340
0
  0
ENDTAB
  0
ENDSEC
  0
SECTION
  2
BLOCKS
  0
BLOCK
  5
20
330
1F
100
AcDbEntity
  8
0
100
AcDbBlockBegin
  2
*Model_Space
 70
     0
 10
0.0
 20
0.0
 30
0.0
  3
*Model_Space
  1

  0
ENDBLK
  5
21
330
1F
100
AcDbEntity
  8
0
100
AcDbBlockEnd
  0
BLOCK
  5
1C
330
1B
100
AcDbEntity
 67
     1
  8
0
100
AcDbBlockBegin
  2
*Paper_Space
 70
     0
 10
0.0
 20
0.0
 30
0.0
  3
*Paper_Space
  1

  0
ENDBLK
  5
1D
330
1B
100
AcDbEntity
 67
     1
  8
0
100
AcDbBlockEnd
  0
BLOCK
  5
24
330
23
100
AcDbEntity
  8
0
100
AcDbBlockBegin
  2
*Paper_Space0
 70
     0
 10
0.0
 20
0.0
 30
0.0
  3
*Paper_Space0
  1

  0
ENDBLK
  5
25
330
23
100
AcDbEntity
  8
0
100
AcDbBlockEnd
  0
BLOCK
  5
142
330
141
100
AcDbEntity
  8
0
100
AcDbBlockBegin
  2
ARROWHEAD_5
 70
     0
 10
0.0
 20
0.0
 30
0.0
  3
ARROWHEAD_5
  1

  0
SOLID
  5
144
330
141
100
AcDbEntity
  8
0
  6
Continuous
 62
     0
370
     0
100
AcDbTrace
 10
-1.0
 20
0.2679
 30
0.0
 11
0.0
 21
0.0
 31
0.0
 12
-1.0
 22
-0.2679
 32
0.0
 13
-1.0
 23
0.2679
 33
0.0
  0
LINE
  5
145
330
141
100
AcDbEntity
  8
0
  6
Continuous
 62
     0
370
     0
100
AcDbLine
 10
0.0
 20
0.0
 30
0.0
 11
-1.0
 21
0.0
 31
0.0
  0
ENDBLK
  5
143
330
141
100
AcDbEntity
  8
0
100
AcDbBlockEnd
  0
BLOCK
  5
164
330
163
100
AcDbEntity
  8
0
100
AcDbBlockBegin
  2
DC-40-T Window Head Layout_STORY_MARKER
 70
     0
 10
0.0
 20
0.0
 30
0.0
  3
DC-40-T Window Head Layout_STORY_MARKER
  1

  0
ENDBLK
  5
165
330
163
100
AcDbEntity
  8
0
100
AcDbBlockEnd
  0
ENDSEC
  0
SECTION
  2
ENTITIES
  0
HATCH
  5
3F
330
1F
100
AcDbEntity
  8
0_Pen_No__146
  6
Continuous
 62
   250
420
  3289650
370
     0
100
AcDbHatch
 10
0.0
 20
0.0
 30
0.0
210
0.0
220
0.0
230
1.0
  2
SOLID
 70
     1
 71
     0
 91
        1
 92
        3
 72
     0
 73
     1
 93
        4
 10
-215.0793072588879
 20
207.9962654560307
 10
-211.9369116200906
 20
174.5763492609471
 10
-206.4633162802092
 20
177.7365310176725
 10
-209.6057119190084
 20
211.1564472127553
 97
        0
 75
     0
 76
     1
 98
        0
  0
HATCH
  5
41
330
1F
100
AcDbEntity
  8
0_Pen_No__146
  6
Continuous
 62
   250
420
  3289650
370
     0
100
AcDbHatch
 10
0.0
 20
0.0
 30
0.0
210
0.0
220
0.0
230
1.0
  2
SOLID
 70
     1
 71
     0
 91
        1
 92
        3
 72
     0
 73
     1
 93
       16
 10
-215.0793072588879
 20
207.9962654560303
 10
-209.6057119190084
 20
211.1564472127553
 10
-212.9903809999989
 20
247.1529829888847
 10
-199.9999999999999
 20
239.6529829888856
 10
-212.9903809999989
 20
377.8079113505039
 10
-212.9903809999989
 20
394.7616785432079
 10
-208.0658581847181
 20
391.9185039577501
 10
-208.0658581847181
 20
396.4987724422261
 10
-208.2802294261778
 20
398.7786473363325
 10
-210.6961796399982
 20
400.1734968487264
 10
-210.6961796399982
 20
398.2524682488093
 10
-219.052558800002
 20
403.0770260273712
 10
-219.052558800002
 20
379.2820140203132
 10
-206.7979739857419
 20
250.5777951166467
 10
-219.052558800002
 20
257.6529829888854
 10
-219.0129982641655
 20
249.8317434940695
 97
        0
 75
     0
 76
     1
 98
        0
  0
HATCH
  5
42
330
1F
100
AcDbEntity
  8
0_Pen_No__146
  6
Continuous
 62
   250
420
  3289650
370
     0
100
AcDbHatch
 10
0.0
 20
0.0
 30
0.0
210
0.0
220
0.0
230
1.0
  2
SOLID
 70
     1
 71
     0
 91
        1
 92
        3
 72
     0
 73
     1
 93
        4
 10
-211.9369116200906
 20
174.5763492609468
 10
-209.8058981985338
 20
151.9126562874273
 10
-203.7039000029164
 20
148.3896659711974
 10
-206.4633162802092
 20
177.7365310176725
 97
        0
 75
     0
 76
     1
 98
        0
  0
HATCH
  5
43
330
1F
100
AcDbEntity
  8
0_Pen_No__146
  6
Continuous
 62
   250
420
  3289650
370
     0
100
AcDbHatch
 10
0.0
 20
0.0
 30
0.0
210
0.0
220
0.0
230
1.0
  2
SOLID
 70
     1
 71
     0
 91
        1
 92
        3
 72
     0
 73
     1
 93
       20
 10
-204.2732215890173
 20
548.1911669051125
 10
-210.4118363067162
 20
551.6242543839307
 10
-206.7979739857419
 20
513.6695350445077
 10
-219.052558800002
 20
520.7447229167457
 10
-219.0129982641655
 20
512.9234834219305
 10
-209.4824520333598
 20
411.5644908130917
 10
-218.1865333999979
 20
416.5897945551286
 10
-218.1865333999979
 20
403.7896349926606
 10
-212.1243556000067
 20
400.2896349926656
 10
-212.1243556000067
 20
406.0897945551345
 10
-208.7864762432312
 20
404.1626690015567
 10
-208.2802294261778
 20
398.7786473363325
 10
-208.0658581847181
 20
398.6548800418285
 10
-208.0658581847181
 20
396.4987724422261
 10
-206.7979739857419
 20
383.0146066828892
 10
-212.1243556000067
 20
386.08979455513
 10
-212.1243556000067
 20
379.0897945551316
 10
-199.9999999999999
 20
372.0897945551275
 10
-212.9903809999989
 20
510.244722916745
 10
-199.9999999999999
 20
502.7447229167457
 97
        0
 75
     0
 76
     1
 98
        0
  0
HATCH
  5
44
330
1F
100
AcDbEntity
  8
0_Pen_No__146
  6
Continuous
 62
   250
420
  3289650
370
     0
100
AcDbHatch
 10
0.0
 20
0.0
 30
0.0
210
0.0
220
0.0
230
1.0
  2
SOLID
 70
     1
 71
     0
 91
        1
 92
        3
 72
     0
 73
     1
 93
       62
 10
-283.0827867602983
 20
204.8555984551762
 10
-275.5844346720446
 20
147.7742892956956
 10
-273.5059381288327
 20
113.8255124232214
 10
-274.0907827197569
 20
108.821842034193
 10
-220.3073970122437
 20
139.8736943860474
 10
-222.855788720371
 20
142.6421839260285
 10
-242.5018428278618
 20
131.2995292489884
 10
-246.8406964730485
 20
133.804567579959
 10
-259.8715215715883
 20
126.281217168678
 10
-259.2489686997814
 20
205.1037895295191
 10
-246.125588624434
 20
212.6805765818082
 10
-246.125588624434
 20
558.8312868985568
 10
-211.4845725109007
 20
578.8312869641051
 10
-197.8136381957977
 20
570.9383693227137
 10
-162.2204339024578
 20
598.1567020176217
 10
-114.8307127172024
 20
613.1218771287554
 10
-89.99430482927262
 20
616.786265177794
 10
-89.99430482927218
 20
648.5661686532476
 10
-55.35328871573886
 20
668.5661687187958
 10
-39.76483146464971
 20
659.5661686892977
 10
-39.76483146464971
 20
629.3995251518268
 10
29.0583318690123
 20
648.8984190471441
 10
42.80676859272514
 20
642.9292767374086
 10
33.80154211796338
 20
637.7301067853716
 10
36.03026290291034
 20
614.0272792560919
 10
87.22238783462899
 20
614.6407087812502
 10
135.5647991059845
 20
632.3983126401997
 10
222.2496972256307
 20
622.6422850538543
 10
227.6308643455698
 20
618.9825902777258
 10
220.0682109572902
 20
613.9650076967247
 10
236.2655195095833
 20
611.0718264701562
 10
247.8857741364982
 20
595.1730061168397
 10
271.0315033179003
 20
511.6031495113733
 10
262.0262768431381
 20
506.4039795593364
 10
280.8620663003316
 20
485.9268053644241
 10
284.5476142077905
 20
473.2904527797587
 10
300.0000000000001
 20
397.0243501687327
 10
290.9947735252383
 20
391.8251802166956
 10
295.0503112564371
 20
362.4346998155909
 10
274.9689643956517
 20
264.5066551630104
 10
252.4403484545621
 20
237.1289607634623
 10
243.4351219798003
 20
231.9297908114253
 10
217.0161353908568
 20
173.4840051460444
 10
262.0429952208498
 20
227.3770591541988
 10
297.8142088223452
 20
279.6151237819073
 10
335.5793451579066
 20
360.1807479644407
 10
321.732128501534
 20
450.8170751697901
 10
314.1791012344217
 20
522.5708342073592
 10
267.6020997538953
 20
586.7715659778107
 10
232.073213628336
 20
636.8258029715603
 10
171.4066680155013
 20
654.1230997460561
 10
82.02917868800253
 20
665.4526406467265
 10
1.463554505471532
 20
676.7821815473931
 10
-60.65047352144082
 20
681.065629928332
 10
-104.2989009289117
 20
671.3659793933382
 10
-146.5616639742402
 20
640.8813634262162
 10
-258.2636301452632
 20
569.7090875679322
 10
-306.0883291945153
 20
542.8337328885804
 10
-300.1022591500624
 20
486.5646744707157
 10
-305.3762184580975
 20
394.4225457569701
 10
-301.912057552743
 20
316.132509295951
 10
-288.7482461123934
 20
254.4704451806309
 97
        0
 75
     0
 76
     1
 98
        0
  0
HATCH
  5
45
330
1F
100
AcDbEntity
  8
0_Pen_No__146
  6
Continuous
 62
   250
420
  3289650
370
     0
100
AcDbHatch
 10
0.0
 20
0.0
 30
0.0
210
0.0
220
0.0
230
1.0
  2
SOLID
 70
     1
 71
     0
 91
        1
 92
        3
 72
     0
 73
     1
 93
        3
 10
77.94228625544531
 20
207.4761883169614
 10
77.94228625544531
 20
267.4301962317318
 10
26.02059256945743
 20
237.4531922743497
 97
        0
 75
     0
 76
     1
 98
        0
  0
LWPOLYLINE
  5
46
330
1F
100
AcDbEntity
  8
0_Pen_No__1
  6
Continuous
100
AcDbPolyline
 90
        2
 70
   128
 43
0.0
 10
-246.125588624434
 20
558.8312868985568
 10
-211.4845725109007
 20
578.8312869641051
  0
LWPOLYLINE
  5
48
330
1F
100
AcDbEntity
  8
0_Pen_No__1
  6
Continuous
100
AcDbPolyline
 90
        2
 70
   128
 43
0.0
 10
-211.4845725109007
 20
578.8312869641051
 10
-195.8961152598119
 20
569.831286934607
  0
LWPOLYLINE
  5
49
330
1F
100
AcDbEntity
  8
0_Pen_No__1
  6
Continuous
100
AcDbPolyline
 90
        2
 70
   128
 43
0.0
 10
-218.6072838367592
 20
140.8552551898556
 10
-225.8406908162083
 20
147.1737712644127
  0
LWPOLYLINE
  5
4A
330
1F
100
AcDbEntity
  8
0_Pen_No__1
  6
Continuous
100
AcDbPolyline
 90
        2
 70
   128
 43
0.0
 10
92.60355495456629
 20
610.9810140051218
 10
87.22238783462811
 20
614.6407087812502
  0
LWPOLYLINE
  5
4B
330
1F
100
AcDbEntity
  8
0_Pen_No__1
  6
Continuous
100
AcDbPolyline
 90
        2
 70
   128
 43
0.0
 10
140.9459662259227
 20
628.7386178640712
 10
135.5647991059836
 20
632.3983126401997
  0
LWPOLYLINE
  5
4C
330
1F
100
AcDbEntity
  8
0_Pen_No__1
  6
Continuous
100
AcDbPolyline
 90
        2
 70
   128
 43
0.0
 10
-204.2732215890173
 20
548.1911669051125
 10
-210.4118363067162
 20
551.624254383931
  0
LWPOLYLINE
  5
4D
330
1F
100
AcDbEntity
  8
0_Pen_No__1
  6
Continuous
100
AcDbPolyline
 90
        2
 70
   128
 43
0.0
 10
227.6308643455698
 20
618.9825902777258
 10
222.2496972256307
 20
622.6422850538543
  0
LWPOLYLINE
  5
4E
330
1F
100
AcDbEntity
  8
0_Pen_No__1
  6
Continuous
100
AcDbPolyline
 90
        2
 70
   128
 43
0.0
 10
280.8620663003316
 20
485.9268053644241
 10
262.0262768431381
 20
506.4039795593364
  0
LWPOLYLINE
  5
4F
330
1F
100
AcDbEntity
  8
0_Pen_No__1
  6
Continuous
100
AcDbPolyline
 90
        2
 70
   128
 43
0.0
 10
77.94228625544531
 20
276.0894745388587
 10
77.94228625544531
 20
207.4761883169614
  0
LWPOLYLINE
  5
50
330
1F
100
AcDbEntity
  8
0_Pen_No__1
  6
Continuous
100
AcDbPolyline
 90
        2
 70
   128
 43
0.0
 10
77.94228625544531
 20
207.4761883169614
 10
18.5214376098175
 20
241.7828314279134
  0
LWPOLYLINE
  5
51
330
1F
100
AcDbEntity
  8
0_Pen_No__1
  6
Continuous
100
AcDbPolyline
 90
        2
 70
   128
 43
0.0
 10
77.94228625544531
 20
276.0894745388587
 10
77.94228625544531
 20
207.4761883169614
  0
LWPOLYLINE
  5
52
330
1F
100
AcDbEntity
  8
0_Pen_No__1
  6
Continuous
100
AcDbPolyline
 90
        2
 70
   128
 43
0.0
 10
-60.65047352144015
 20
681.0656299283324
 10
-104.2989009289126
 20
671.3659793933382
  0
LWPOLYLINE
  5
53
330
1F
100
AcDbEntity
  8
0_Pen_No__1
  6
Continuous
100
AcDbPolyline
 90
        2
 70
   128
 43
0.0
 10
-104.2989009289126
 20
671.3659793933382
 10
-146.5616639742426
 20
640.8813634262151
  0
LWPOLYLINE
  5
54
330
1F
100
AcDbEntity
  8
0_Pen_No__1
  6
Continuous
100
AcDbPolyline
 90
        2
 70
   128
 43
0.0
 10
-146.5616639742426
 20
640.8813634262151
 10
-258.2636301452703
 20
569.7090875679303
  0
LWPOLYLINE
  5
55
330
1F
100
AcDbEntity
  8
0_Pen_No__1
  6
Continuous
100
AcDbPolyline
 90
        2
 70
   128
 43
0.0
 10
-258.2636301452703
 20
569.7090875679303
 10
-306.0883291945153
 20
542.8337328885808
  0
LWPOLYLINE
  5
56
330
1F
100
AcDbEntity
  8
0_Pen_No__1
  6
Continuous
100
AcDbPolyline
 90
        2
 70
   128
 43
0.0
 10
-306.0883291945153
 20
542.8337328885808
 10
-300.102259150062
 20
486.5646744707188
  0
LWPOLYLINE
  5
57
330
1F
100
AcDbEntity
  8
0_Pen_No__1
  6
Continuous
100
AcDbPolyline
 90
        2
 70
   128
 43
0.0
 10
-300.102259150062
 20
486.5646744707188
 10
-305.3762184580975
 20
394.4225457569707
  0
LWPOLYLINE
  5
58
330
1F
100
AcDbEntity
  8
0_Pen_No__1
  6
Continuous
100
AcDbPolyline
 90
        2
 70
   128
 43
0.0
 10
-305.3762184580975
 20
394.4225457569707
 10
-301.9120575527425
 20
316.132509295949
  0
LWPOLYLINE
  5
59
330
1F
100
AcDbEntity
  8
0_Pen_No__1
  6
Continuous
100
AcDbPolyline
 90
        2
 70
   128
 43
0.0
 10
-301.9120575527425
 20
316.132509295949
 10
-288.7482461123934
 20
254.4704451806309
  0
LWPOLYLINE
  5
5A
330
1F
100
AcDbEntity
  8
0_Pen_No__1
  6
Continuous
100
AcDbPolyline
 90
        2
 70
   128
 43
0.0
 10
-288.7482461123947
 20
254.4704451806314
 10
-283.0827867603014
 20
204.8555984551929
  0
LWPOLYLINE
  5
5B
330
1F
100
AcDbEntity
  8
0_Pen_No__1
  6
Continuous
100
AcDbPolyline
 90
        2
 70
   128
 43
0.0
 10
-283.0827867603014
 20
204.8555984551929
 10
-275.5844346720451
 20
147.7742892957003
  0
LWPOLYLINE
  5
5C
330
1F
100
AcDbEntity
  8
0_Pen_No__1
  6
Continuous
100
AcDbPolyline
 90
        2
 70
   128
 43
0.0
 10
-275.5844346720451
 20
147.7742892957003
 10
-273.5059381288323
 20
113.8255124232219
  0
LWPOLYLINE
  5
5D
330
1F
100
AcDbEntity
  8
0_Pen_No__1
  6
Continuous
100
AcDbPolyline
 90
        2
 70
   128
 43
0.0
 10
-273.5059381288323
 20
113.8255124232219
 10
-274.0907827197574
 20
108.8218420341928
  0
LWPOLYLINE
  5
5E
330
1F
100
AcDbEntity
  8
0_Pen_No__1
  6
Continuous
100
AcDbPolyline
 90
        2
 70
   128
 43
0.0
 10
-274.0907827197574
 20
108.8218420341928
 10
-218.6072838367592
 20
140.8552551898556
  0
LWPOLYLINE
  5
5F
330
1F
100
AcDbEntity
  8
0_Pen_No__1
  6
Continuous
100
AcDbPolyline
 90
        2
 70
   128
 43
0.0
 10
-187.1188891047193
 20
572.014791705051
 10
-204.6217633840015
 20
565.7321559435001
  0
LWPOLYLINE
  5
60
330
1F
100
AcDbEntity
  8
0_Pen_No__1
  6
Continuous
100
AcDbPolyline
 90
        2
 70
   128
 43
0.0
 10
-204.6217633840015
 20
565.7321559435001
 10
-162.2204339024587
 20
598.1567020176217
  0
LWPOLYLINE
  5
61
330
1F
100
AcDbEntity
  8
0_Pen_No__1
  6
Continuous
100
AcDbPolyline
 90
        2
 70
   128
 43
0.0
 10
-162.2204339024587
 20
598.1567020176217
 10
-114.8307127172028
 20
613.1218771287554
  0
LWPOLYLINE
  5
62
330
1F
100
AcDbEntity
  8
0_Pen_No__1
  6
Continuous
100
AcDbPolyline
 90
        2
 70
   128
 43
0.0
 10
-114.8307127172028
 20
613.1218771287554
 10
-89.99430482927262
 20
616.786265177794
  0
LWPOLYLINE
  5
63
330
1F
100
AcDbEntity
  8
0_Pen_No__1
  6
Continuous
100
AcDbPolyline
 90
        2
 70
   128
 43
0.0
 10
-225.8406908162083
 20
144.7071298535833
 10
-225.8406908162083
 20
201.7831777352085
  0
LWPOLYLINE
  5
64
330
1F
100
AcDbEntity
  8
0_Pen_No__1
  6
Continuous
100
AcDbPolyline
 90
        2
 70
   128
 43
0.0
 10
-218.6072838367592
 20
138.3886137790266
 10
-225.8406908162083
 20
144.7071298535833
  0
LWPOLYLINE
  5
65
330
1F
100
AcDbEntity
  8
0_Pen_No__1
  6
Continuous
100
AcDbPolyline
 90
        2
 70
   128
 43
0.0
 10
-218.6072838367592
 20
143.3226556517999
 10
-225.8406908162083
 20
149.641171726357
  0
LWPOLYLINE
  5
66
330
1F
100
AcDbEntity
  8
0_Pen_No__1
  6
Continuous
100
AcDbPolyline
 90
        2
 70
   128
 43
0.0
 10
-89.99430482927218
 20
616.786265177794
 10
-89.99430482927218
 20
648.5661686532476
  0
LWPOLYLINE
  5
67
330
1F
100
AcDbEntity
  8
0_Pen_No__1
  6
Continuous
100
AcDbPolyline
 90
        2
 70
   128
 43
0.0
 10
-89.99430482927218
 20
648.5661686532476
 10
-55.35328871573886
 20
668.5661687187958
  0
LWPOLYLINE
  5
68
330
1F
100
AcDbEntity
  8
0_Pen_No__1
  6
Continuous
100
AcDbPolyline
 90
        2
 70
   128
 43
0.0
 10
-55.35328871573886
 20
668.5661687187958
 10
-39.76483146464971
 20
659.5661686892977
  0
LWPOLYLINE
  5
69
330
1F
100
AcDbEntity
  8
0_Pen_No__1
  6
Continuous
100
AcDbPolyline
 90
        2
 70
   128
 43
0.0
 10
150.6804870591365
 20
178.3778771373787
 10
252.4403484545621
 20
237.1289607634623
  0
LWPOLYLINE
  5
6A
330
1F
100
AcDbEntity
  8
0_Pen_No__1
  6
Continuous
100
AcDbPolyline
 90
        2
 70
   128
 43
0.0
 10
154.7486444093504
 20
355.342339883685
 10
-203.7039000029168
 20
148.3896659711976
  0
LWPOLYLINE
  5
6B
330
1F
100
AcDbEntity
  8
0_Pen_No__1
  6
Continuous
100
AcDbPolyline
 90
        2
 70
   128
 43
0.0
 10
169.9177688888707
 20
321.9213385950279
 10
300.0000000000001
 20
397.0243501687327
  0
LWPOLYLINE
  5
6C
330
1F
100
AcDbEntity
  8
0_Pen_No__1
  6
Continuous
100
AcDbPolyline
 90
        2
 70
   128
 43
0.0
 10
-199.9999999999999
 20
239.6529829888856
 10
271.0315033179003
 20
511.6031495113733
  0
LWPOLYLINE
  5
6D
330
1F
100
AcDbEntity
  8
0_Pen_No__1
  6
Continuous
100
AcDbPolyline
 90
        2
 70
   128
 43
0.0
 10
36.41081072076258
 20
609.980087991002
 10
33.80154211796338
 20
637.7301067853716
  0
LWPOLYLINE
  5
6E
330
1F
100
AcDbEntity
  8
0_Pen_No__1
  6
Continuous
100
AcDbPolyline
 90
        2
 70
   128
 43
0.0
 10
-203.7039000029164
 20
148.3896659711971
 10
-212.9903809999989
 20
247.1529829888845
  0
LWPOLYLINE
  5
6F
330
1F
100
AcDbEntity
  8
0_Pen_No__1
  6
Continuous
100
AcDbPolyline
 90
        2
 70
   128
 43
0.0
 10
-199.9999999999999
 20
502.7447229167457
 10
42.80676859272514
 20
642.9292767374086
  0
LWPOLYLINE
  5
70
330
1F
100
AcDbEntity
  8
0_Pen_No__1
  6
Continuous
100
AcDbPolyline
 90
        2
 70
   128
 43
0.0
 10
236.2655195095833
 20
611.0718264701562
 10
218.6256378708071
 20
613.7834203256887
  0
LWPOLYLINE
  5
71
330
1F
100
AcDbEntity
  8
0_Pen_No__1
  6
Continuous
100
AcDbPolyline
 90
        2
 70
   128
 43
0.0
 10
-199.9999999999999
 20
372.0897945551275
 10
227.6308643455698
 20
618.9825902777258
  0
LWPOLYLINE
  5
72
330
1F
100
AcDbEntity
  8
0_Pen_No__1
  6
Continuous
100
AcDbPolyline
 90
        2
 70
   128
 43
0.0
 10
-219.0129982641655
 20
249.8317434940695
 10
-209.8058981985338
 20
151.9126562874273
  0
LWPOLYLINE
  5
73
330
1F
100
AcDbEntity
  8
0_Pen_No__1
  6
Continuous
100
AcDbPolyline
 90
        2
 70
   128
 43
0.0
 10
-199.9999999999999
 20
502.7447229167457
 10
-204.2732215890173
 20
548.1911669051125
  0
LWPOLYLINE
  5
74
330
1F
100
AcDbEntity
  8
0_Pen_No__1
  6
Continuous
100
AcDbPolyline
 90
        2
 70
   128
 43
0.0
 10
-212.9903809999989
 20
247.1529829888845
 10
-199.9999999999999
 20
239.6529829888856
  0
LWPOLYLINE
  5
75
330
1F
100
AcDbEntity
  8
0_Pen_No__1
  6
Continuous
100
AcDbPolyline
 90
        2
 70
   128
 43
0.0
 10
-199.9999999999999
 20
239.6529829888856
 10
-212.9903809999989
 20
377.8079113505039
  0
LWPOLYLINE
  5
76
330
1F
100
AcDbEntity
  8
0_Pen_No__1
  6
Continuous
100
AcDbPolyline
 90
        2
 70
   128
 43
0.0
 10
-212.9903809999989
 20
377.8079113505039
 10
-212.9903809999989
 20
394.7616785432079
  0
LWPOLYLINE
  5
77
330
1F
100
AcDbEntity
  8
0_Pen_No__1
  6
Continuous
100
AcDbPolyline
 90
        2
 70
   128
 43
0.0
 10
-212.9903809999989
 20
394.7616785432079
 10
-208.0658581847181
 20
391.9185039577501
  0
LWPOLYLINE
  5
78
330
1F
100
AcDbEntity
  8
0_Pen_No__1
  6
Continuous
100
AcDbPolyline
 90
        2
 70
   128
 43
0.0
 10
-208.0658581847181
 20
391.9185039577501
 10
-208.0658581847181
 20
398.6548800418285
  0
LWPOLYLINE
  5
79
330
1F
100
AcDbEntity
  8
0_Pen_No__1
  6
Continuous
100
AcDbPolyline
 90
        2
 70
   128
 43
0.0
 10
-208.0658581847181
 20
398.6548800418285
 10
-210.6961796399982
 20
400.1734968487264
  0
LWPOLYLINE
  5
7A
330
1F
100
AcDbEntity
  8
0_Pen_No__1
  6
Continuous
100
AcDbPolyline
 90
        2
 70
   128
 43
0.0
 10
-210.6961796399982
 20
400.1734968487264
 10
-210.6961796399982
 20
398.2524682488093
  0
LWPOLYLINE
  5
7B
330
1F
100
AcDbEntity
  8
0_Pen_No__1
  6
Continuous
100
AcDbPolyline
 90
        2
 70
   128
 43
0.0
 10
-210.6961796399982
 20
398.2524682488093
 10
-219.052558800002
 20
403.0770260273712
  0
LWPOLYLINE
  5
7C
330
1F
100
AcDbEntity
  8
0_Pen_No__1
  6
Continuous
100
AcDbPolyline
 90
        2
 70
   128
 43
0.0
 10
-219.052558800002
 20
403.0770260273712
 10
-219.052558800002
 20
379.282014020313
  0
LWPOLYLINE
  5
7D
330
1F
100
AcDbEntity
  8
0_Pen_No__1
  6
Continuous
100
AcDbPolyline
 90
        2
 70
   128
 43
0.0
 10
-219.052558800002
 20
379.282014020313
 10
-206.7979739857419
 20
250.577795116647
  0
LWPOLYLINE
  5
7E
330
1F
100
AcDbEntity
  8
0_Pen_No__1
  6
Continuous
100
AcDbPolyline
 90
        2
 70
   128
 43
0.0
 10
-206.7979739857419
 20
250.577795116647
 10
-219.052558800002
 20
257.6529829888854
  0
LWPOLYLINE
  5
7F
330
1F
100
AcDbEntity
  8
0_Pen_No__1
  6
Continuous
100
AcDbPolyline
 90
        2
 70
   128
 43
0.0
 10
-219.052558800002
 20
257.6529829888854
 10
-219.0129982641655
 20
249.8317434940695
  0
LWPOLYLINE
  5
80
330
1F
100
AcDbEntity
  8
0_Pen_No__1
  6
Continuous
100
AcDbPolyline
 90
        2
 70
   128
 43
0.0
 10
-212.9903809999989
 20
377.8079113505039
 10
-211.4472248849412
 20
378.6988529528276
  0
LWPOLYLINE
  5
81
330
1F
100
AcDbEntity
  8
0_Pen_No__1
  6
Continuous
100
AcDbPolyline
 90
        2
 70
   128
 43
0.0
 10
-208.0658581847181
 20
391.9185039577501
 10
-207.6573623420816
 20
392.15434914349
  0
LWPOLYLINE
  5
82
330
1F
100
AcDbEntity
  8
0_Pen_No__1
  6
Continuous
100
AcDbPolyline
 90
        2
 70
   128
 43
0.0
 10
-210.6961796399982
 20
400.1734968487264
 10
-208.5290315341128
 20
401.4247003965005
  0
LWPOLYLINE
  5
83
330
1F
100
AcDbEntity
  8
0_Pen_No__1
  6
Continuous
100
AcDbPolyline
 90
        2
 70
   128
 43
0.0
 10
-219.052558800002
 20
403.0770260273712
 10
-218.0024086358216
 20
403.6833305099996
  0
LWPOLYLINE
  5
84
330
1F
100
AcDbEntity
  8
0_Pen_No__1
  6
Continuous
100
AcDbPolyline
 90
        2
 70
   128
 43
0.0
 10
-219.052558800002
 20
257.6529829888854
 10
-208.0750968118921
 20
263.9908236504353
  0
LWPOLYLINE
  5
85
330
1F
100
AcDbEntity
  8
0_Pen_No__1
  6
Continuous
100
AcDbPolyline
 90
        2
 70
   128
 43
0.0
 10
-212.9903809999989
 20
510.244722916745
 10
-199.9999999999999
 20
502.7447229167457
  0
LWPOLYLINE
  5
86
330
1F
100
AcDbEntity
  8
0_Pen_No__1
  6
Continuous
100
AcDbPolyline
 90
        2
 70
   128
 43
0.0
 10
-206.7979739857419
 20
513.6695350445077
 10
-219.052558800002
 20
520.7447229167459
  0
LWPOLYLINE
  5
87
330
1F
100
AcDbEntity
  8
0_Pen_No__1
  6
Continuous
100
AcDbPolyline
 90
        2
 70
   128
 43
0.0
 10
-219.052558800002
 20
520.7447229167459
 10
-219.0129982641655
 20
512.9234834219305
  0
LWPOLYLINE
  5
88
330
1F
100
AcDbEntity
  8
0_Pen_No__1
  6
Continuous
100
AcDbPolyline
 90
        2
 70
   128
 43
0.0
 10
-219.0129982641655
 20
512.9234834219305
 10
-209.4824520333598
 20
411.5644908130915
  0
LWPOLYLINE
  5
89
330
1F
100
AcDbEntity
  8
0_Pen_No__1
  6
Continuous
100
AcDbPolyline
 90
        2
 70
   128
 43
0.0
 10
-209.4824520333598
 20
411.5644908130915
 10
-218.1865333999979
 20
416.5897945551286
  0
LWPOLYLINE
  5
8A
330
1F
100
AcDbEntity
  8
0_Pen_No__1
  6
Continuous
100
AcDbPolyline
 90
        2
 70
   128
 43
0.0
 10
-218.1865333999979
 20
416.5897945551286
 10
-218.1865333999979
 20
403.7896349926606
  0
LWPOLYLINE
  5
8B
330
1F
100
AcDbEntity
  8
0_Pen_No__1
  6
Continuous
100
AcDbPolyline
 90
        2
 70
   128
 43
0.0
 10
-218.1865333999979
 20
403.7896349926606
 10
-212.1243556000067
 20
400.2896349926656
  0
LWPOLYLINE
  5
8C
330
1F
100
AcDbEntity
  8
0_Pen_No__1
  6
Continuous
100
AcDbPolyline
 90
        2
 70
   128
 43
0.0
 10
-212.1243556000067
 20
400.2896349926656
 10
-212.1243556000067
 20
406.0897945551347
  0
LWPOLYLINE
  5
8D
330
1F
100
AcDbEntity
  8
0_Pen_No__1
  6
Continuous
100
AcDbPolyline
 90
        2
 70
   128
 43
0.0
 10
-212.1243556000067
 20
406.0897945551347
 10
-208.7864762432312
 20
404.1626690015567
  0
LWPOLYLINE
  5
8E
330
1F
100
AcDbEntity
  8
0_Pen_No__1
  6
Continuous
100
AcDbPolyline
 90
        2
 70
   128
 43
0.0
 10
-208.7864762432312
 20
404.1626690015567
 10
-206.7979739857419
 20
383.0146066828892
  0
LWPOLYLINE
  5
8F
330
1F
100
AcDbEntity
  8
0_Pen_No__1
  6
Continuous
100
AcDbPolyline
 90
        2
 70
   128
 43
0.0
 10
-206.7979739857419
 20
383.0146066828892
 10
-212.1243556000067
 20
386.08979455513
  0
LWPOLYLINE
  5
90
330
1F
100
AcDbEntity
  8
0_Pen_No__1
  6
Continuous
100
AcDbPolyline
 90
        2
 70
   128
 43
0.0
 10
-212.1243556000067
 20
386.08979455513
 10
-212.1243556000067
 20
379.0897945551316
  0
LWPOLYLINE
  5
91
330
1F
100
AcDbEntity
  8
0_Pen_No__1
  6
Continuous
100
AcDbPolyline
 90
        2
 70
   128
 43
0.0
 10
-212.1243556000067
 20
379.0897945551316
 10
-199.9999999999999
 20
372.0897945551275
  0
LWPOLYLINE
  5
92
330
1F
100
AcDbEntity
  8
0_Pen_No__1
  6
Continuous
100
AcDbPolyline
 90
        2
 70
   128
 43
0.0
 10
-199.9999999999999
 20
372.0897945551275
 10
-212.9903809999989
 20
510.244722916745
  0
LWPOLYLINE
  5
93
330
1F
100
AcDbEntity
  8
0_Pen_No__1
  6
Continuous
100
AcDbPolyline
 90
        2
 70
   128
 43
0.0
 10
-219.052558800002
 20
520.7447229167459
 10
-208.0750968118889
 20
527.0825635782976
  0
LWPOLYLINE
  5
94
330
1F
100
AcDbEntity
  8
0_Pen_No__1
  6
Continuous
100
AcDbPolyline
 90
        2
 70
   128
 43
0.0
 10
-218.1865333999979
 20
416.5897945551286
 10
-210.3788255510126
 20
421.0975768031926
  0
LWPOLYLINE
  5
95
330
1F
100
AcDbEntity
  8
0_Pen_No__1
  6
Continuous
100
AcDbPolyline
 90
        2
 70
   128
 43
0.0
 10
-212.1243556000067
 20
400.2896349926656
 10
-208.6129284442692
 20
402.3169584151295
  0
LWPOLYLINE
  5
96
330
1F
100
AcDbEntity
  8
0_Pen_No__1
  6
Continuous
100
AcDbPolyline
 90
        2
 70
   128
 43
0.0
 10
-212.1243556000067
 20
386.08979455513
 10
-207.3465014204989
 20
388.848289963872
  0
LWPOLYLINE
  5
97
330
1F
100
AcDbEntity
  8
0_Pen_No__1
  6
Continuous
100
AcDbPolyline
 90
        2
 70
   128
 43
0.0
 10
-210.4118363067162
 20
551.624254383931
 10
-206.7979739857419
 20
513.6695350445077
  0
LWPOLYLINE
  5
98
330
1F
100
AcDbEntity
  8
0_Pen_No__1
  6
Continuous
100
AcDbPolyline
 90
        2
 70
   128
 43
0.0
 10
121.5710591563943
 20
-64.81091640611835
 10
150.6804870591365
 20
-48.00458029707344
  0
LWPOLYLINE
  5
99
330
1F
100
AcDbEntity
  8
0_Pen_No__1
  6
Continuous
100
AcDbPolyline
 90
        2
 70
   128
 43
0.0
 10
150.6804870591365
 20
309.4256162296267
 10
150.6804870591365
 20
-48.00458029707344
  0
LWPOLYLINE
  5
9A
330
1F
100
AcDbEntity
  8
0_Pen_No__1
  6
Continuous
100
AcDbPolyline
 90
        2
 70
   128
 43
0.0
 10
147.4985065437968
 20
307.5884989145112
 10
147.4985065437968
 20
-49.84169761218893
  0
LWPOLYLINE
  5
9B
330
1F
100
AcDbEntity
  8
0_Pen_No__1
  6
Continuous
100
AcDbPolyline
 90
        2
 70
   128
 43
0.0
 10
144.3165260284576
 20
305.751381599396
 10
144.3165260284576
 20
-51.67881492730442
  0
LWPOLYLINE
  5
9C
330
1F
100
AcDbEntity
  8
0_Pen_No__1
  6
Continuous
100
AcDbPolyline
 90
        2
 70
   128
 43
0.0
 10
141.1345455131183
 20
303.4359287450248
 10
141.1345455131183
 20
-53.9942677816756
  0
LWPOLYLINE
  5
9D
330
1F
100
AcDbEntity
  8
0_Pen_No__1
  6
Continuous
100
AcDbPolyline
 90
        2
 70
   128
 43
0.0
 10
95.26279431221195
 20
-49.62183256879694
 10
95.26279431221153
 20
277.4301962645058
  0
LWPOLYLINE
  5
9E
330
1F
100
AcDbEntity
  8
0_Pen_No__1
  6
Continuous
100
AcDbPolyline
 90
        2
 70
   128
 43
0.0
 10
121.5710591563943
 20
292.6192801205809
 10
121.5710591563943
 20
-64.81091640611835
  0
LWPOLYLINE
  5
9F
330
1F
100
AcDbEntity
  8
0_Pen_No__1
  6
Continuous
100
AcDbPolyline
 90
        2
 70
   128
 43
0.0
 10
150.6804870591365
 20
74.41953834186666
 10
186.244374836531
 20
105.4087322414707
  0
LWPOLYLINE
  5
A0
330
1F
100
AcDbEntity
  8
0_Pen_No__1
  6
Continuous
100
AcDbPolyline
 90
        2
 70
   128
 43
0.0
 10
252.4403484545621
 20
237.1289607634623
 10
274.9689643956508
 20
264.5066551630104
  0
LWPOLYLINE
  5
A1
330
1F
100
AcDbEntity
  8
0_Pen_No__1
  6
Continuous
100
AcDbPolyline
 90
        2
 70
   128
 43
0.0
 10
227.6308643455698
 20
618.9825902777258
 10
141.6990448009576
 20
628.5156361385887
  0
LWPOLYLINE
  5
A2
330
1F
100
AcDbEntity
  8
0_Pen_No__1
  6
Continuous
100
AcDbPolyline
 90
        2
 70
   128
 43
0.0
 10
280.8620663003316
 20
485.9268053644241
 10
284.5476142077896
 20
473.2904527797592
  0
LWPOLYLINE
  5
A3
330
1F
100
AcDbEntity
  8
0_Pen_No__1
  6
Continuous
100
AcDbPolyline
 90
        2
 70
   128
 43
0.0
 10
243.4351219798003
 20
231.9297908114253
 10
252.4403484545621
 20
237.1289607634623
  0
LWPOLYLINE
  5
A4
330
1F
100
AcDbEntity
  8
0_Pen_No__1
  6
Continuous
100
AcDbPolyline
 90
        2
 70
   128
 43
0.0
 10
-225.1859427310723
 20
177.7923739712532
 10
-222.9713389386389
 20
179.070976072551
  0
LWPOLYLINE
  5
A5
330
1F
100
AcDbEntity
  8
0_Pen_No__1
  6
Continuous
100
AcDbPolyline
 90
        2
 70
   128
 43
0.0
 10
0.0
 20
5.378167543550441
 10
121.5710591563943
 20
-64.81091640611835
  0
LWPOLYLINE
  5
A7
330
1F
100
AcDbEntity
  8
0_Pen_No__1
  6
DASHED2
100
AcDbPolyline
 90
        2
 70
   128
 43
0.0
 10
77.94228625544531
 20
207.4761883169622
 10
134.7795663008951
 20
240.2912073946051
  0
LWPOLYLINE
  5
A8
330
1F
100
AcDbEntity
  8
0_Pen_No__1
  6
Continuous
100
AcDbPolyline
 90
        2
 70
   128
 43
0.0
 10
-219.8723514072023
 20
141.9603153367483
 10
-204.9540444582562
 20
128.9288956295617
  0
LWPOLYLINE
  5
A9
330
1F
100
AcDbEntity
  8
0_Pen_No__1
  6
Continuous
100
AcDbPolyline
 90
        2
 70
   128
 43
0.0
 10
-204.9540444582562
 20
128.9288956295617
 10
-204.9540444582562
 20
113.9288956295618
  0
LWPOLYLINE
  5
AA
330
1F
100
AcDbEntity
  8
0_Pen_No__1
  6
Continuous
100
AcDbPolyline
 90
        2
 70
   128
 43
0.0
 10
-215.6389851313858
 20
192.9304353491096
 10
-213.4128186633772
 20
194.2157131642923
  0
LWPOLYLINE
  5
AB
330
1F
100
AcDbEntity
  8
0_Pen_No__1
  6
Continuous
100
AcDbPolyline
 90
        2
 70
   128
 43
0.0
 10
-210.4118363067162
 20
551.6242543839307
 10
-204.6217633840033
 20
565.7321559434996
  0
LWPOLYLINE
  5
AC
330
1F
100
AcDbEntity
  8
0_Pen_No__1
  6
Continuous
100
AcDbPolyline
 90
        2
 70
   128
 43
0.0
 10
-204.6217633840033
 20
565.7321559434996
 10
-162.2204339024587
 20
598.1567020176217
  0
LWPOLYLINE
  5
AD
330
1F
100
AcDbEntity
  8
0_Pen_No__1
  6
Continuous
100
AcDbPolyline
 90
        2
 70
   128
 43
0.0
 10
-162.2204339024587
 20
598.1567020176217
 10
-114.8307127172028
 20
613.1218771287554
  0
LWPOLYLINE
  5
AE
330
1F
100
AcDbEntity
  8
0_Pen_No__1
  6
Continuous
100
AcDbPolyline
 90
        2
 70
   128
 43
0.0
 10
-114.8307127172028
 20
613.1218771287554
 10
-64.11539706280655
 20
620.6044646843219
  0
LWPOLYLINE
  5
AF
330
1F
100
AcDbEntity
  8
0_Pen_No__1
  6
Continuous
100
AcDbPolyline
 90
        2
 70
   128
 43
0.0
 10
-204.3496585067161
 20
548.1242543839304
 10
-198.5595855840028
 20
562.2321559434993
  0
LWPOLYLINE
  5
B0
330
1F
100
AcDbEntity
  8
0_Pen_No__1
  6
Continuous
100
AcDbPolyline
 90
        2
 70
   128
 43
0.0
 10
-198.5595855840028
 20
562.2321559434993
 10
-156.1582561024586
 20
594.6567020176215
  0
LWPOLYLINE
  5
B1
330
1F
100
AcDbEntity
  8
0_Pen_No__1
  6
Continuous
100
AcDbPolyline
 90
        2
 70
   128
 43
0.0
 10
-156.1582561024586
 20
594.6567020176215
 10
-108.7685349172027
 20
609.6218771287547
  0
LWPOLYLINE
  5
B2
330
1F
100
AcDbEntity
  8
0_Pen_No__1
  6
Continuous
100
AcDbPolyline
 90
        2
 70
   128
 43
0.0
 10
-108.7685349172027
 20
609.6218771287547
 10
-58.05321926280649
 20
617.1044646843216
  0
LWPOLYLINE
  5
B3
330
1F
100
AcDbEntity
  8
0_Pen_No__1
  6
Continuous
100
AcDbPolyline
 90
        2
 70
   128
 43
0.0
 10
-273.5059381288323
 20
113.8255124232203
 10
-275.5844346720451
 20
147.7742892956994
  0
LWPOLYLINE
  5
B4
330
1F
100
AcDbEntity
  8
0_Pen_No__1
  6
Continuous
100
AcDbPolyline
 90
        2
 70
   128
 43
0.0
 10
-275.5844346720451
 20
147.7742892956994
 10
-283.0827867602987
 20
204.8555984551701
  0
LWPOLYLINE
  5
B5
330
1F
100
AcDbEntity
  8
0_Pen_No__1
  6
Continuous
100
AcDbPolyline
 90
        2
 70
   128
 43
0.0
 10
-283.0827867602987
 20
204.8555984551701
 10
-288.7482461123938
 20
254.4704451806309
  0
LWPOLYLINE
  5
B6
330
1F
100
AcDbEntity
  8
0_Pen_No__1
  6
Continuous
100
AcDbPolyline
 90
        2
 70
   128
 43
0.0
 10
-288.7482461123938
 20
254.4704451806309
 10
-301.9120575527425
 20
316.132509295949
  0
LWPOLYLINE
  5
B7
330
1F
100
AcDbEntity
  8
0_Pen_No__1
  6
Continuous
100
AcDbPolyline
 90
        2
 70
   128
 43
0.0
 10
-301.9120575527425
 20
316.132509295949
 10
-305.3762184580975
 20
394.4225457569707
  0
LWPOLYLINE
  5
B8
330
1F
100
AcDbEntity
  8
0_Pen_No__1
  6
Continuous
100
AcDbPolyline
 90
        2
 70
   128
 43
0.0
 10
-258.2636301452703
 20
569.7090875679303
 10
-146.5616639742426
 20
640.8813634262151
  0
LWPOLYLINE
  5
B9
330
1F
100
AcDbEntity
  8
0_Pen_No__1
  6
Continuous
100
AcDbPolyline
 90
        2
 70
   128
 43
0.0
 10
-146.5616639742426
 20
640.8813634262151
 10
-104.2989009289126
 20
671.3659793933382
  0
LWPOLYLINE
  5
BA
330
1F
100
AcDbEntity
  8
0_Pen_No__1
  6
Continuous
100
AcDbPolyline
 90
        2
 70
   128
 43
0.0
 10
-104.2989009289126
 20
671.3659793933382
 10
-60.65047352144015
 20
681.0656299283324
  0
LWPOLYLINE
  5
BB
330
1F
100
AcDbEntity
  8
0_Pen_No__1
  6
Continuous
100
AcDbPolyline
 90
        2
 70
   128
 43
0.0
 10
-292.4910658322698
 20
101.0521418146518
 10
-370.4333520877156
 20
146.0521419621418
  0
LWPOLYLINE
  5
BC
330
1F
100
AcDbEntity
  8
0_Pen_No__1
  6
Continuous
100
AcDbPolyline
 90
        2
 70
   128
 43
0.0
 10
-274.0907827197574
 20
108.8218420341924
 10
-273.5059381288323
 20
113.8255124232203
  0
LWPOLYLINE
  5
BD
330
1F
100
AcDbEntity
  8
0_Pen_No__1
  6
Continuous
100
AcDbPolyline
 90
        2
 70
   128
 43
0.0
 10
-292.4910658322698
 20
101.0521418146518
 10
-273.7330947268404
 20
111.882061529148
  0
LWPOLYLINE
  5
BE
330
1F
100
AcDbEntity
  8
0_Pen_No__1
  6
Continuous
100
AcDbPolyline
 90
        2
 70
   128
 43
0.0
 10
77.94228625544531
 20
276.0894745388587
 10
77.94228625544618
 20
-39.62183254837016
  0
LWPOLYLINE
  5
BF
330
1F
100
AcDbEntity
  8
0_Pen_No__1
  6
DASHED2
100
AcDbPolyline
 90
        2
 70
   128
 43
0.0
 10
77.94228625544531
 20
276.0894745388587
 10
77.94228625544531
 20
314.921938293895
  0
LWPOLYLINE
  5
C0
330
1F
100
AcDbEntity
  8
0_Pen_No__1
  6
DASHED2
100
AcDbPolyline
 90
        2
 70
   128
 43
0.0
 10
18.5214376098175
 20
241.7828314279134
 10
0.0
 20
252.4761884644513
  0
LWPOLYLINE
  5
C1
330
1F
100
AcDbEntity
  8
0_Pen_No__1
  6
DASHED2
100
AcDbPolyline
 90
        2
 70
   128
 43
0.0
 10
-10.46398909888602
 20
263.8805511969746
 10
77.94228625544531
 20
314.921938293895
  0
LWPOLYLINE
  5
C2
330
1F
100
AcDbEntity
  8
0_Pen_No__1
  6
DASHED2
100
AcDbPolyline
 90
        2
 70
   128
 43
0.0
 10
-10.46398909888602
 20
357.3545181166962
 10
-10.46398909888602
 20
263.8805511969746
  0
LWPOLYLINE
  5
C3
330
1F
100
AcDbEntity
  8
0_Pen_No__1
  6
DASHED2
100
AcDbPolyline
 90
        2
 70
   128
 43
0.0
 10
0.0
 20
252.4761884644513
 10
0.0
 20
269.9219381464139
  0
LWPOLYLINE
  5
C4
330
1F
100
AcDbEntity
  8
0_Pen_No__1
  6
DASHED2
100
AcDbPolyline
 90
        2
 70
   128
 43
0.0
 10
134.7795663008951
 20
240.2912073946051
 10
134.7795663008951
 20
441.2109242912605
  0
LWPOLYLINE
  5
C5
330
1F
100
AcDbEntity
  8
0_Pen_No__1
  6
Continuous
100
AcDbPolyline
 90
        2
 70
   128
 43
0.0
 10
-292.4910658322698
 20
251.0521418146513
 10
-370.4333520877156
 20
296.0521419621421
  0
LWPOLYLINE
  5
C6
330
1F
100
AcDbEntity
  8
0_Pen_No__1
  6
Continuous
100
AcDbPolyline
 90
        2
 70
   128
 43
0.0
 10
-370.4333520877156
 20
146.0521419621418
 10
-370.4333520877156
 20
296.0521419621421
  0
LWPOLYLINE
  5
C7
330
1F
100
AcDbEntity
  8
0_Pen_No__1
  6
Continuous
100
AcDbPolyline
 90
        2
 70
   128
 43
0.0
 10
-331.4622089599934
 20
123.5521418883968
 10
-331.4622089599934
 20
273.5521418883967
  0
LWPOLYLINE
  5
C8
330
1F
100
AcDbEntity
  8
0_Pen_No__1
  6
Continuous
100
AcDbPolyline
 90
        2
 70
   128
 43
0.0
 10
-292.4910658322698
 20
101.0521418146518
 10
-292.4910658322698
 20
251.0521418146515
  0
LWPOLYLINE
  5
C9
330
1F
100
AcDbEntity
  8
0_Pen_No__1
  6
Continuous
100
AcDbPolyline
 90
        2
 70
   128
 43
0.0
 10
-292.4910658322698
 20
251.0521418146513
 10
-288.5092703726839
 20
253.3510325051471
  0
LWPOLYLINE
  5
CA
330
1F
100
AcDbEntity
  8
0_Pen_No__1
  6
Continuous
100
AcDbPolyline
 90
        2
 70
   128
 43
0.0
 10
-370.4333520877156
 20
296.0521419621421
 10
-331.4622089599934
 20
123.5521418883968
  0
LWPOLYLINE
  5
CB
330
1F
100
AcDbEntity
  8
0_Pen_No__1
  6
Continuous
100
AcDbPolyline
 90
        2
 70
   128
 43
0.0
 10
-331.4622089599934
 20
273.5521418883967
 10
-370.4333520877156
 20
146.0521419621418
  0
LWPOLYLINE
  5
CC
330
1F
100
AcDbEntity
  8
0_Pen_No__1
  6
Continuous
100
AcDbPolyline
 90
        2
 70
   128
 43
0.0
 10
-292.4910658322698
 20
101.0521418146518
 10
-331.4622089599934
 20
273.5521418883967
  0
LWPOLYLINE
  5
CD
330
1F
100
AcDbEntity
  8
0_Pen_No__1
  6
Continuous
100
AcDbPolyline
 90
        2
 70
   128
 43
0.0
 10
-331.4622089599934
 20
123.5521418883968
 10
-292.4910658322698
 20
251.0521418146513
  0
LWPOLYLINE
  5
CE
330
1F
100
AcDbEntity
  8
0_Pen_No__1
  6
Continuous
100
AcDbPolyline
 90
        2
 70
   128
 43
0.0
 10
-370.4333520877156
 20
296.0521419621421
 10
-302.7525514166089
 20
335.1276706193298
  0
LWPOLYLINE
  5
CF
330
1F
100
AcDbEntity
  8
0_Pen_No__1
  6
Continuous
100
AcDbPolyline
 90
        2
 70
   128
 43
0.0
 10
-222.9713389386394
 20
197.1637718120211
 10
-212.6380027747287
 20
159.2636170673378
  0
LWPOLYLINE
  5
D0
330
1F
100
AcDbEntity
  8
0_Pen_No__1
  6
Continuous
100
AcDbPolyline
 90
        2
 70
   128
 43
0.0
 10
34.43949898895227
 20
645.2387242710147
 10
42.80676859272692
 20
642.9292767374077
  0
LWPOLYLINE
  5
D1
330
1F
100
AcDbEntity
  8
0_Pen_No__1
  6
Continuous
100
AcDbPolyline
 90
        2
 70
   128
 43
0.0
 10
284.5476142077896
 20
473.2904527797592
 10
300.0000000000001
 20
397.0243501687327
  0
LWPOLYLINE
  5
D2
330
1F
100
AcDbEntity
  8
0_Pen_No__1
  6
Continuous
100
AcDbPolyline
 90
        2
 70
   128
 43
0.0
 10
-222.9713389386394
 20
197.1637718120211
 10
-222.9713389386394
 20
165.2295715092702
  0
LWPOLYLINE
  5
D3
330
1F
100
AcDbEntity
  8
0_Pen_No__1
  6
Continuous
100
AcDbPolyline
 90
        2
 70
   128
 43
0.0
 10
-222.9713389386394
 20
165.2295715092702
 10
-212.6380027747287
 20
159.2636170673378
  0
LWPOLYLINE
  5
D4
330
1F
100
AcDbEntity
  8
0_Pen_No__1
  6
Continuous
100
AcDbPolyline
 90
        2
 70
   128
 43
0.0
 10
93.35663352960123
 20
610.7580322796391
 10
36.41081072076258
 20
609.980087991002
  0
LWPOLYLINE
  5
D5
330
1F
100
AcDbEntity
  8
0_Pen_No__1
  6
Continuous
100
AcDbPolyline
 90
        2
 70
   128
 43
0.0
 10
-225.1859427310731
 20
177.7923739712532
 10
-222.9713389386389
 20
179.070976072551
  0
LWPOLYLINE
  5
D6
330
1F
100
AcDbEntity
  8
0_Pen_No__1
  6
Continuous
100
AcDbPolyline
 90
        2
 70
   128
 43
0.0
 10
-219.9348004262742
 20
142.0148657210926
 10
-208.3909214222894
 20
148.6797274006605
  0
LWPOLYLINE
  5
D7
330
1F
100
AcDbEntity
  8
0_Pen_No__1
  6
Continuous
100
AcDbPolyline
 90
        2
 70
   128
 43
0.0
 10
-204.9540444582562
 20
113.9288956295618
 10
-199.965652754545
 20
106.9799721332325
  0
LWPOLYLINE
  5
D8
330
1F
100
AcDbEntity
  8
0_Pen_No__1
  6
Continuous
100
AcDbPolyline
 90
        2
 70
   128
 43
0.0
 10
165.0626082732476
 20
343.7256549186709
 10
165.6343580356303
 20
342.8882105029294
  0
LWPOLYLINE
  5
D9
330
1F
100
AcDbEntity
  8
0_Pen_No__1
  6
Continuous
100
AcDbPolyline
 90
        2
 70
   128
 43
0.0
 10
-225.8406908162083
 20
147.1737712644127
 10
-219.8723514072023
 20
141.9603153367483
  0
LWPOLYLINE
  5
DA
330
1F
100
AcDbEntity
  8
0_Pen_No__1
  6
Continuous
100
AcDbPolyline
 90
        2
 70
   128
 43
0.0
 10
-209.8058981985338
 20
151.9126562874273
 10
-203.7039000029168
 20
148.3896659711976
  0
LWPOLYLINE
  5
DB
330
1F
100
AcDbEntity
  8
0_Pen_No__1
  6
Continuous
100
AcDbPolyline
 90
        2
 70
   128
 43
0.0
 10
274.9689643956508
 20
264.5066551630104
 10
295.1755782735843
 20
361.5268897897973
  0
LWPOLYLINE
  5
DC
330
1F
100
AcDbEntity
  8
0_Pen_No__1
  6
Continuous
100
AcDbPolyline
 90
        2
 70
   128
 43
0.0
 10
29.0583318690123
 20
648.8984190471441
 10
42.80676859272514
 20
642.9292767374086
  0
LWPOLYLINE
  5
DD
330
1F
100
AcDbEntity
  8
0_Pen_No__1
  6
Continuous
100
AcDbPolyline
 90
        2
 70
   128
 43
0.0
 10
33.80154211796338
 20
637.7301067853716
 10
42.80676859272514
 20
642.9292767374086
  0
LWPOLYLINE
  5
DE
330
1F
100
AcDbEntity
  8
0_Pen_No__1
  6
Continuous
100
AcDbPolyline
 90
        2
 70
   128
 43
0.0
 10
290.9947735252383
 20
391.8251802166956
 10
300.0000000000001
 20
397.0243501687327
  0
LWPOLYLINE
  5
DF
330
1F
100
AcDbEntity
  8
0_Pen_No__1
  6
Continuous
100
AcDbPolyline
 90
        2
 70
   128
 43
0.0
 10
235.9142107140482
 20
611.5524868005948
 10
247.8857741364982
 20
595.1730061168397
  0
LWPOLYLINE
  5
E0
330
1F
100
AcDbEntity
  8
0_Pen_No__1
  6
Continuous
100
AcDbPolyline
 90
        2
 70
   128
 43
0.0
 10
-222.9713389386394
 20
165.2295715092702
 10
-215.2922259783827
 20
193.0943351220346
  0
LWPOLYLINE
  5
E1
330
1F
100
AcDbEntity
  8
0_Pen_No__1
  6
Continuous
100
AcDbPolyline
 90
        2
 70
   128
 43
0.0
 10
-222.9713389386394
 20
197.1637718120211
 10
-214.5195734899403
 20
202.0434008902784
  0
LWPOLYLINE
  5
E2
330
1F
100
AcDbEntity
  8
0_Pen_No__1
  6
Continuous
100
AcDbPolyline
 90
        2
 70
   128
 43
0.0
 10
-212.6380027747287
 20
159.2636170673378
 10
-215.6389851313858
 20
192.9304353491096
  0
LWPOLYLINE
  5
E3
330
1F
100
AcDbEntity
  8
0_Pen_No__1
  6
Continuous
100
AcDbPolyline
 90
        2
 70
   128
 43
0.0
 10
-222.9713389386394
 20
197.1637718120211
 10
-215.6389851313858
 20
192.9304353491096
  0
LWPOLYLINE
  5
E4
330
1F
100
AcDbEntity
  8
0_Pen_No__1
  6
Continuous
100
AcDbPolyline
 90
        2
 70
   128
 43
0.0
 10
218.6256378708071
 20
613.7834203256887
 10
227.6308643455698
 20
618.9825902777258
  0
LWPOLYLINE
  5
E5
330
1F
100
AcDbEntity
  8
0_Pen_No__1
  6
Continuous
100
AcDbPolyline
 90
        2
 70
   128
 43
0.0
 10
247.8857741364982
 20
595.1730061168397
 10
271.0315033179003
 20
511.6031495113733
  0
LWPOLYLINE
  5
E6
330
1F
100
AcDbEntity
  8
0_Pen_No__1
  6
Continuous
100
AcDbPolyline
 90
        2
 70
   128
 43
0.0
 10
262.0262768431381
 20
506.4039795593364
 10
271.0315033179003
 20
511.6031495113733
  0
LWPOLYLINE
  5
E7
330
1F
100
AcDbEntity
  8
0_Pen_No__1
  6
Continuous
100
AcDbPolyline
 90
        2
 70
   128
 43
0.0
 10
295.1755782735843
 20
361.5268897897973
 10
290.9947735252383
 20
391.8251802166956
  0
LWPOLYLINE
  5
E8
330
1F
100
AcDbEntity
  8
0_Pen_No__1
  6
Continuous
100
AcDbPolyline
 90
        2
 70
   128
 43
0.0
 10
186.244374836531
 20
105.4087322414707
 10
243.4351219798003
 20
231.9297908114253
  0
LWPOLYLINE
  5
E9
330
1F
100
AcDbEntity
  8
0_Pen_No__1
  6
Continuous
100
AcDbPolyline
 90
        2
 70
   128
 43
0.0
 10
-212.6380027747287
 20
159.2636170673378
 10
-210.4118363067202
 20
160.5488948825204
  0
LWPOLYLINE
  5
EA
330
1F
100
AcDbEntity
  8
0_Pen_No__1
  6
Continuous
100
AcDbPolyline
 90
        2
 70
   128
 43
0.0
 10
3.844674057032371
 20
639.9395723443196
 10
34.43949898895227
 20
645.2387242710147
  0
LWPOLYLINE
  5
EB
330
1F
100
AcDbEntity
  8
0_Pen_No__1
  6
Continuous
100
AcDbPolyline
 90
        2
 70
   128
 43
0.0
 10
-213.0348747827797
 20
209.1766191016097
 10
-225.8406908162083
 20
201.7831777352085
  0
LWPOLYLINE
  5
EC
330
1F
100
AcDbEntity
  8
0_Pen_No__1
  6
Continuous
100
AcDbPolyline
 90
        2
 70
   128
 43
0.0
 10
-225.8406908162083
 20
147.1737712644127
 10
-210.4118363067202
 20
156.0816246076805
  0
LWPOLYLINE
  5
ED
330
1F
100
AcDbEntity
  8
0_Pen_No__1
  6
Continuous
100
AcDbPolyline
 90
        2
 70
   128
 43
0.0
 10
-218.1820577007875
 20
140.4838122193312
 10
-206.1886188382618
 20
147.4082274053789
  0
LWPOLYLINE
  5
EE
330
1F
100
AcDbEntity
  8
0_Pen_No__1
  6
Continuous
100
AcDbPolyline
 90
        2
 70
   128
 43
0.0
 10
165.6343580356303
 20
342.8882105029298
 10
165.6343580356303
 20
327.8882105029352
  0
LWPOLYLINE
  5
EF
330
1F
100
AcDbEntity
  8
0_Pen_No__1
  6
Continuous
100
AcDbPolyline
 90
        2
 70
   128
 43
0.0
 10
164.2140378284909
 20
343.7261965052909
 10
165.0626082732476
 20
343.7256549186709
  0
LWPOLYLINE
  5
F0
330
1F
100
AcDbEntity
  8
0_Pen_No__1
  6
Continuous
100
AcDbPolyline
 90
        2
 70
   128
 43
0.0
 10
163.5159798946271
 20
341.6651643076372
 10
-204.9540444582562
 20
128.9288956295617
  0
LWPOLYLINE
  5
F1
330
1F
100
AcDbEntity
  8
0_Pen_No__1
  6
Continuous
100
AcDbPolyline
 90
        2
 70
   128
 43
0.0
 10
163.5159798946315
 20
341.6651643076336
 10
163.5887219562599
 20
342.8304737693921
  0
LWPOLYLINE
  5
F2
330
1F
100
AcDbEntity
  8
0_Pen_No__1
  6
Continuous
100
AcDbPolyline
 90
        2
 70
   128
 43
0.0
 10
142.7020755983075
 20
361.0753494042434
 10
143.327391470538
 20
361.9710721401417
  0
LWPOLYLINE
  5
F3
330
1F
100
AcDbEntity
  8
0_Pen_No__1
  6
Continuous
100
AcDbPolyline
 90
        2
 70
   128
 43
0.0
 10
143.327391470538
 20
361.9710721401417
 10
144.1759619152956
 20
361.9705305535219
  0
LWPOLYLINE
  5
F4
330
1F
100
AcDbEntity
  8
0_Pen_No__1
  6
Continuous
100
AcDbPolyline
 90
        2
 70
   128
 43
0.0
 10
163.5887219562599
 20
342.8304737693921
 10
164.2140378284909
 20
343.7261965052909
  0
LWPOLYLINE
  5
F5
330
1F
100
AcDbEntity
  8
0_Pen_No__1
  6
Continuous
100
AcDbPolyline
 90
        2
 70
   128
 43
0.0
 10
-204.9540444582562
 20
113.9288956295618
 10
165.6343580356303
 20
327.8882105029352
  0
LWPOLYLINE
  5
F6
330
1F
100
AcDbEntity
  8
0_Pen_No__1
  6
Continuous
100
AcDbPolyline
 90
        2
 70
   128
 43
0.0
 10
165.6343580356303
 20
327.8882105029352
 10
170.6227497393415
 20
320.9392870066065
  0
LWPOLYLINE
  5
F7
330
1F
100
AcDbEntity
  8
0_Pen_No__1
  6
DASHED2
100
AcDbPolyline
 90
        2
 70
   128
 43
0.0
 10
134.7795663008951
 20
441.2109242912605
 10
-10.46398909888602
 20
357.3545181166962
  0
LWPOLYLINE
  5
F8
330
1F
100
AcDbEntity
  8
0_Pen_No__1
  6
Continuous
100
AcDbPolyline
 90
        2
 70
   128
 43
0.0
 10
-225.8406908162083
 20
147.1737712644127
 10
-210.4118363067202
 20
156.0816246076788
  0
LWPOLYLINE
  5
F9
330
1F
100
AcDbEntity
  8
0_Pen_No__1
  6
Continuous
100
AcDbPolyline
 90
        2
 70
   128
 43
0.0
 10
154.1028859055507
 20
353.2991770707805
 10
165.0626082732476
 20
343.7256549186714
  0
LWPOLYLINE
  5
FA
330
1F
100
AcDbEntity
  8
0_Pen_No__1
  6
Continuous
100
AcDbPolyline
 90
        2
 70
   128
 43
0.0
 10
142.6293335366791
 20
359.9100399424846
 10
148.5352239266078
 20
354.751134399169
  0
LWPOLYLINE
  5
FB
330
1F
100
AcDbEntity
  8
0_Pen_No__1
  6
Continuous
100
AcDbPolyline
 90
        2
 70
   128
 43
0.0
 10
151.7515368113225
 20
351.9416250323362
 10
163.5159798946271
 20
341.6651643076372
  0
LWPOLYLINE
  5
FC
330
1F
100
AcDbEntity
  8
0_Pen_No__1
  6
DASHED2
100
AcDbPolyline
 90
        2
 70
   128
 43
0.0
 10
1.087112109150912
 20
269.6219269778539
 10
148.5352239266087
 20
354.751134399169
  0
LWPOLYLINE
  5
FD
330
1F
100
AcDbEntity
  8
0_Pen_No__1
  6
Continuous
100
AcDbPolyline
 90
        2
 70
   128
 43
0.0
 10
-58.05321926280649
 20
617.1044646843216
 10
-25.93796517330205
 20
626.84366005864
  0
LWPOLYLINE
  5
FE
330
1F
100
AcDbEntity
  8
0_Pen_No__1
  6
Continuous
100
AcDbPolyline
 90
        2
 70
   128
 43
0.0
 10
-25.93796517330205
 20
626.84366005864
 10
3.844674057032371
 20
639.9395723443196
  0
LWPOLYLINE
  5
FF
330
1F
100
AcDbEntity
  8
0_Pen_No__1
  6
Continuous
100
AcDbPolyline
 90
        2
 70
   128
 43
0.0
 10
170.6227497393415
 20
320.9392870066065
 10
-199.965652754545
 20
106.9799721332325
  0
LWPOLYLINE
  5
100
330
1F
100
AcDbEntity
  8
0_Pen_No__1
  6
Continuous
100
AcDbPolyline
 90
        2
 70
   128
 43
0.0
 10
69.28203222706664
 20
752.488973404458
 10
112.5833023689795
 20
687.48897319142
  0
LWPOLYLINE
  5
101
330
1F
100
AcDbEntity
  8
0_Pen_No__1
  6
Continuous
100
AcDbPolyline
 90
        2
 70
   128
 43
0.0
 10
34.64101611353377
 20
732.48897333891
 10
147.2243184825128
 20
707.488973256968
  0
LWPOLYLINE
  5
102
330
1F
100
AcDbEntity
  8
0_Pen_No__1
  6
Continuous
100
AcDbPolyline
 90
        2
 70
   128
 43
0.0
 10
69.28203222706664
 20
752.488973404458
 10
34.64101611353377
 20
732.48897333891
  0
LWPOLYLINE
  5
103
330
1F
100
AcDbEntity
  8
0_Pen_No__1
  6
Continuous
100
AcDbPolyline
 90
        2
 70
   128
 43
0.0
 10
69.28203222706664
 20
752.488973404458
 10
147.2243184825128
 20
707.488973256968
  0
LWPOLYLINE
  5
104
330
1F
100
AcDbEntity
  8
0_Pen_No__1
  6
Continuous
100
AcDbPolyline
 90
        2
 70
   128
 43
0.0
 10
112.5833023689795
 20
687.48897319142
 10
147.2243184825128
 20
707.488973256968
  0
LWPOLYLINE
  5
105
330
1F
100
AcDbEntity
  8
0_Pen_No__1
  6
Continuous
100
AcDbPolyline
 90
        2
 70
   128
 43
0.0
 10
34.64101611353377
 20
732.48897333891
 10
112.5833023689795
 20
687.48897319142
  0
LWPOLYLINE
  5
106
330
1F
100
AcDbEntity
  8
0_Pen_No__1
  6
Continuous
100
AcDbPolyline
 90
        2
 70
   128
 43
0.0
 10
34.64101611353377
 20
732.48897333891
 10
34.64101611353377
 20
672.1166010087596
  0
LWPOLYLINE
  5
108
330
1F
100
AcDbEntity
  8
0_Pen_No__1
  6
Above
100
AcDbPolyline
 90
        2
 70
   128
 43
0.0
 10
144.7477116776783
 20
415.7424926085835
 10
-213.0348747827797
 20
209.1766191016097
  0
LWPOLYLINE
  5
109
330
1F
100
AcDbEntity
  8
0_Pen_No__1
  6
Above
100
AcDbPolyline
 90
        2
 70
   128
 43
0.0
 10
144.7477116776783
 20
361.4710964591179
 10
144.7477116776783
 20
415.7424926085835
  0
LWPOLYLINE
  5
10A
330
1F
100
AcDbEntity
  8
0_Pen_No__1
  6
Continuous
100
AcDbPolyline
 90
        2
 70
   128
 43
0.0
 10
0.0
 20
222.4301960842512
 10
0.0
 20
5.378167543550441
  0
LWPOLYLINE
  5
10B
330
1F
100
AcDbEntity
  8
0_Pen_No__1
  6
Continuous
100
AcDbPolyline
 90
        2
 70
   128
 43
0.0
 10
141.6990448009576
 20
628.5156361385887
 10
93.35663352960123
 20
610.7580322796391
  0
LWPOLYLINE
  5
10C
330
1F
100
AcDbEntity
  8
0_Pen_No__1
  6
Continuous
100
AcDbPolyline
 90
        2
 70
   128
 43
0.0
 10
-259.2489686997814
 20
159.3214654589899
 10
-245.3121700666452
 20
167.3678799366348
  0
LWPOLYLINE
  5
10D
330
1F
100
AcDbEntity
  8
0_Pen_No__1
  6
Continuous
100
AcDbPolyline
 90
        2
 70
   128
 43
0.0
 10
-259.8223508846276
 20
141.2995292817642
 10
-242.5018428278618
 20
131.2995292489884
  0
LWPOLYLINE
  5
10E
330
1F
100
AcDbEntity
  8
0_Pen_No__1
  6
Continuous
100
AcDbPolyline
 90
        2
 70
   128
 43
0.0
 10
-242.5018428278618
 20
131.2995292489884
 10
-242.5018428278618
 20
141.4928860281139
  0
LWPOLYLINE
  5
10F
330
1F
100
AcDbEntity
  8
0_Pen_No__1
  6
Continuous
100
AcDbPolyline
 90
        2
 70
   128
 43
0.0
 10
-257.0800646364704
 20
158.0692481087189
 10
-243.1432660033341
 20
166.1156625863638
  0
LWPOLYLINE
  5
110
330
1F
100
AcDbEntity
  8
0_Pen_No__1
  6
Continuous
100
AcDbPolyline
 90
        2
 70
   128
 43
0.0
 10
-257.0800646364704
 20
155.6619993582911
 10
-241.0585274413452
 20
164.9120382111498
  0
LWPOLYLINE
  5
111
330
1F
100
AcDbEntity
  8
0_Pen_No__1
  6
Continuous
100
AcDbPolyline
 90
        2
 70
   128
 43
0.0
 10
-257.0800646364704
 20
155.6619993582911
 10
-259.2489686997814
 20
156.7844127936507
  0
LWPOLYLINE
  5
112
330
1F
100
AcDbEntity
  8
0_Pen_No__1
  6
Continuous
100
AcDbPolyline
 90
        2
 70
   128
 43
0.0
 10
-257.0800646364704
 20
155.6619993582911
 10
-257.0800646364704
 20
158.0692481087189
  0
LWPOLYLINE
  5
113
330
1F
100
AcDbEntity
  8
0_Pen_No__1
  6
Continuous
100
AcDbPolyline
 90
        2
 70
   128
 43
0.0
 10
-257.0800646364704
 20
158.0692481087189
 10
-259.2489686997814
 20
159.3214654589899
  0
LWPOLYLINE
  5
114
330
1F
100
AcDbEntity
  8
0_Pen_No__1
  6
Continuous
100
AcDbPolyline
 90
        2
 70
   128
 43
0.0
 10
-242.5018428278618
 20
141.4928860281139
 10
-241.5778354604765
 20
148.0322333615811
  0
LWPOLYLINE
  5
115
330
1F
100
AcDbEntity
  8
0_Pen_No__1
  6
Continuous
100
AcDbPolyline
 90
        2
 70
   128
 43
0.0
 10
-241.5778354604765
 20
148.0322333615811
 10
-240.1845538366036
 20
152.6374167432773
  0
LWPOLYLINE
  5
116
330
1F
100
AcDbEntity
  8
0_Pen_No__1
  6
Continuous
100
AcDbPolyline
 90
        2
 70
   128
 43
0.0
 10
-240.1845538366036
 20
152.6374167432773
 10
-237.0474471585912
 20
156.8720154140399
  0
LWPOLYLINE
  5
117
330
1F
100
AcDbEntity
  8
0_Pen_No__1
  6
Continuous
100
AcDbPolyline
 90
        2
 70
   128
 43
0.0
 10
-211.4845725109007
 20
578.8312869641051
 10
-230.5371313733453
 20
549.8312868690591
  0
LWPOLYLINE
  5
118
330
1F
100
AcDbEntity
  8
0_Pen_No__1
  6
Continuous
100
AcDbPolyline
 90
        2
 70
   128
 43
0.0
 10
-230.5371313733453
 20
549.8312868690591
 10
-246.125588624434
 20
558.831286898557
  0
LWPOLYLINE
  5
119
330
1F
100
AcDbEntity
  8
0_Pen_No__1
  6
Continuous
100
AcDbPolyline
 90
        2
 70
   128
 43
0.0
 10
-230.5371313733453
 20
549.8312868690591
 10
-195.8961152598119
 20
569.831286934607
  0
LWPOLYLINE
  5
11A
330
1F
100
AcDbEntity
  8
0_Pen_No__1
  6
Continuous
100
AcDbPolyline
 90
        2
 70
   128
 43
0.0
 10
-259.2489686997814
 20
205.1037895295191
 10
-246.125588624434
 20
212.6805765818082
  0
LWPOLYLINE
  5
11B
330
1F
100
AcDbEntity
  8
0_Pen_No__1
  6
Continuous
100
AcDbPolyline
 90
        2
 70
   128
 43
0.0
 10
-246.125588624434
 20
558.8312868985572
 10
-195.8961152598119
 20
569.831286934607
  0
LWPOLYLINE
  5
11D
330
1F
100
AcDbEntity
  8
0_Pen_No__1
  6
AStair_dashed
100
AcDbPolyline
 90
        2
 70
   128
 43
0.0
 10
-230.5371313733444
 20
158.8375073324926
 10
-195.8961152598119
 20
178.8375073980398
  0
LWPOLYLINE
  5
11E
330
1F
100
AcDbEntity
  8
0_Pen_No__1
  6
AStair_dashed
100
AcDbPolyline
 90
        2
 70
   128
 43
0.0
 10
-195.8961152598119
 20
569.831286934607
 10
-195.8961152598119
 20
178.8375073980398
  0
LWPOLYLINE
  5
11F
330
1F
100
AcDbEntity
  8
0_Pen_No__1
  6
Continuous
100
AcDbPolyline
 90
        2
 70
   128
 43
0.0
 10
-246.125588624434
 20
167.8375073619907
 10
-230.5371313733444
 20
158.8375073324926
  0
LWPOLYLINE
  5
120
330
1F
100
AcDbEntity
  8
0_Pen_No__1
  6
Continuous
100
AcDbPolyline
 90
        2
 70
   128
 43
0.0
 10
-246.125588624434
 20
167.8375073619907
 10
-246.125588624434
 20
558.831286898557
  0
LWPOLYLINE
  5
121
330
1F
100
AcDbEntity
  8
0_Pen_No__1
  6
Continuous
100
AcDbPolyline
 90
        2
 70
   128
 43
0.0
 10
-230.5371313733444
 20
158.8375073324926
 10
-230.5371313733453
 20
549.8312868690591
  0
LWPOLYLINE
  5
122
330
1F
100
AcDbEntity
  8
0_Pen_No__1
  6
Continuous
100
AcDbPolyline
 90
        2
 70
   128
 43
0.0
 10
-259.8715215715883
 20
141.3846954094515
 10
-240.0375557289325
 20
152.8358409778471
  0
LWPOLYLINE
  5
123
330
1F
100
AcDbEntity
  8
0_Pen_No__1
  6
Continuous
100
AcDbPolyline
 90
        2
 70
   128
 43
0.0
 10
-259.8715215715883
 20
126.281217168678
 10
-246.8406964730485
 20
133.804567579959
  0
LWPOLYLINE
  5
124
330
1F
100
AcDbEntity
  8
0_Pen_No__1
  6
Continuous
100
AcDbPolyline
 90
        2
 70
   128
 43
0.0
 10
-237.0474471585912
 20
156.8720154140399
 10
-226.5466008802514
 20
162.9346818660517
  0
LWPOLYLINE
  5
125
330
1F
100
AcDbEntity
  8
0_Pen_No__1
  6
Continuous
100
AcDbPolyline
 90
        2
 70
   128
 43
0.0
 10
-259.2489686997814
 20
205.1037895295191
 10
-259.2489686997814
 20
126.6406482383712
  0
LWPOLYLINE
  5
126
330
1F
100
AcDbEntity
  8
0_Pen_No__1
  6
Continuous
100
AcDbPolyline
 90
        2
 70
   128
 43
0.0
 10
-242.5018428278618
 20
131.2995292489884
 10
-222.855788720371
 20
142.6421839260285
  0
LWPOLYLINE
  5
127
330
1F
100
AcDbEntity
  8
0_Pen_No__1
  6
Continuous
100
AcDbPolyline
 90
        2
 70
   128
 43
0.0
 10
-55.35328871573886
 20
668.5661687187958
 10
-74.40584757818303
 20
639.5661686237495
  0
LWPOLYLINE
  5
128
330
1F
100
AcDbEntity
  8
0_Pen_No__1
  6
Continuous
100
AcDbPolyline
 90
        2
 70
   128
 43
0.0
 10
-89.99430482927218
 20
648.5661686532476
 10
-39.76483146464971
 20
659.5661686892977
  0
LWPOLYLINE
  5
129
330
1F
100
AcDbEntity
  8
0_Pen_No__1
  6
Continuous
100
AcDbPolyline
 90
        2
 70
   128
 43
0.0
 10
-74.40584757818303
 20
619.0862014935287
 10
-74.40584757818303
 20
639.5661686237495
  0
LWPOLYLINE
  5
12A
330
1F
100
AcDbEntity
  8
0_Pen_No__1
  6
Continuous
100
AcDbPolyline
 90
        2
 70
   128
 43
0.0
 10
-74.40584757818303
 20
639.5661686237495
 10
-39.76483146464971
 20
659.5661686892977
  0
LWPOLYLINE
  5
12B
330
1F
100
AcDbEntity
  8
0_Pen_No__1
  6
Continuous
100
AcDbPolyline
 90
        2
 70
   128
 43
0.0
 10
-74.40584757818303
 20
639.5661686237495
 10
-89.99430482927218
 20
648.5661686532476
  0
LWPOLYLINE
  5
12C
330
1F
100
AcDbEntity
  8
0_Pen_No__1
  6
Continuous
100
AcDbPolyline
 90
        2
 70
   128
 43
0.0
 10
-55.35328871573886
 20
668.5661687187958
 10
-89.99430482927218
 20
648.5661686532476
  0
LWPOLYLINE
  5
12D
330
1F
100
AcDbEntity
  8
0_Pen_No__1
  6
AStair_dashed
100
AcDbPolyline
 90
        2
 70
   128
 43
0.0
 10
-89.99430482927218
 20
605.513351388354
 10
-89.99430482927218
 20
262.5723891166771
  0
LWPOLYLINE
  5
12E
330
1F
100
AcDbEntity
  8
0_Pen_No__1
  6
AStair_dashed
100
AcDbPolyline
 90
        2
 70
   128
 43
0.0
 10
-74.40584757818303
 20
607.8132877040891
 10
-74.40584757818303
 20
253.5723890871791
  0
LWPOLYLINE
  5
12F
330
1F
100
AcDbEntity
  8
0_Pen_No__1
  6
AStair_dashed
100
AcDbPolyline
 90
        2
 70
   128
 43
0.0
 10
-39.76483146464971
 20
620.604464684322
 10
-39.76483146464971
 20
273.5723891527262
  0
LWPOLYLINE
  5
130
330
1F
100
AcDbEntity
  8
0_Pen_No__1
  6
AStair_dashed
100
AcDbPolyline
 90
        2
 70
   128
 43
0.0
 10
-74.40584757818303
 20
253.5723890871791
 10
-39.76483146464971
 20
273.5723891527262
  0
LWPOLYLINE
  5
131
330
1F
100
AcDbEntity
  8
0_Pen_No__1
  6
AStair_dashed
100
AcDbPolyline
 90
        2
 70
   128
 43
0.0
 10
-89.99430482927218
 20
262.5723891166776
 10
-74.40584757818303
 20
253.5723890871791
  0
LWPOLYLINE
  5
132
330
1F
100
AcDbEntity
  8
0_Pen_No__1
  6
Continuous
100
AcDbPolyline
 90
        2
 70
   128
 43
0.0
 10
-39.76483146464971
 20
627.6659121003911
 10
-39.76483146464971
 20
659.5661686892977
  0
LWPOLYLINE
  5
133
330
1F
100
AcDbEntity
  8
0_Pen_No__1
  6
Continuous
100
AcDbPolyline
 90
       12
 70
   128
 43
0.0
 10
216.2676263488059
 20
171.8281051783064
 10
262.0429952208507
 20
227.3770591541995
 10
297.8142088223443
 20
279.6151237819075
 10
335.5793451579066
 20
360.1807479644407
 10
321.732128501534
 20
450.8170751697904
 10
314.1791012344213
 20
522.5708342073597
 10
267.6020997538944
 20
586.7715659778158
 10
232.073213628336
 20
636.8258029715603
 10
171.4066680155013
 20
654.1230997460561
 10
82.02917868800341
 20
665.4526406467245
 10
1.463554505470199
 20
676.7821815473933
 10
-60.65047352144015
 20
681.0656299283324
  0
LWPOLYLINE
  5
134
330
1F
100
AcDbEntity
  8
0_Pen_No__1
  6
Continuous
100
AcDbPolyline
 90
        2
 70
   128
 43
0.0
 10
147.2243184825128
 20
657.1884679967166
 10
147.2243184825128
 20
707.488973256968
  0
LWPOLYLINE
  5
135
330
1F
100
AcDbEntity
  8
0_Pen_No__1
  6
Continuous
100
AcDbPolyline
 90
        2
 70
   128
 43
0.0
 10
112.5833023689795
 20
687.48897319142
 10
112.5833023689795
 20
661.5795827153332
  0
LWPOLYLINE
  5
136
330
1F
100
AcDbEntity
  8
0_Pen_No__1
  6
Continuous
100
AcDbPolyline
 90
        4
 70
   128
 43
0.0
 10
222.2496972256307
 20
622.6422850538543
 10
135.5647991059836
 20
632.3983126401997
 10
87.22238783462811
 20
614.6407087812502
 10
36.03026290291034
 20
614.0272792560919
  0
LWPOLYLINE
  5
137
330
1F
100
AcDbEntity
  8
0_Pen_No__1
  6
Continuous
100
AcDbPolyline
 90
        4
 70
   128
 43
0.0
 10
-64.11539706280655
 20
620.6044646843219
 10
-27.38022078676061
 20
631.2573390312313
 10
3.468403295300071
 20
644.2760244236605
 10
29.0583318690123
 20
648.8984190471441
  0
ELLIPSE
  5
138
330
1F
100
AcDbEntity
  8
0_Pen_No__1
  6
Continuous
100
AcDbEllipse
 10
-186.6904440487793
 20
188.1306108091364
 30
0.0
 11
-2.140835418729337
 21
-5.030861475079364
 31
0.0
210
0.0
220
0.0
230
1.0
 40
0.5555555555555577
 41
0.0
 42
6.283185307179586
  0
ELLIPSE
  5
139
330
1F
100
AcDbEntity
  8
0_Pen_No__1
  6
Continuous
100
AcDbEllipse
 10
-30.55916027186578
 20
278.2730495042648
 30
0.0
 11
-2.140835418729337
 21
-5.030861475079364
 31
0.0
210
0.0
220
0.0
230
1.0
 40
0.5555555555555577
 41
0.0
 42
6.283185307179586
  0
WIPEOUT
  5
13B
330
1F
100
AcDbEntity
  8
Key_ Sections_Pen_No__1
  6
Wipeout_Contour
 48
3301.607884899814
 92
      296
310
28010000060000000C0000000E000000120000000C00000016000000000000C20C00000014000000010000006C00000007000000040000000200000000807640CFAB079B90A18640000000000000000049E17A14AEE37D40CFAB079B90A18640000000000000000049E17A14AEE37D40EB056CD66FB1854000000000000000
310
000200000000807640EB056CD66FB1854000000000000000000C0000000E000000070000008400000006000000050000000200000000807640CFAB079B90A18640000000000000000049E17A14AEE37D40CFAB079B90A18640000000000000000049E17A14AEE37D40EB056CD66FB185400000000000000000020000000080
310
7640EB056CD66FB1854000000000000000000200000000807640CFAB079B90A186400000000000000000
100
AcDbWipeout
 90
        0
 10
360.0000000000001
 20
694.1796081961924
 30
0.0
 11
118.23
 21
0.0
 31
0.0
 12
0.0
 22
30.01600000000008
 32
0.0
 13
1.0
 23
1.0
340
0
 70
    15
280
     1
281
    50
282
    50
283
     0
360
0
 71
     2
 91
        5
 14
-0.5000000000000002
 24
-0.5
 14
0.4999999999999998
 24
-0.5
 14
0.4999999999999998
 24
0.5
 14
-0.5000000000000002
 24
0.5
 14
-0.5000000000000002
 24
-0.5
  0
MTEXT
  5
13E
102
{ACAD_REACTORS
330
13F
102
}
330
1F
100
AcDbEntity
  8
Key_ Sections_Pen_No__1
  6
Continuous
100
AcDbMText
 10
365.0000000000001
 20
708.2884653390496
 30
0.0
 40
12.5
 41
108.23
 71
     4
 72
     1
  1
{Cavity battens}
  7
GENERATED_STYLE_1
 73
     1
 44
1.0
  0
LEADER
  5
13F
330
1F
100
AcDbEntity
  8
Key_ Sections_Pen_No__1
  6
Continuous
100
AcDbLeader
  3
GENERATED_STYLE__1
 72
     1
 73
     0
 74
     0
 40
33.74583333333334
 41
55.41250000000001
 76
     3
 10
-39.76483146464971
 20
644.4828469205622
 30
0.0
 10
203.7370261009717
 20
696.7049833216689
 30
0.0
 10
364.9100000000001
 20
708.2884653390496
 30
0.0
340
13E
  0
WIPEOUT
  5
146
330
1F
100
AcDbEntity
  8
Key_ Sections_Pen_No__1
  6
Wipeout_Contour
 48
3051.592372714091
 92
      296
310
28010000060000000C0000000E000000120000000C00000016000000000000C20C00000014000000010000006C00000007000000040000000200000000807640DC804728057684400000000000000000A5703D0AD7B18140DC804728057684400000000000000000A5703D0AD7B181406B433D516105814000000000000000
310
0002000000008076406B433D516105814000000000000000000C0000000E000000070000008400000006000000050000000200000000807640DC804728057684400000000000000000A5703D0AD7B18140DC804728057684400000000000000000A5703D0AD7B181406B433D51610581400000000000000000020000000080
310
76406B433D516105814000000000000000000200000000807640DC804728057684400000000000000000
100
AcDbWipeout
 90
        0
 10
360.0000000000001
 20
544.6725182329368
 30
0.0
 11
206.23
 21
0.0
 31
0.0
 12
0.0
 22
110.08
 32
0.0
 13
1.0
 23
1.0
340
0
 70
    15
280
     1
281
    50
282
    50
283
     0
360
0
 71
     2
 91
        5
 14
-0.5
 24
-0.4999999999999995
 14
0.5
 24
-0.4999999999999995
 14
0.5
 24
0.5000000000000006
 14
-0.5
 24
0.5000000000000006
 14
-0.5
 24
-0.4999999999999995
  0
MTEXT
  5
147
102
{ACAD_REACTORS
330
148
102
}
330
1F
100
AcDbEntity
  8
Key_ Sections_Pen_No__1
  6
Continuous
100
AcDbMText
 10
365.0000000000001
 20
600.5153180489249
 30
0.0
 40
12.5
 41
196.23
 71
     4
 72
     1
  1
{Breather type building \Punderlay dressed into \Popening with flexible tape \Pinstalled over underlay to \Pcorners at head}
  7
GENERATED_STYLE_1
 73
     1
 44
0.9582791943269445
  0
LEADER
  5
148
330
1F
100
AcDbEntity
  8
Key_ Sections_Pen_No__1
  6
Continuous
100
AcDbLeader
  3
GENERATED_STYLE__1
 72
     1
 73
     0
 74
     0
 40
92.76023385603987
 41
194.6
 76
     3
 10
267.6020997538953
 20
586.7715659778107
 30
0.0
 10
316.3226159179031
 20
596.6835691603884
 30
0.0
 10
364.9100000000001
 20
600.5153180489249
 30
0.0
340
147
  0
WIPEOUT
  5
149
330
1F
100
AcDbEntity
  8
Key_ Sections_Pen_No__1
  6
Wipeout_Contour
 48
2699.405591215813
 92
      296
310
28010000060000000C0000000E000000120000000C00000016000000000000C20C00000014000000010000006C000000070000000400000002000000008076400A4EB90C80B980400000000000000000AF47E17A14BA80400A4EB90C80B980400000000000000000AF47E17A14BA8040C0B8CC7D3B127D4000000000000000
310
000200000000807640C0B8CC7D3B127D4000000000000000000C0000000E0000000700000084000000060000000500000002000000008076400A4EB90C80B980400000000000000000AF47E17A14BA80400A4EB90C80B980400000000000000000AF47E17A14BA8040C0B8CC7D3B127D400000000000000000020000000080
310
7640C0B8CC7D3B127D40000000000000000002000000008076400A4EB90C80B980400000000000000000
100
AcDbWipeout
 90
        0
 10
360.0000000000001
 20
465.1395242688122
 30
0.0
 11
175.26
 21
0.0
 31
0.0
 12
0.0
 22
70.048
 32
0.0
 13
1.0
 23
1.0
340
0
 70
    15
280
     1
281
    50
282
    50
283
     0
360
0
 71
     2
 91
        5
 14
-0.5
 24
-0.5
 14
0.5
 24
-0.5
 14
0.5
 24
0.5
 14
-0.5
 24
0.5
 14
-0.5
 24
-0.5
  0
MTEXT
  5
14A
102
{ACAD_REACTORS
330
14B
102
}
330
1F
100
AcDbEntity
  8
Key_ Sections_Pen_No__1
  6
Continuous
100
AcDbMText
 10
365.0000000000001
 20
499.2646384625207
 30
0.0
 40
12.5
 41
165.26
 71
     4
 72
     1
  1
{Flexible flashing tape \Pover flashing to full \Pwidth of opening}
  7
GENERATED_STYLE_1
 73
     1
 44
0.9448816498417989
  0
LEADER
  5
14B
330
1F
100
AcDbEntity
  8
Key_ Sections_Pen_No__1
  6
Continuous
100
AcDbLeader
  3
GENERATED_STYLE__1
 72
     1
 73
     0
 74
     0
 40
56.14664344459105
 41
161.725
 76
     3
 10
134.7795663008951
 20
420.9380565565253
 30
0.0
 10
276.8470602649164
 20
486.3903813845009
 30
0.0
 10
364.9100000000001
 20
499.2646384625207
 30
0.0
340
14A
  0
WIPEOUT
  5
14C
330
1F
100
AcDbEntity
  8
Key_ Sections_Pen_No__1
  6
Wipeout_Contour
 48
2448.659477820992
 92
      296
310
28010000060000000C0000000E000000120000000C00000016000000000000C20C00000014000000010000006C000000070000000400000002000000008076409BC7497775CA7B400000000000000000713D0AD7A3D481409BC7497775CA7B400000000000000000713D0AD7A3D48140BA4C35C92DE9744000000000000000
310
000200000000807640BA4C35C92DE9744000000000000000000C0000000E0000000700000084000000060000000500000002000000008076409BC7497775CA7B400000000000000000713D0AD7A3D481409BC7497775CA7B400000000000000000713D0AD7A3D48140BA4C35C92DE974400000000000000000020000000080
310
7640BA4C35C92DE97440000000000000000002000000008076409BC7497775CA7B400000000000000000
100
AcDbWipeout
 90
        0
 10
360.0000000000001
 20
334.5736782152195
 30
0.0
 11
210.5799999999999
 21
0.0
 31
0.0
 12
0.0
 22
110.08
 32
0.0
 13
1.0
 23
1.0
340
0
 70
    15
280
     1
281
    50
282
    50
283
     0
360
0
 71
     2
 91
        5
 14
-0.5
 24
-0.5000000000000002
 14
0.5
 24
-0.5000000000000002
 14
0.5
 24
0.4999999999999997
 14
-0.5
 24
0.4999999999999997
 14
-0.5
 24
-0.5000000000000002
  0
MTEXT
  5
14D
102
{ACAD_REACTORS
330
14E
102
}
330
1F
100
AcDbEntity
  8
Key_ Sections_Pen_No__1
  6
Continuous
100
AcDbMText
 10
365.0000000000001
 20
388.8136208883506
 30
0.0
 40
12.5
 41
200.58
 71
     4
 72
     1
  1
{2 part head flashing with \P15degree fall. End of head\Pflashing requires folded \Pstop end or application \Pof sealant as stop end}
  7
GENERATED_STYLE_1
 73
     1
 44
0.7619507399853378
  0
LEADER
  5
14E
330
1F
100
AcDbEntity
  8
Key_ Sections_Pen_No__1
  6
Continuous
100
AcDbLeader
  3
GENERATED_STYLE__1
 72
     1
 73
     0
 74
     0
 40
96.03061234521337
 41
187.4125000000001
 76
     3
 10
165.6343580356303
 20
335.3882105029326
 30
0.0
 10
263.1823220451352
 20
376.6141470842495
 30
0.0
 10
364.9100000000001
 20
388.8136208883506
 30
0.0
340
14D
  0
WIPEOUT
  5
14F
330
1F
100
AcDbEntity
  8
Key_ Sections_Pen_No__1
  6
Wipeout_Contour
 48
2032.489863037962
 92
      296
310
28010000060000000C0000000E000000120000000C00000016000000000000C20C00000014000000010000006C00000007000000040000000200000000807640BC156A7094387040000000000000000067666666660C8140BC156A7094387040000000000000000067666666660C8140D06488A99FAF674000000000000000
310
000200000000807640D06488A99FAF674000000000000000000C0000000E000000070000008400000006000000050000000200000000807640BC156A7094387040000000000000000067666666660C8140BC156A7094387040000000000000000067666666660C8140D06488A99FAF67400000000000000000020000000080
310
7640D06488A99FAF674000000000000000000200000000807640BC156A70943870400000000000000000
100
AcDbWipeout
 90
        0
 10
360.0000000000001
 20
189.4882400192205
 30
0.0
 11
185.55
 21
0.0
 31
0.0
 12
0.0
 22
70.048
 32
0.0
 13
1.0
 23
1.0
340
0
 70
    15
280
     1
281
    50
282
    50
283
     0
360
0
 71
     2
 91
        5
 14
-0.5
 24
-0.5
 14
0.5
 24
-0.5
 14
0.5
 24
0.5
 14
-0.5
 24
0.5
 14
-0.5
 24
-0.5
  0
MTEXT
  5
150
102
{ACAD_REACTORS
330
151
102
}
330
1F
100
AcDbEntity
  8
Key_ Sections_Pen_No__1
  6
Continuous
100
AcDbMText
 10
365.0000000000001
 20
225.3147827843574
 30
0.0
 40
12.5
 41
175.55
 71
     4
 72
     1
  1
{Flashing tape over \Pbuilding underlay fitted \Paround corners}
  7
GENERATED_STYLE_1
 73
     1
 44
0.9558154610760365
  0
LEADER
  5
151
330
1F
100
AcDbEntity
  8
Key_ Sections_Pen_No__1
  6
Continuous
100
AcDbLeader
  3
GENERATED_STYLE__1
 72
     1
 73
     0
 74
     0
 40
52.72875499698019
 41
172.1625
 76
     3
 10
77.94228625544531
 20
237.4531922743466
 30
0.0
 10
126.4840971396663
 20
229.863522302236
 30
0.0
 10
364.9100000000001
 20
225.3147827843574
 30
0.0
340
150
  0
WIPEOUT
  5
152
330
1F
100
AcDbEntity
  8
Key_ Sections_Pen_No__1
  6
Wipeout_Contour
 48
1869.36399905425
 92
      296
310
28010000060000000C0000000E000000120000000C00000016000000000000C20C00000014000000010000006C00000007000000040000000200000000807640EE48CA5E202A674000000000000000007C14AE47E1468040EE48CA5E202A674000000000000000007C14AE47E14680408D04FD4E2ED15C4000000000000000
310
0002000000008076408D04FD4E2ED15C4000000000000000000C0000000E000000070000008400000006000000050000000200000000807640EE48CA5E202A674000000000000000007C14AE47E1468040EE48CA5E202A674000000000000000007C14AE47E14680408D04FD4E2ED15C400000000000000000020000000080
310
76408D04FD4E2ED15C4000000000000000000200000000807640EE48CA5E202A67400000000000000000
100
AcDbWipeout
 90
        0
 10
360.0000000000001
 20
115.2684514494778
 30
0.0
 11
160.86
 21
0.0
 31
0.0
 12
0.0
 22
70.04799999999999
 32
0.0
 13
1.0
 23
1.0
340
0
 70
    15
280
     1
281
    50
282
    50
283
     0
360
0
 71
     2
 91
        5
 14
-0.5
 24
-0.5000000000000001
 14
0.5
 24
-0.5000000000000001
 14
0.5
 24
0.4999999999999999
 14
-0.5
 24
0.4999999999999999
 14
-0.5
 24
-0.5000000000000001
  0
MTEXT
  5
153
102
{ACAD_REACTORS
330
154
102
}
330
1F
100
AcDbEntity
  8
Key_ Sections_Pen_No__1
  6
Continuous
100
AcDbMText
 10
365.0000000000001
 20
151.0949942146148
 30
0.0
 40
12.5
 41
150.86
 71
     4
 72
     1
  1
{PallisideTraditional \PBevel Back weather\Pboard }
  7
GENERATED_STYLE_1
 73
     1
 44
0.640474495538679
  0
LEADER
  5
154
330
1F
100
AcDbEntity
  8
Key_ Sections_Pen_No__1
  6
Continuous
100
AcDbLeader
  3
GENERATED_STYLE__1
 72
     1
 73
     0
 74
     0
 40
52.72965597116745
 41
143.8375
 76
     3
 10
-122.0754555937337
 20
284.6427398749219
 30
0.0
 10
24.80531964288234
 20
195.2543209705784
 30
0.0
 10
364.9100000000001
 20
151.0949942146148
 30
0.0
340
153
  0
WIPEOUT
  5
155
330
1F
100
AcDbEntity
  8
Key_ Sections_Pen_No__1
  6
Wipeout_Contour
 48
1783.957441917113
 92
      296
310
28010000060000000C0000000E000000120000000C00000016000000000000C20C00000014000000010000006C00000007000000040000000200000000807640BE089FE29B5C5B40000000000000000086EB51B81E0F8040BE089FE29B5C5B40000000000000000086EB51B81E0F80401255C9311FB54D4000000000000000
310
0002000000008076401255C9311FB54D4000000000000000000C0000000E000000070000008400000006000000050000000200000000807640BE089FE29B5C5B40000000000000000086EB51B81E0F8040BE089FE29B5C5B40000000000000000086EB51B81E0F80401255C9311FB54D400000000000000000020000000080
310
76401255C9311FB54D4000000000000000000200000000807640BE089FE29B5C5B400000000000000000
100
AcDbWipeout
 90
        0
 10
360.0000000000001
 20
59.41501447992972
 30
0.0
 11
153.89
 21
0.0
 31
0.0
 12
0.0
 22
50.032
 32
0.0
 13
1.0
 23
1.0
340
0
 70
    15
280
     1
281
    50
282
    50
283
     0
360
0
 71
     2
 91
        5
 14
-0.5
 24
-0.4999999999999998
 14
0.5
 24
-0.4999999999999998
 14
0.5
 24
0.5000000000000001
 14
-0.5
 24
0.5000000000000001
 14
-0.5
 24
-0.4999999999999998
  0
MTEXT
  5
156
102
{ACAD_REACTORS
330
157
102
}
330
1F
100
AcDbEntity
  8
Key_ Sections_Pen_No__1
  6
Continuous
100
AcDbMText
 10
365.0000000000001
 20
83.52771443392675
 30
0.0
 40
12.5
 41
143.89
 71
     4
 72
     1
  1
{Palliside fastfix \Pfasteners @500crs}
  7
GENERATED_STYLE_1
 73
     1
 44
0.4723970205439244
  0
LEADER
  5
157
330
1F
100
AcDbEntity
  8
Key_ Sections_Pen_No__1
  6
Continuous
100
AcDbLeader
  3
GENERATED_STYLE__1
 72
     1
 73
     0
 74
     0
 40
36.27147792306135
 41
113.9
 76
     3
 10
-183.8955210070683
 20
186.9412577987314
 30
0.0
 10
-59.67594466602046
 20
123.2898650890789
 30
0.0
 10
364.9100000000001
 20
83.52771443392675
 30
0.0
340
156
  0
WIPEOUT
  5
158
330
1F
100
AcDbEntity
  8
Key_ Sections_Pen_No__1
  6
Wipeout_Contour
 48
1781.077570346371
 92
      296
310
28010000060000000C0000000E000000120000000C00000016000000000000C20C00000014000000010000006C000000070000000400000002000000008076407398105151FE4440000000000000000034333333338380407398105151FE444000000000000000003433333333838040DC8F90091D1720C000000000000000
310
000200000000807640DC8F90091D1720C000000000000000000C0000000E0000000700000084000000060000000500000002000000008076407398105151FE4440000000000000000034333333338380407398105151FE444000000000000000003433333333838040DC8F90091D1720C00000000000000000020000000080
310
7640DC8F90091D1720C0000000000000000002000000008076407398105151FE44400000000000000000
100
AcDbWipeout
 90
        0
 10
360.0000000000001
 20
-8.045143412491532
 30
0.0
 11
168.4
 21
0.0
 31
0.0
 12
0.0
 22
50.032
 32
0.0
 13
1.0
 23
1.0
340
0
 70
    15
280
     1
281
    50
282
    50
283
     0
360
0
 71
     2
 91
        5
 14
-0.5
 24
-0.5
 14
0.5
 24
-0.5
 14
0.5
 24
0.5
 14
-0.5
 24
0.5
 14
-0.5
 24
-0.5
  0
MTEXT
  5
159
102
{ACAD_REACTORS
330
15A
102
}
330
1F
100
AcDbEntity
  8
Key_ Sections_Pen_No__1
  6
Continuous
100
AcDbMText
 10
365.0000000000001
 20
16.07184225579123
 30
0.0
 40
12.49999999999999
 41
158.4
 71
     4
 72
     1
  1
{Window head closer \Pflashing}
  7
GENERATED_STYLE_1
 73
     1
 44
0.9482389079738854
  0
LEADER
  5
15A
330
1F
100
AcDbEntity
  8
Key_ Sections_Pen_No__1
  6
Continuous
100
AcDbLeader
  3
GENERATED_STYLE__1
 72
     1
 73
     0
 74
     0
 40
36.12997724945593
 41
157.1124999999999
 76
     3
 10
-232.6788157741164
 20
136.9708565875085
 30
0.0
 10
-221.0089803262391
 20
74.60805870023087
 30
0.0
 10
364.9100000000001
 20
16.07184225579123
 30
0.0
340
159
  0
WIPEOUT
  5
15B
330
1F
100
AcDbEntity
  8
Key_ Sections_Pen_No__1
  6
Wipeout_Contour
 48
1798.673259496376
 92
      296
310
28010000060000000C0000000E000000120000000C00000016000000000000C20C00000014000000010000006C0000000700000004000000020000000080764042B396CC89FE42C00000000000000000000000000086804042B396CC89FE42C000000000000000000000000000868040D6B70530510156C000000000000000
310
000200000000807640D6B70530510156C000000000000000000C0000000E00000007000000840000000600000005000000020000000080764042B396CC89FE42C00000000000000000000000000086804042B396CC89FE42C000000000000000000000000000868040D6B70530510156C00000000000000000020000000080
310
7640D6B70530510156C00000000000000000020000000080764042B396CC89FE42C00000000000000000
100
AcDbWipeout
 90
        0
 10
360.0000000000001
 20
-88.02058029707345
 30
0.0
 11
168.7499999999999
 21
0.0
 31
0.0
 12
0.0
 22
50.032
 32
0.0
 13
1.0
 23
1.0
340
0
 70
    15
280
     1
281
    50
282
    50
283
     0
360
0
 71
     2
 91
        5
 14
-0.5
 24
-0.5
 14
0.5
 24
-0.5
 14
0.5
 24
0.5
 14
-0.5
 24
0.5
 14
-0.5
 24
-0.5
  0
MTEXT
  5
15C
102
{ACAD_REACTORS
330
15D
102
}
330
1F
100
AcDbEntity
  8
Key_ Sections_Pen_No__1
  6
Continuous
100
AcDbMText
 10
365.0000000000001
 20
-63.9035946287907
 30
0.0
 40
12.5
 41
158.75
 71
     4
 72
     1
  1
{Palliside 2 part jamb \Pflashing base}
  7
GENERATED_STYLE_1
 73
     1
 44
0.9459980913343259
  0
LEADER
  5
15D
330
1F
100
AcDbEntity
  8
Key_ Sections_Pen_No__1
  6
Continuous
100
AcDbLeader
  3
GENERATED_STYLE__1
 72
     1
 73
     0
 74
     0
 40
36.13059347403185
 41
155.025
 76
     3
 10
150.6804870591365
 20
-23.00458029707344
 30
0.0
 10
222.4293436916597
 20
-50.0957186166298
 30
0.0
 10
364.9100000000001
 20
-63.9035946287907
 30
0.0
340
15C
  0
WIPEOUT
  5
15E
330
1F
100
AcDbEntity
  8
Key_ Sections_Pen_No__1
  6
Wipeout_Contour
 48
1624.544134030653
 92
      296
310
28010000060000000C0000000E000000120000000C00000016000000000000C20C00000014000000010000006C000000070000000400000002000000008076406897E0ED7CDF5AC000000000000000003308AC1C5ADC79406897E0ED7CDF5AC000000000000000003308AC1C5ADC794041E35E89413061C000000000000000
310
00020000000080764041E35E89413061C000000000000000000C0000000E0000000700000084000000060000000500000002000000008076406897E0ED7CDF5AC000000000000000003308AC1C5ADC79406897E0ED7CDF5AC000000000000000003308AC1C5ADC794041E35E89413061C00000000000000000020000000080
310
764041E35E89413061C0000000000000000002000000008076406897E0ED7CDF5AC00000000000000000
100
AcDbWipeout
 90
        0
 10
360.0000000000001
 20
-137.5080000737453
 30
0.0
 11
53.77199999999999
 21
0.0
 31
0.0
 12
0.0
 22
30.01599999999999
 32
0.0
 13
1.0
 23
1.0
340
0
 70
    15
280
     1
281
    50
282
    50
283
     0
360
0
 71
     2
 91
        5
 14
-0.4999999999999994
 24
-0.5
 14
0.5000000000000006
 24
-0.5
 14
0.5000000000000006
 24
0.5
 14
-0.4999999999999994
 24
0.5
 14
-0.4999999999999994
 24
-0.5
  0
MTEXT
  5
15F
102
{ACAD_REACTORS
330
160
102
}
330
1F
100
AcDbEntity
  8
Key_ Sections_Pen_No__1
  6
Continuous
100
AcDbMText
 10
365.0000000000001
 20
-121.7020000737453
 30
0.0
 40
12.5
 41
43.77199999999999
 71
     4
 72
     1
  1
{Studs}
  7
GENERATED_STYLE_1
 73
     1
 44
1.0
  0
LEADER
  5
160
330
1F
100
AcDbEntity
  8
Key_ Sections_Pen_No__1
  6
Continuous
100
AcDbLeader
  3
GENERATED_STYLE__1
 72
     1
 73
     0
 74
     0
 40
12.925
 41
43.1375
 76
     3
 10
38.9711431277231
 20
-22.50000007374531
 30
0.0
 10
53.16848082882817
 20
-76.92244914559107
 30
0.0
 10
364.9100000000001
 20
-121.7020000737453
 30
0.0
340
15F
  0
LWPOLYLINE
  5
161
330
1F
100
AcDbEntity
  8
0_Pen_No__1
  6
Continuous
100
AcDbPolyline
 90
        4
 70
   129
 43
0.0
 10
360.0000000000001
 20
-162.5000000737453
 10
496.1717742635465
 20
-162.5000000737453
 10
496.1717742635465
 20
-238.3389303977959
 10
360.0000000000001
 20
-238.3389303977959
  0
MTEXT
  5
162
330
1F
100
AcDbEntity
  8
0_Pen_No__1
  6
Continuous
100
AcDbMText
 10
365.0000000000001
 20
-170.3571429308882
 30
0.0
 40
12.5
 41
0.0
 71
     1
 72
     1
  1
{Note:\PWindow omitted \Pfor clarity.}
  7
GENERATED_STYLE_1
 73
     1
 44
1.0465152245945
  0
ENDSEC
  0
SECTION
  2
OBJECTS
  0
DICTIONARY
  5
C
330
0
100
AcDbDictionary
281
     1
  3
ACAD_GROUP
350
D
  3
ACAD_LAYOUT
350
1A
  3
ACAD_MATERIAL
350
3B
  3
ACAD_MLEADERSTYLE
350
1B3
  3
ACAD_MLINESTYLE
350
17
  3
ACAD_PLOTSETTINGS
350
19
  3
ACAD_PLOTSTYLENAME
350
E
  3
ACAD_SCALELIST
350
166
  3
ACAD_TABLESTYLE
350
1B2
  3
ACAD_VISUALSTYLE
350
2A
  3
AcDbVariableDictionary
350
18A
  3
WATERMARKS
350
188
  0
DICTIONARY
  5
D
102
{ACAD_REACTORS
330
C
102
}
330
C
100
AcDbDictionary
281
     1
  0
DICTIONARY
  5
1A
102
{ACAD_REACTORS
330
C
102
}
330
C
100
AcDbDictionary
281
     1
  3
Layout1
350
1E
  3
Layout2
350
26
  3
Model
350
22
  0
DICTIONARY
  5
3B
102
{ACAD_REACTORS
330
C
102
}
330
C
100
AcDbDictionary
281
     1
  3
ByBlock
350
3D
  3
ByLayer
350
3C
  3
Global
350
3E
  0
DICTIONARY
  5
1B3
102
{ACAD_REACTORS
330
C
102
}
330
C
100
AcDbDictionary
281
     1
  0
DICTIONARY
  5
17
102
{ACAD_REACTORS
330
C
102
}
330
C
100
AcDbDictionary
281
     1
  3
Standard
350
18
  0
DICTIONARY
  5
19
102
{ACAD_REACTORS
330
C
102
}
330
C
100
AcDbDictionary
281
     1
  0
ACDBDICTIONARYWDFLT
  5
E
102
{ACAD_REACTORS
330
C
102
}
330
C
100
AcDbDictionary
281
     1
  3
Normal
350
F
100
AcDbDictionaryWithDefault
340
F
  0
DICTIONARY
  5
166
102
{ACAD_REACTORS
330
C
102
}
330
C
100
AcDbDictionary
281
     1
  3
A0
350
167
  3
A1
350
168
  3
A2
350
169
  3
A3
350
16A
  3
A4
350
16B
  3
A5
350
16C
  3
A6
350
16D
  3
A7
350
16E
  3
A8
350
16F
  3
A9
350
170
  3
B0
350
171
  3
B1
350
172
  3
B2
350
173
  3
B3
350
174
  3
B4
350
175
  3
B5
350
176
  3
B6
350
177
  3
B7
350
178
  3
B8
350
179
  3
B9
350
17A
  3
C0
350
17B
  3
C1
350
17C
  3
C2
350
17D
  3
C3
350
17E
  3
C4
350
17F
  3
C5
350
180
  3
C6
350
181
  3
C7
350
182
  3
C8
350
183
  3
C9
350
184
  3
D0
350
185
  3
D1
350
186
  3
D2
350
187
  0
DICTIONARY
  5
1B2
102
{ACAD_REACTORS
330
C
102
}
330
C
100
AcDbDictionary
281
     1
  0
DICTIONARY
  5
2A
102
{ACAD_REACTORS
330
C
102
}
330
C
100
AcDbDictionary
281
     1
  3
2dWireframe
350
2F
  3
3D Hidden
350
31
  3
3dWireframe
350
30
  3
Basic
350
32
  3
Brighten
350
36
  3
ColorChange
350
3A
  3
Conceptual
350
34
  3
Dim
350
35
  3
Facepattern
350
39
  3
Flat
350
2B
  3
FlatWithEdges
350
2C
  3
Gouraud
350
2D
  3
GouraudWithEdges
350
2E
  3
Linepattern
350
38
  3
Realistic
350
33
  3
Thicken
350
37
  0
DICTIONARY
  5
18A
102
{ACAD_REACTORS
330
C
102
}
330
C
100
AcDbDictionary
281
     1
  3
CANNOSCALE
350
18B
  3
XCLIPFRAME
350
1B4
  0
DICTIONARY
  5
188
102
{ACAD_REACTORS
330
C
102
}
330
C
100
AcDbDictionary
281
     1
  3
AC_WATERMARK
350
189
  0
LAYOUT
  5
1E
102
{ACAD_REACTORS
330
1A
102
}
330
1A
100
AcDbPlotSettings
  1

  2
none_device
  4

  6

 40
0.0
 41
0.0
 42
0.0
 43
0.0
 44
0.0
 45
0.0
 46
0.0
 47
0.0
 48
0.0
 49
0.0
140
0.0
141
0.0
142
1.0
143
1.0
 70
   688
 72
     0
 73
     0
 74
     5
  7

 75
    16
 76
     0
 77
     2
 78
   300
147
1.0
148
0.0
149
0.0
100
AcDbLayout
  1
Layout1
 70
     1
 71
     1
 10
0.0
 20
0.0
 11
12.0
 21
9.0
 12
0.0
 22
0.0
 32
0.0
 14
1.000000000000000E+20
 24
1.000000000000000E+20
 34
1.000000000000000E+20
 15
-1.000000000000000E+20
 25
-1.000000000000000E+20
 35
-1.000000000000000E+20
146
0.0
 13
0.0
 23
0.0
 33
0.0
 16
1.0
 26
0.0
 36
0.0
 17
0.0
 27
1.0
 37
0.0
 76
     0
330
1B
  0
LAYOUT
  5
26
102
{ACAD_REACTORS
330
1A
102
}
330
1A
100
AcDbPlotSettings
  1

  2
none_device
  4

  6

 40
0.0
 41
0.0
 42
0.0
 43
0.0
 44
0.0
 45
0.0
 46
0.0
 47
0.0
 48
0.0
 49
0.0
140
0.0
141
0.0
142
1.0
143
1.0
 70
   688
 72
     0
 73
     0
 74
     5
  7

 75
    16
 76
     0
 77
     2
 78
   300
147
1.0
148
0.0
149
0.0
100
AcDbLayout
  1
Layout2
 70
     1
 71
     2
 10
0.0
 20
0.0
 11
0.0
 21
0.0
 12
0.0
 22
0.0
 32
0.0
 14
0.0
 24
0.0
 34
0.0
 15
0.0
 25
0.0
 35
0.0
146
0.0
 13
0.0
 23
0.0
 33
0.0
 16
1.0
 26
0.0
 36
0.0
 17
0.0
 27
1.0
 37
0.0
 76
     0
330
23
  0
LAYOUT
  5
22
102
{ACAD_REACTORS
330
1A
102
}
330
1A
100
AcDbPlotSettings
  1

  2
none_device
  4

  6

 40
0.0
 41
0.0
 42
0.0
 43
0.0
 44
0.0
 45
0.0
 46
0.0
 47
0.0
 48
0.0
 49
0.0
140
0.0
141
0.0
142
1.0
143
1.0
 70
  1712
 72
     0
 73
     0
 74
     0
  7

 75
     0
 76
     0
 77
     2
 78
   300
147
1.0
148
0.0
149
0.0
100
AcDbLayout
  1
Model
 70
     1
 71
     0
 10
0.0
 20
0.0
 11
12.0
 21
9.0
 12
0.0
 22
0.0
 32
0.0
 14
1.000000000000000E+20
 24
1.000000000000000E+20
 34
1.000000000000000E+20
 15
-1.000000000000000E+20
 25
-1.000000000000000E+20
 35
-1.000000000000000E+20
146
0.0
 13
0.0
 23
0.0
 33
0.0
 16
1.0
 26
0.0
 36
0.0
 17
0.0
 27
1.0
 37
0.0
 76
     0
330
1F
331
29
  0
MATERIAL
  5
3D
102
{ACAD_REACTORS
330
3B
102
}
102
{ACAD_XDICTIONARY
360
1AE
102
}
330
3B
100
AcDbMaterial
  1
ByBlock
  0
MATERIAL
  5
3C
102
{ACAD_REACTORS
330
3B
102
}
102
{ACAD_XDICTIONARY
360
1AC
102
}
330
3B
100
AcDbMaterial
  1
ByLayer
  0
MATERIAL
  5
3E
102
{ACAD_REACTORS
330
3B
102
}
102
{ACAD_XDICTIONARY
360
1B0
102
}
330
3B
100
AcDbMaterial
  1
Global
  0
MLINESTYLE
  5
18
102
{ACAD_REACTORS
330
17
102
}
330
17
100
AcDbMlineStyle
  2
Standard
 70
     0
  3

 62
   256
 51
90.0
 52
90.0
 71
     2
 49
0.5
 62
   256
  6
BYLAYER
 49
-0.5
 62
   256
  6
BYLAYER
  0
ACDBPLACEHOLDER
  5
F
102
{ACAD_REACTORS
330
E
102
}
330
E
  0
SCALE
  5
167
102
{ACAD_REACTORS
330
166
102
}
330
166
100
AcDbScale
 70
     0
300
1:1
140
1.0
141
1.0
290
     1
  0
SCALE
  5
168
102
{ACAD_REACTORS
330
166
102
}
330
166
100
AcDbScale
 70
     0
300
1:2
140
1.0
141
2.0
290
     0
  0
SCALE
  5
169
102
{ACAD_REACTORS
330
166
102
}
330
166
100
AcDbScale
 70
     0
300
1:4
140
1.0
141
4.0
290
     0
  0
SCALE
  5
16A
102
{ACAD_REACTORS
330
166
102
}
330
166
100
AcDbScale
 70
     0
300
1:5
140
1.0
141
5.0
290
     0
  0
SCALE
  5
16B
102
{ACAD_REACTORS
330
166
102
}
330
166
100
AcDbScale
 70
     0
300
1:8
140
1.0
141
8.0
290
     0
  0
SCALE
  5
16C
102
{ACAD_REACTORS
330
166
102
}
330
166
100
AcDbScale
 70
     0
300
1:10
140
1.0
141
10.0
290
     0
  0
SCALE
  5
16D
102
{ACAD_REACTORS
330
166
102
}
330
166
100
AcDbScale
 70
     0
300
1:16
140
1.0
141
16.0
290
     0
  0
SCALE
  5
16E
102
{ACAD_REACTORS
330
166
102
}
330
166
100
AcDbScale
 70
     0
300
1:20
140
1.0
141
20.0
290
     0
  0
SCALE
  5
16F
102
{ACAD_REACTORS
330
166
102
}
330
166
100
AcDbScale
 70
     0
300
1:30
140
1.0
141
30.0
290
     0
  0
SCALE
  5
170
102
{ACAD_REACTORS
330
166
102
}
330
166
100
AcDbScale
 70
     0
300
1:40
140
1.0
141
40.0
290
     0
  0
SCALE
  5
171
102
{ACAD_REACTORS
330
166
102
}
330
166
100
AcDbScale
 70
     0
300
1:50
140
1.0
141
50.0
290
     0
  0
SCALE
  5
172
102
{ACAD_REACTORS
330
166
102
}
330
166
100
AcDbScale
 70
     0
300
1:100
140
1.0
141
100.0
290
     0
  0
SCALE
  5
173
102
{ACAD_REACTORS
330
166
102
}
330
166
100
AcDbScale
 70
     0
300
2:1
140
2.0
141
1.0
290
     0
  0
SCALE
  5
174
102
{ACAD_REACTORS
330
166
102
}
330
166
100
AcDbScale
 70
     0
300
4:1
140
4.0
141
1.0
290
     0
  0
SCALE
  5
175
102
{ACAD_REACTORS
330
166
102
}
330
166
100
AcDbScale
 70
     0
300
8:1
140
8.0
141
1.0
290
     0
  0
SCALE
  5
176
102
{ACAD_REACTORS
330
166
102
}
330
166
100
AcDbScale
 70
     0
300
10:1
140
10.0
141
1.0
290
     0
  0
SCALE
  5
177
102
{ACAD_REACTORS
330
166
102
}
330
166
100
AcDbScale
 70
     0
300
100:1
140
100.0
141
1.0
290
     0
  0
SCALE
  5
178
102
{ACAD_REACTORS
330
166
102
}
330
166
100
AcDbScale
 70
     0
300
1/128" = 1'-0"
140
0.0078125
141
12.0
290
     0
  0
SCALE
  5
179
102
{ACAD_REACTORS
330
166
102
}
330
166
100
AcDbScale
 70
     0
300
1/64" = 1'-0"
140
0.015625
141
12.0
290
     0
  0
SCALE
  5
17A
102
{ACAD_REACTORS
330
166
102
}
330
166
100
AcDbScale
 70
     0
300
1/32" = 1'-0"
140
0.03125
141
12.0
290
     0
  0
SCALE
  5
17B
102
{ACAD_REACTORS
330
166
102
}
330
166
100
AcDbScale
 70
     0
300
1/16" = 1'-0"
140
0.0625
141
12.0
290
     0
  0
SCALE
  5
17C
102
{ACAD_REACTORS
330
166
102
}
330
166
100
AcDbScale
 70
     0
300
3/32" = 1'-0"
140
0.09375
141
12.0
290
     0
  0
SCALE
  5
17D
102
{ACAD_REACTORS
330
166
102
}
330
166
100
AcDbScale
 70
     0
300
1/8" = 1'-0"
140
0.125
141
12.0
290
     0
  0
SCALE
  5
17E
102
{ACAD_REACTORS
330
166
102
}
330
166
100
AcDbScale
 70
     0
300
3/16" = 1'-0"
140
0.1875
141
12.0
290
     0
  0
SCALE
  5
17F
102
{ACAD_REACTORS
330
166
102
}
330
166
100
AcDbScale
 70
     0
300
1/4" = 1'-0"
140
0.25
141
12.0
290
     0
  0
SCALE
  5
180
102
{ACAD_REACTORS
330
166
102
}
330
166
100
AcDbScale
 70
     0
300
3/8" = 1'-0"
140
0.375
141
12.0
290
     0
  0
SCALE
  5
181
102
{ACAD_REACTORS
330
166
102
}
330
166
100
AcDbScale
 70
     0
300
1/2" = 1'-0"
140
0.5
141
12.0
290
     0
  0
SCALE
  5
182
102
{ACAD_REACTORS
330
166
102
}
330
166
100
AcDbScale
 70
     0
300
3/4" = 1'-0"
140
0.75
141
12.0
290
     0
  0
SCALE
  5
183
102
{ACAD_REACTORS
330
166
102
}
330
166
100
AcDbScale
 70
     0
300
1" = 1'-0"
140
1.0
141
12.0
290
     0
  0
SCALE
  5
184
102
{ACAD_REACTORS
330
166
102
}
330
166
100
AcDbScale
 70
     0
300
1-1/2" = 1'-0"
140
1.5
141
12.0
290
     0
  0
SCALE
  5
185
102
{ACAD_REACTORS
330
166
102
}
330
166
100
AcDbScale
 70
     0
300
3" = 1'-0"
140
3.0
141
12.0
290
     0
  0
SCALE
  5
186
102
{ACAD_REACTORS
330
166
102
}
330
166
100
AcDbScale
 70
     0
300
6" = 1'-0"
140
6.0
141
12.0
290
     0
  0
SCALE
  5
187
102
{ACAD_REACTORS
330
166
102
}
330
166
100
AcDbScale
 70
     0
300
1'-0" = 1'-0"
140
12.0
141
12.0
290
     0
  0
VISUALSTYLE
  5
2F
102
{ACAD_REACTORS
330
2A
102
}
102
{ACAD_XDICTIONARY
360
194
102
}
330
2A
100
AcDbVisualStyle
  2
2dWireframe
 70
     4
 71
     0
 72
     2
 73
     0
 90
        0
 40
-0.6
 41
-30.0
 62
     5
 63
     7
421
 16777215
 74
     1
 91
        4
 64
     7
 65
   257
 75
     1
175
     1
 42
1.0
 92
        0
 66
   257
 43
1.0
 76
     1
 77
     6
 78
     2
 67
     7
 79
     5
170
     0
171
     0
290
     0
174
     0
 93
        1
 44
0.0
173
     0
291
     0
 45
0.0
1001
ACAD
1000
AcDbSavedByObjectVersion
1070
     0
  0
VISUALSTYLE
  5
31
102
{ACAD_REACTORS
330
2A
102
}
102
{ACAD_XDICTIONARY
360
198
102
}
330
2A
100
AcDbVisualStyle
  2
3D Hidden
 70
     6
 71
     1
 72
     2
 73
     2
 90
        0
 40
-0.6
 41
-30.0
 62
     5
 63
     7
421
 16777215
 74
     2
 91
        2
 64
     7
 65
   257
 75
     2
175
     1
 42
40.0
 92
        0
 66
   257
 43
1.0
 76
     1
 77
     6
 78
     2
 67
     7
 79
     3
170
     0
171
     0
290
     0
174
     0
 93
        1
 44
0.0
173
     0
291
     0
 45
0.0
1001
ACAD
1000
AcDbSavedByObjectVersion
1070
     0
  0
VISUALSTYLE
  5
30
102
{ACAD_REACTORS
330
2A
102
}
102
{ACAD_XDICTIONARY
360
196
102
}
330
2A
100
AcDbVisualStyle
  2
3dWireframe
 70
     5
 71
     0
 72
     2
 73
     0
 90
        0
 40
-0.6
 41
-30.0
 62
     5
 63
     7
421
 16777215
 74
     1
 91
        4
 64
     7
 65
   257
 75
     1
175
     1
 42
1.0
 92
        0
 66
   257
 43
1.0
 76
     1
 77
     6
 78
     2
 67
     7
 79
     5
170
     0
171
     0
290
     0
174
     0
 93
        1
 44
0.0
173
     0
291
     0
 45
0.0
1001
ACAD
1000
AcDbSavedByObjectVersion
1070
     0
  0
VISUALSTYLE
  5
32
102
{ACAD_REACTORS
330
2A
102
}
102
{ACAD_XDICTIONARY
360
19A
102
}
330
2A
100
AcDbVisualStyle
  2
Basic
 70
     7
 71
     1
 72
     0
 73
     1
 90
        0
 40
-0.6
 41
-30.0
 62
     5
 63
     7
421
 16777215
 74
     0
 91
        4
 64
     7
 65
   257
 75
     1
175
     1
 42
1.0
 92
        8
 66
     7
 43
1.0
 76
     1
 77
     6
 78
     2
 67
     7
 79
     5
170
     0
171
     0
290
     0
174
     0
 93
        1
 44
0.0
173
     0
291
     1
 45
0.0
1001
ACAD
1000
AcDbSavedByObjectVersion
1070
     0
  0
VISUALSTYLE
  5
36
102
{ACAD_REACTORS
330
2A
102
}
102
{ACAD_XDICTIONARY
360
1A2
102
}
330
2A
100
AcDbVisualStyle
  2
Brighten
 70
    12
 71
     2
 72
     2
 73
     0
 90
        0
 40
-0.6
 41
-30.0
 62
     5
 63
     7
421
 16777215
 74
     1
 91
        4
 64
     7
 65
   257
 75
     1
175
     1
 42
1.0
 92
        8
 66
     7
 43
1.0
 76
     1
 77
     6
 78
     2
 67
     7
 79
     5
170
     0
171
     0
290
     0
174
     0
 93
        1
 44
50.0
173
     0
291
     1
 45
0.0
1001
ACAD
1000
AcDbSavedByObjectVersion
1070
     0
  0
VISUALSTYLE
  5
3A
102
{ACAD_REACTORS
330
2A
102
}
102
{ACAD_XDICTIONARY
360
1AA
102
}
330
2A
100
AcDbVisualStyle
  2
ColorChange
 70
    16
 71
     2
 72
     2
 73
     3
 90
        0
 40
-0.6
 41
-30.0
 62
     5
 63
     8
421
  8421504
 74
     1
 91
        4
 64
     7
 65
   257
 75
     1
175
     1
 42
1.0
 92
        8
 66
     8
424
  8421504
 43
1.0
 76
     1
 77
     6
 78
     2
 67
     7
 79
     5
170
     0
171
     0
290
     0
174
     0
 93
        1
 44
0.0
173
     0
291
     1
 45
0.0
1001
ACAD
1000
AcDbSavedByObjectVersion
1070
     0
  0
VISUALSTYLE
  5
34
102
{ACAD_REACTORS
330
2A
102
}
102
{ACAD_XDICTIONARY
360
19E
102
}
330
2A
100
AcDbVisualStyle
  2
Conceptual
 70
     9
 71
     3
 72
     2
 73
     0
 90
        0
 40
-0.6
 41
-30.0
 62
     5
 63
     7
421
 16777215
 74
     2
 91
        2
 64
     7
 65
   257
 75
     1
175
     1
 42
40.0
 92
        8
 66
     7
 43
1.0
 76
     1
 77
     6
 78
     2
 67
     7
 79
     3
170
     0
171
     0
290
     0
174
     0
 93
        1
 44
0.0
173
     0
291
     0
 45
0.0
1001
ACAD
1000
AcDbSavedByObjectVersion
1070
     0
  0
VISUALSTYLE
  5
35
102
{ACAD_REACTORS
330
2A
102
}
102
{ACAD_XDICTIONARY
360
1A0
102
}
330
2A
100
AcDbVisualStyle
  2
Dim
 70
    11
 71
     2
 72
     2
 73
     0
 90
        0
 40
-0.6
 41
-30.0
 62
     5
 63
     7
421
 16777215
 74
     1
 91
        4
 64
     7
 65
   257
 75
     1
175
     1
 42
1.0
 92
        8
 66
     7
 43
1.0
 76
     1
 77
     6
 78
     2
 67
     7
 79
     5
170
     0
171
     0
290
     0
174
     0
 93
        1
 44
-50.0
173
     0
291
     1
 45
0.0
1001
ACAD
1000
AcDbSavedByObjectVersion
1070
     0
  0
VISUALSTYLE
  5
39
102
{ACAD_REACTORS
330
2A
102
}
102
{ACAD_XDICTIONARY
360
1A8
102
}
330
2A
100
AcDbVisualStyle
  2
Facepattern
 70
    15
 71
     2
 72
     2
 73
     0
 90
        0
 40
-0.6
 41
-30.0
 62
     5
 63
     7
421
 16777215
 74
     1
 91
        4
 64
     7
 65
   257
 75
     1
175
     1
 42
1.0
 92
        8
 66
     7
 43
1.0
 76
     1
 77
     6
 78
     2
 67
     7
 79
     5
170
     0
171
     0
290
     0
174
     0
 93
        1
 44
0.0
173
     0
291
     1
 45
0.0
1001
ACAD
1000
AcDbSavedByObjectVersion
1070
     0
  0
VISUALSTYLE
  5
2B
102
{ACAD_REACTORS
330
2A
102
}
102
{ACAD_XDICTIONARY
360
18C
102
}
330
2A
100
AcDbVisualStyle
  2
Flat
 70
     0
 71
     2
 72
     1
 73
     1
 90
        2
 40
-0.6
 41
30.0
 62
     5
 63
     7
421
 16777215
 74
     0
 91
        4
 64
     7
 65
   257
 75
     1
175
     1
 42
1.0
 92
        8
 66
     7
 43
1.0
 76
     1
 77
     6
 78
     2
 67
     7
 79
     5
170
     0
171
     0
290
     0
174
     0
 93
       13
 44
0.0
173
     0
291
     1
 45
0.0
1001
ACAD
1000
AcDbSavedByObjectVersion
1070
     0
  0
VISUALSTYLE
  5
2C
102
{ACAD_REACTORS
330
2A
102
}
102
{ACAD_XDICTIONARY
360
18E
102
}
330
2A
100
AcDbVisualStyle
  2
FlatWithEdges
 70
     1
 71
     2
 72
     1
 73
     1
 90
        2
 40
-0.6
 41
30.0
 62
     5
 63
     7
421
 16777215
 74
     1
 91
        4
 64
     7
 65
   257
 75
     1
175
     1
 42
1.0
 92
        0
 66
   257
 43
1.0
 76
     1
 77
     6
 78
     2
 67
     7
 79
     5
170
     0
171
     0
290
     0
174
     0
 93
       13
 44
0.0
173
     0
291
     1
 45
0.0
1001
ACAD
1000
AcDbSavedByObjectVersion
1070
     0
  0
VISUALSTYLE
  5
2D
102
{ACAD_REACTORS
330
2A
102
}
102
{ACAD_XDICTIONARY
360
190
102
}
330
2A
100
AcDbVisualStyle
  2
Gouraud
 70
     2
 71
     2
 72
     2
 73
     1
 90
        2
 40
-0.6
 41
30.0
 62
     5
 63
     7
421
 16777215
 74
     0
 91
        4
 64
     7
 65
   257
 75
     1
175
     1
 42
1.0
 92
        0
 66
     7
 43
1.0
 76
     1
 77
     6
 78
     2
 67
     7
 79
     5
170
     0
171
     0
290
     0
174
     0
 93
       13
 44
0.0
173
     0
291
     1
 45
0.0
1001
ACAD
1000
AcDbSavedByObjectVersion
1070
     0
  0
VISUALSTYLE
  5
2E
102
{ACAD_REACTORS
330
2A
102
}
102
{ACAD_XDICTIONARY
360
192
102
}
330
2A
100
AcDbVisualStyle
  2
GouraudWithEdges
 70
     3
 71
     2
 72
     2
 73
     1
 90
        2
 40
-0.6
 41
30.0
 62
     5
 63
     7
421
 16777215
 74
     1
 91
        4
 64
     7
 65
   257
 75
     1
175
     1
 42
1.0
 92
        0
 66
   257
 43
1.0
 76
     1
 77
     6
 78
     2
 67
     7
 79
     5
170
     0
171
     0
290
     0
174
     0
 93
       13
 44
0.0
173
     0
291
     1
 45
0.0
1001
ACAD
1000
AcDbSavedByObjectVersion
1070
     0
  0
VISUALSTYLE
  5
38
102
{ACAD_REACTORS
330
2A
102
}
102
{ACAD_XDICTIONARY
360
1A6
102
}
330
2A
100
AcDbVisualStyle
  2
Linepattern
 70
    14
 71
     2
 72
     2
 73
     0
 90
        0
 40
-0.6
 41
-30.0
 62
     5
 63
     7
421
 16777215
 74
     1
 91
        4
 64
     7
 65
   257
 75
     7
175
     7
 42
1.0
 92
        8
 66
     7
 43
1.0
 76
     1
 77
     6
 78
     2
 67
     7
 79
     5
170
     0
171
     0
290
     0
174
     0
 93
        1
 44
0.0
173
     0
291
     1
 45
0.0
1001
ACAD
1000
AcDbSavedByObjectVersion
1070
     0
  0
VISUALSTYLE
  5
33
102
{ACAD_REACTORS
330
2A
102
}
102
{ACAD_XDICTIONARY
360
19C
102
}
330
2A
100
AcDbVisualStyle
  2
Realistic
 70
     8
 71
     2
 72
     2
 73
     0
 90
        0
 40
-0.6
 41
-30.0
 62
     5
 63
     7
421
 16777215
 74
     1
 91
        0
 64
     7
 65
   257
 75
     1
175
     1
 42
1.0
 92
        8
 66
     8
424
  7895160
 43
1.0
 76
     1
 77
     6
 78
     2
 67
     7
 79
     5
170
     0
171
     0
290
     0
174
     0
 93
       13
 44
0.0
173
     0
291
     0
 45
0.0
1001
ACAD
1000
AcDbSavedByObjectVersion
1070
     0
  0
VISUALSTYLE
  5
37
102
{ACAD_REACTORS
330
2A
102
}
102
{ACAD_XDICTIONARY
360
1A4
102
}
330
2A
100
AcDbVisualStyle
  2
Thicken
 70
    13
 71
     2
 72
     2
 73
     0
 90
        0
 40
-0.6
 41
-30.0
 62
     5
 63
     7
421
 16777215
 74
     1
 91
        4
 64
     7
 65
   257
 75
     1
175
     1
 42
1.0
 92
       12
 66
     7
 43
1.0
 76
     1
 77
     6
 78
     2
 67
     7
 79
     5
170
     0
171
     0
290
     0
174
     0
 93
        1
 44
0.0
173
     0
291
     1
 45
0.0
1001
ACAD
1000
AcDbSavedByObjectVersion
1070
     0
  0
DICTIONARYVAR
  5
18B
102
{ACAD_REACTORS
330
18A
102
}
330
18A
100
DictionaryVariables
280
     0
  1
1:1
  0
DICTIONARYVAR
  5
1B4
102
{ACAD_REACTORS
330
18A
102
}
330
18A
100
DictionaryVariables
280
     0
  1
0
  0
XRECORD
  5
189
102
{ACAD_REACTORS
330
188
102
}
330
188
100
AcDbXrecord
280
     1
1000
This DWG file was created in ArchiCAD(TM)®
  0
DICTIONARY
  5
1AE
330
3D
100
AcDbDictionary
280
     1
281
     1
  3
ACAD_XREC_ROUNDTRIP
360
1AF
  0
DICTIONARY
  5
1AC
330
3C
100
AcDbDictionary
280
     1
281
     1
  3
ACAD_XREC_ROUNDTRIP
360
1AD
  0
DICTIONARY
  5
1B0
330
3E
100
AcDbDictionary
280
     1
281
     1
  3
ACAD_XREC_ROUNDTRIP
360
1B1
  0
DICTIONARY
  5
194
330
2F
100
AcDbDictionary
280
     1
281
     1
  3
ACAD_XREC_ROUNDTRIP
360
195
  0
DICTIONARY
  5
198
330
31
100
AcDbDictionary
280
     1
281
     1
  3
ACAD_XREC_ROUNDTRIP
360
199
  0
DICTIONARY
  5
196
330
30
100
AcDbDictionary
280
     1
281
     1
  3
ACAD_XREC_ROUNDTRIP
360
197
  0
DICTIONARY
  5
19A
330
32
100
AcDbDictionary
280
     1
281
     1
  3
ACAD_XREC_ROUNDTRIP
360
19B
  0
DICTIONARY
  5
1A2
330
36
100
AcDbDictionary
280
     1
281
     1
  3
ACAD_XREC_ROUNDTRIP
360
1A3
  0
DICTIONARY
  5
1AA
330
3A
100
AcDbDictionary
280
     1
281
     1
  3
ACAD_XREC_ROUNDTRIP
360
1AB
  0
DICTIONARY
  5
19E
330
34
100
AcDbDictionary
280
     1
281
     1
  3
ACAD_XREC_ROUNDTRIP
360
19F
  0
DICTIONARY
  5
1A0
330
35
100
AcDbDictionary
280
     1
281
     1
  3
ACAD_XREC_ROUNDTRIP
360
1A1
  0
DICTIONARY
  5
1A8
330
39
100
AcDbDictionary
280
     1
281
     1
  3
ACAD_XREC_ROUNDTRIP
360
1A9
  0
DICTIONARY
  5
18C
330
2B
100
AcDbDictionary
280
     1
281
     1
  3
ACAD_XREC_ROUNDTRIP
360
18D
  0
DICTIONARY
  5
18E
330
2C
100
AcDbDictionary
280
     1
281
     1
  3
ACAD_XREC_ROUNDTRIP
360
18F
  0
DICTIONARY
  5
190
330
2D
100
AcDbDictionary
280
     1
281
     1
  3
ACAD_XREC_ROUNDTRIP
360
191
  0
DICTIONARY
  5
192
330
2E
100
AcDbDictionary
280
     1
281
     1
  3
ACAD_XREC_ROUNDTRIP
360
193
  0
DICTIONARY
  5
1A6
330
38
100
AcDbDictionary
280
     1
281
     1
  3
ACAD_XREC_ROUNDTRIP
360
1A7
  0
DICTIONARY
  5
19C
330
33
100
AcDbDictionary
280
     1
281
     1
  3
ACAD_XREC_ROUNDTRIP
360
19D
  0
DICTIONARY
  5
1A4
330
37
100
AcDbDictionary
280
     1
281
     1
  3
ACAD_XREC_ROUNDTRIP
360
1A5
  0
XRECORD
  5
1AF
102
{ACAD_REACTORS
330
1AE
102
}
330
1AE
100
AcDbXrecord
280
     1
102
MATERIAL
148
0.0
149
0.0
149
0.0
 93
        0
 94
      127
282
     0
 72
     1
 77
     1
171
     1
175
     1
179
     1
273
     0
  0
XRECORD
  5
1AD
102
{ACAD_REACTORS
330
1AC
102
}
330
1AC
100
AcDbXrecord
280
     1
102
MATERIAL
148
0.0
149
0.0
149
0.0
 93
        0
 94
      127
282
     0
 72
     1
 77
     1
171
     1
175
     1
179
     1
273
     0
  0
XRECORD
  5
1B1
102
{ACAD_REACTORS
330
1B0
102
}
330
1B0
100
AcDbXrecord
280
     1
102
MATERIAL
148
0.0
149
0.0
149
0.0
 93
        0
 94
      127
282
     0
 72
     1
 77
     1
171
     1
175
     1
179
     1
273
     0
  0
XRECORD
  5
195
102
{ACAD_REACTORS
330
194
102
}
330
194
100
AcDbXrecord
280
     1
102
RTVSPropertyOp0
 70
     1
102
RTVSPropertyOp1
 70
     1
102
RTVSPropertyOp2
 70
     1
102
RTVSPropertyOp3
 70
     1
102
RTVSPropertyOp4
 70
     1
102
RTVSPropertyOp5
 70
     1
102
RTVSPropertyOp6
 70
     1
102
RTVSPropertyOp7
 70
     1
102
RTVSPropertyOp8
 70
     1
102
RTVSPropertyOp9
 70
     1
102
RTVSPropertyOp10
 70
     1
102
RTVSPropertyOp11
 70
     1
102
RTVSPropertyOp12
 70
     1
102
RTVSPropertyOp13
 70
     1
102
RTVSPropertyOp14
 70
     1
102
RTVSPropertyOp15
 70
     1
102
RTVSPropertyOp16
 70
     1
102
RTVSPropertyOp17
 70
     1
102
RTVSPropertyOp18
 70
     1
102
RTVSPropertyOp19
 70
     1
102
RTVSPropertyOp20
 70
     1
102
RTVSPropertyOp21
 70
     1
102
RTVSPropertyOp22
 70
     1
102
RTVSPropertyOp23
 70
     1
102
RTVSPropertyOp24
 70
     1
102
RTVSPropertyOp25
 70
     1
102
RTVSPropertyOp26
 70
     1
102
RTVSPropertyOp27
 70
     1
102
RTVSPropertyOp28
 70
     1
102
RTVSPropertyOp29
 70
     1
102
RTVSPropertyOp30
 70
     1
102
RTVSPropertyOp31
 70
     1
102
RTVSPropertyOp32
 70
     1
  0
XRECORD
  5
199
102
{ACAD_REACTORS
330
198
102
}
330
198
100
AcDbXrecord
280
     1
102
RTVSPropertyOp0
 70
     1
102
RTVSPropertyOp1
 70
     1
102
RTVSPropertyOp2
 70
     1
102
RTVSPropertyOp3
 70
     1
102
RTVSPropertyOp4
 70
     1
102
RTVSPropertyOp5
 70
     1
102
RTVSPropertyOp6
 70
     1
102
RTVSPropertyOp7
 70
     1
102
RTVSPropertyOp8
 70
     1
102
RTVSPropertyOp9
 70
     1
102
RTVSPropertyOp10
 70
     1
102
RTVSPropertyOp11
 70
     1
102
RTVSPropertyOp12
 70
     1
102
RTVSPropertyOp13
 70
     1
102
RTVSPropertyOp14
 70
     1
102
RTVSPropertyOp15
 70
     1
102
RTVSPropertyOp16
 70
     1
102
RTVSPropertyOp17
 70
     1
102
RTVSPropertyOp18
 70
     1
102
RTVSPropertyOp19
 70
     1
102
RTVSPropertyOp20
 70
     1
102
RTVSPropertyOp21
 70
     1
102
RTVSPropertyOp22
 70
     1
102
RTVSPropertyOp23
 70
     1
102
RTVSPropertyOp24
 70
     1
102
RTVSPropertyOp25
 70
     1
102
RTVSPropertyOp26
 70
     1
102
RTVSPropertyOp27
 70
     1
102
RTVSPropertyOp28
 70
     1
102
RTVSPropertyOp29
 70
     1
102
RTVSPropertyOp30
 70
     1
102
RTVSPropertyOp31
 70
     1
102
RTVSPropertyOp32
 70
     1
  0
XRECORD
  5
197
102
{ACAD_REACTORS
330
196
102
}
330
196
100
AcDbXrecord
280
     1
102
RTVSPropertyOp0
 70
     1
102
RTVSPropertyOp1
 70
     1
102
RTVSPropertyOp2
 70
     1
102
RTVSPropertyOp3
 70
     1
102
RTVSPropertyOp4
 70
     1
102
RTVSPropertyOp5
 70
     1
102
RTVSPropertyOp6
 70
     1
102
RTVSPropertyOp7
 70
     1
102
RTVSPropertyOp8
 70
     1
102
RTVSPropertyOp9
 70
     1
102
RTVSPropertyOp10
 70
     1
102
RTVSPropertyOp11
 70
     1
102
RTVSPropertyOp12
 70
     1
102
RTVSPropertyOp13
 70
     1
102
RTVSPropertyOp14
 70
     1
102
RTVSPropertyOp15
 70
     1
102
RTVSPropertyOp16
 70
     1
102
RTVSPropertyOp17
 70
     1
102
RTVSPropertyOp18
 70
     1
102
RTVSPropertyOp19
 70
     1
102
RTVSPropertyOp20
 70
     1
102
RTVSPropertyOp21
 70
     1
102
RTVSPropertyOp22
 70
     1
102
RTVSPropertyOp23
 70
     1
102
RTVSPropertyOp24
 70
     1
102
RTVSPropertyOp25
 70
     1
102
RTVSPropertyOp26
 70
     1
102
RTVSPropertyOp27
 70
     1
102
RTVSPropertyOp28
 70
     1
102
RTVSPropertyOp29
 70
     1
102
RTVSPropertyOp30
 70
     1
102
RTVSPropertyOp31
 70
     1
102
RTVSPropertyOp32
 70
     1
  0
XRECORD
  5
19B
102
{ACAD_REACTORS
330
19A
102
}
330
19A
100
AcDbXrecord
280
     1
102
RTVSPropertyOp0
 70
     1
102
RTVSPropertyOp1
 70
     1
102
RTVSPropertyOp2
 70
     1
102
RTVSPropertyOp3
 70
     1
102
RTVSPropertyOp4
 70
     1
102
RTVSPropertyOp5
 70
     1
102
RTVSPropertyOp6
 70
     1
102
RTVSPropertyOp7
 70
     1
102
RTVSPropertyOp8
 70
     1
102
RTVSPropertyOp9
 70
     1
102
RTVSPropertyOp10
 70
     1
102
RTVSPropertyOp11
 70
     1
102
RTVSPropertyOp12
 70
     1
102
RTVSPropertyOp13
 70
     1
102
RTVSPropertyOp14
 70
     1
102
RTVSPropertyOp15
 70
     1
102
RTVSPropertyOp16
 70
     1
102
RTVSPropertyOp17
 70
     1
102
RTVSPropertyOp18
 70
     1
102
RTVSPropertyOp19
 70
     1
102
RTVSPropertyOp20
 70
     1
102
RTVSPropertyOp21
 70
     1
102
RTVSPropertyOp22
 70
     1
102
RTVSPropertyOp23
 70
     1
102
RTVSPropertyOp24
 70
     1
102
RTVSPropertyOp25
 70
     1
102
RTVSPropertyOp26
 70
     1
102
RTVSPropertyOp27
 70
     1
102
RTVSPropertyOp28
 70
     1
102
RTVSPropertyOp29
 70
     1
102
RTVSPropertyOp30
 70
     1
102
RTVSPropertyOp31
 70
     1
102
RTVSPropertyOp32
 70
     1
  0
XRECORD
  5
1A3
102
{ACAD_REACTORS
330
1A2
102
}
330
1A2
100
AcDbXrecord
280
     1
102
RTVSPropertyOp0
 70
     1
102
RTVSPropertyOp1
 70
     1
102
RTVSPropertyOp2
 70
     1
102
RTVSPropertyOp3
 70
     1
102
RTVSPropertyOp4
 70
     1
102
RTVSPropertyOp5
 70
     1
102
RTVSPropertyOp6
 70
     1
102
RTVSPropertyOp7
 70
     1
102
RTVSPropertyOp8
 70
     1
102
RTVSPropertyOp9
 70
     1
102
RTVSPropertyOp10
 70
     1
102
RTVSPropertyOp11
 70
     1
102
RTVSPropertyOp12
 70
     1
102
RTVSPropertyOp13
 70
     1
102
RTVSPropertyOp14
 70
     1
102
RTVSPropertyOp15
 70
     1
102
RTVSPropertyOp16
 70
     1
102
RTVSPropertyOp17
 70
     1
102
RTVSPropertyOp18
 70
     1
102
RTVSPropertyOp19
 70
     1
102
RTVSPropertyOp20
 70
     1
102
RTVSPropertyOp21
 70
     1
102
RTVSPropertyOp22
 70
     1
102
RTVSPropertyOp23
 70
     1
102
RTVSPropertyOp24
 70
     1
102
RTVSPropertyOp25
 70
     1
102
RTVSPropertyOp26
 70
     1
102
RTVSPropertyOp27
 70
     1
102
RTVSPropertyOp28
 70
     1
102
RTVSPropertyOp29
 70
     1
102
RTVSPropertyOp30
 70
     1
102
RTVSPropertyOp31
 70
     1
102
RTVSPropertyOp32
 70
     1
  0
XRECORD
  5
1AB
102
{ACAD_REACTORS
330
1AA
102
}
330
1AA
100
AcDbXrecord
280
     1
102
RTVSPropertyOp0
 70
     1
102
RTVSPropertyOp1
 70
     1
102
RTVSPropertyOp2
 70
     1
102
RTVSPropertyOp3
 70
     1
102
RTVSPropertyOp4
 70
     1
102
RTVSPropertyOp5
 70
     1
102
RTVSPropertyOp6
 70
     1
102
RTVSPropertyOp7
 70
     1
102
RTVSPropertyOp8
 70
     1
102
RTVSPropertyOp9
 70
     1
102
RTVSPropertyOp10
 70
     1
102
RTVSPropertyOp11
 70
     1
102
RTVSPropertyOp12
 70
     1
102
RTVSPropertyOp13
 70
     1
102
RTVSPropertyOp14
 70
     1
102
RTVSPropertyOp15
 70
     1
102
RTVSPropertyOp16
 70
     1
102
RTVSPropertyOp17
 70
     1
102
RTVSPropertyOp18
 70
     1
102
RTVSPropertyOp19
 70
     1
102
RTVSPropertyOp20
 70
     1
102
RTVSPropertyOp21
 70
     1
102
RTVSPropertyOp22
 70
     1
102
RTVSPropertyOp23
 70
     1
102
RTVSPropertyOp24
 70
     1
102
RTVSPropertyOp25
 70
     1
102
RTVSPropertyOp26
 70
     1
102
RTVSPropertyOp27
 70
     1
102
RTVSPropertyOp28
 70
     1
102
RTVSPropertyOp29
 70
     1
102
RTVSPropertyOp30
 70
     1
102
RTVSPropertyOp31
 70
     1
102
RTVSPropertyOp32
 70
     1
  0
XRECORD
  5
19F
102
{ACAD_REACTORS
330
19E
102
}
330
19E
100
AcDbXrecord
280
     1
102
RTVSPropertyOp0
 70
     1
102
RTVSPropertyOp1
 70
     1
102
RTVSPropertyOp2
 70
     1
102
RTVSPropertyOp3
 70
     1
102
RTVSPropertyOp4
 70
     1
102
RTVSPropertyOp5
 70
     1
102
RTVSPropertyOp6
 70
     1
102
RTVSPropertyOp7
 70
     1
102
RTVSPropertyOp8
 70
     1
102
RTVSPropertyOp9
 70
     1
102
RTVSPropertyOp10
 70
     1
102
RTVSPropertyOp11
 70
     1
102
RTVSPropertyOp12
 70
     1
102
RTVSPropertyOp13
 70
     1
102
RTVSPropertyOp14
 70
     1
102
RTVSPropertyOp15
 70
     1
102
RTVSPropertyOp16
 70
     1
102
RTVSPropertyOp17
 70
     1
102
RTVSPropertyOp18
 70
     1
102
RTVSPropertyOp19
 70
     1
102
RTVSPropertyOp20
 70
     1
102
RTVSPropertyOp21
 70
     1
102
RTVSPropertyOp22
 70
     1
102
RTVSPropertyOp23
 70
     1
102
RTVSPropertyOp24
 70
     1
102
RTVSPropertyOp25
 70
     1
102
RTVSPropertyOp26
 70
     1
102
RTVSPropertyOp27
 70
     1
102
RTVSPropertyOp28
 70
     1
102
RTVSPropertyOp29
 70
     1
102
RTVSPropertyOp30
 70
     1
102
RTVSPropertyOp31
 70
     1
102
RTVSPropertyOp32
 70
     1
  0
XRECORD
  5
1A1
102
{ACAD_REACTORS
330
1A0
102
}
330
1A0
100
AcDbXrecord
280
     1
102
RTVSPropertyOp0
 70
     1
102
RTVSPropertyOp1
 70
     1
102
RTVSPropertyOp2
 70
     1
102
RTVSPropertyOp3
 70
     1
102
RTVSPropertyOp4
 70
     1
102
RTVSPropertyOp5
 70
     1
102
RTVSPropertyOp6
 70
     1
102
RTVSPropertyOp7
 70
     1
102
RTVSPropertyOp8
 70
     1
102
RTVSPropertyOp9
 70
     1
102
RTVSPropertyOp10
 70
     1
102
RTVSPropertyOp11
 70
     1
102
RTVSPropertyOp12
 70
     1
102
RTVSPropertyOp13
 70
     1
102
RTVSPropertyOp14
 70
     1
102
RTVSPropertyOp15
 70
     1
102
RTVSPropertyOp16
 70
     1
102
RTVSPropertyOp17
 70
     1
102
RTVSPropertyOp18
 70
     1
102
RTVSPropertyOp19
 70
     1
102
RTVSPropertyOp20
 70
     1
102
RTVSPropertyOp21
 70
     1
102
RTVSPropertyOp22
 70
     1
102
RTVSPropertyOp23
 70
     1
102
RTVSPropertyOp24
 70
     1
102
RTVSPropertyOp25
 70
     1
102
RTVSPropertyOp26
 70
     1
102
RTVSPropertyOp27
 70
     1
102
RTVSPropertyOp28
 70
     1
102
RTVSPropertyOp29
 70
     1
102
RTVSPropertyOp30
 70
     1
102
RTVSPropertyOp31
 70
     1
102
RTVSPropertyOp32
 70
     1
  0
XRECORD
  5
1A9
102
{ACAD_REACTORS
330
1A8
102
}
330
1A8
100
AcDbXrecord
280
     1
102
RTVSPropertyOp0
 70
     1
102
RTVSPropertyOp1
 70
     1
102
RTVSPropertyOp2
 70
     1
102
RTVSPropertyOp3
 70
     1
102
RTVSPropertyOp4
 70
     1
102
RTVSPropertyOp5
 70
     1
102
RTVSPropertyOp6
 70
     1
102
RTVSPropertyOp7
 70
     1
102
RTVSPropertyOp8
 70
     1
102
RTVSPropertyOp9
 70
     1
102
RTVSPropertyOp10
 70
     1
102
RTVSPropertyOp11
 70
     1
102
RTVSPropertyOp12
 70
     1
102
RTVSPropertyOp13
 70
     1
102
RTVSPropertyOp14
 70
     1
102
RTVSPropertyOp15
 70
     1
102
RTVSPropertyOp16
 70
     1
102
RTVSPropertyOp17
 70
     1
102
RTVSPropertyOp18
 70
     1
102
RTVSPropertyOp19
 70
     1
102
RTVSPropertyOp20
 70
     1
102
RTVSPropertyOp21
 70
     1
102
RTVSPropertyOp22
 70
     1
102
RTVSPropertyOp23
 70
     1
102
RTVSPropertyOp24
 70
     1
102
RTVSPropertyOp25
 70
     1
102
RTVSPropertyOp26
 70
     1
102
RTVSPropertyOp27
 70
     1
102
RTVSPropertyOp28
 70
     1
102
RTVSPropertyOp29
 70
     1
102
RTVSPropertyOp30
 70
     1
102
RTVSPropertyOp31
 70
     1
102
RTVSPropertyOp32
 70
     1
  0
XRECORD
  5
18D
102
{ACAD_REACTORS
330
18C
102
}
330
18C
100
AcDbXrecord
280
     1
102
RTVSPropertyOp0
 70
     1
102
RTVSPropertyOp1
 70
     1
102
RTVSPropertyOp2
 70
     1
102
RTVSPropertyOp3
 70
     1
102
RTVSPropertyOp4
 70
     1
102
RTVSPropertyOp5
 70
     1
102
RTVSPropertyOp6
 70
     1
102
RTVSPropertyOp7
 70
     1
102
RTVSPropertyOp8
 70
     1
102
RTVSPropertyOp9
 70
     1
102
RTVSPropertyOp10
 70
     1
102
RTVSPropertyOp11
 70
     1
102
RTVSPropertyOp12
 70
     1
102
RTVSPropertyOp13
 70
     1
102
RTVSPropertyOp14
 70
     1
102
RTVSPropertyOp15
 70
     1
102
RTVSPropertyOp16
 70
     1
102
RTVSPropertyOp17
 70
     1
102
RTVSPropertyOp18
 70
     1
102
RTVSPropertyOp19
 70
     1
102
RTVSPropertyOp20
 70
     1
102
RTVSPropertyOp21
 70
     1
102
RTVSPropertyOp22
 70
     1
102
RTVSPropertyOp23
 70
     1
102
RTVSPropertyOp24
 70
     1
102
RTVSPropertyOp25
 70
     1
102
RTVSPropertyOp26
 70
     1
102
RTVSPropertyOp27
 70
     1
102
RTVSPropertyOp28
 70
     1
102
RTVSPropertyOp29
 70
     1
102
RTVSPropertyOp30
 70
     1
102
RTVSPropertyOp31
 70
     1
102
RTVSPropertyOp32
 70
     1
  0
XRECORD
  5
18F
102
{ACAD_REACTORS
330
18E
102
}
330
18E
100
AcDbXrecord
280
     1
102
RTVSPropertyOp0
 70
     1
102
RTVSPropertyOp1
 70
     1
102
RTVSPropertyOp2
 70
     1
102
RTVSPropertyOp3
 70
     1
102
RTVSPropertyOp4
 70
     1
102
RTVSPropertyOp5
 70
     1
102
RTVSPropertyOp6
 70
     1
102
RTVSPropertyOp7
 70
     1
102
RTVSPropertyOp8
 70
     1
102
RTVSPropertyOp9
 70
     1
102
RTVSPropertyOp10
 70
     1
102
RTVSPropertyOp11
 70
     1
102
RTVSPropertyOp12
 70
     1
102
RTVSPropertyOp13
 70
     1
102
RTVSPropertyOp14
 70
     1
102
RTVSPropertyOp15
 70
     1
102
RTVSPropertyOp16
 70
     1
102
RTVSPropertyOp17
 70
     1
102
RTVSPropertyOp18
 70
     1
102
RTVSPropertyOp19
 70
     1
102
RTVSPropertyOp20
 70
     1
102
RTVSPropertyOp21
 70
     1
102
RTVSPropertyOp22
 70
     1
102
RTVSPropertyOp23
 70
     1
102
RTVSPropertyOp24
 70
     1
102
RTVSPropertyOp25
 70
     1
102
RTVSPropertyOp26
 70
     1
102
RTVSPropertyOp27
 70
     1
102
RTVSPropertyOp28
 70
     1
102
RTVSPropertyOp29
 70
     1
102
RTVSPropertyOp30
 70
     1
102
RTVSPropertyOp31
 70
     1
102
RTVSPropertyOp32
 70
     1
  0
XRECORD
  5
191
102
{ACAD_REACTORS
330
190
102
}
330
190
100
AcDbXrecord
280
     1
102
RTVSPropertyOp0
 70
     1
102
RTVSPropertyOp1
 70
     1
102
RTVSPropertyOp2
 70
     1
102
RTVSPropertyOp3
 70
     1
102
RTVSPropertyOp4
 70
     1
102
RTVSPropertyOp5
 70
     1
102
RTVSPropertyOp6
 70
     1
102
RTVSPropertyOp7
 70
     1
102
RTVSPropertyOp8
 70
     1
102
RTVSPropertyOp9
 70
     1
102
RTVSPropertyOp10
 70
     1
102
RTVSPropertyOp11
 70
     1
102
RTVSPropertyOp12
 70
     1
102
RTVSPropertyOp13
 70
     1
102
RTVSPropertyOp14
 70
     1
102
RTVSPropertyOp15
 70
     1
102
RTVSPropertyOp16
 70
     1
102
RTVSPropertyOp17
 70
     1
102
RTVSPropertyOp18
 70
     1
102
RTVSPropertyOp19
 70
     1
102
RTVSPropertyOp20
 70
     1
102
RTVSPropertyOp21
 70
     1
102
RTVSPropertyOp22
 70
     1
102
RTVSPropertyOp23
 70
     1
102
RTVSPropertyOp24
 70
     1
102
RTVSPropertyOp25
 70
     1
102
RTVSPropertyOp26
 70
     1
102
RTVSPropertyOp27
 70
     1
102
RTVSPropertyOp28
 70
     1
102
RTVSPropertyOp29
 70
     1
102
RTVSPropertyOp30
 70
     1
102
RTVSPropertyOp31
 70
     1
102
RTVSPropertyOp32
 70
     1
  0
XRECORD
  5
193
102
{ACAD_REACTORS
330
192
102
}
330
192
100
AcDbXrecord
280
     1
102
RTVSPropertyOp0
 70
     1
102
RTVSPropertyOp1
 70
     1
102
RTVSPropertyOp2
 70
     1
102
RTVSPropertyOp3
 70
     1
102
RTVSPropertyOp4
 70
     1
102
RTVSPropertyOp5
 70
     1
102
RTVSPropertyOp6
 70
     1
102
RTVSPropertyOp7
 70
     1
102
RTVSPropertyOp8
 70
     1
102
RTVSPropertyOp9
 70
     1
102
RTVSPropertyOp10
 70
     1
102
RTVSPropertyOp11
 70
     1
102
RTVSPropertyOp12
 70
     1
102
RTVSPropertyOp13
 70
     1
102
RTVSPropertyOp14
 70
     1
102
RTVSPropertyOp15
 70
     1
102
RTVSPropertyOp16
 70
     1
102
RTVSPropertyOp17
 70
     1
102
RTVSPropertyOp18
 70
     1
102
RTVSPropertyOp19
 70
     1
102
RTVSPropertyOp20
 70
     1
102
RTVSPropertyOp21
 70
     1
102
RTVSPropertyOp22
 70
     1
102
RTVSPropertyOp23
 70
     1
102
RTVSPropertyOp24
 70
     1
102
RTVSPropertyOp25
 70
     1
102
RTVSPropertyOp26
 70
     1
102
RTVSPropertyOp27
 70
     1
102
RTVSPropertyOp28
 70
     1
102
RTVSPropertyOp29
 70
     1
102
RTVSPropertyOp30
 70
     1
102
RTVSPropertyOp31
 70
     1
102
RTVSPropertyOp32
 70
     1
  0
XRECORD
  5
1A7
102
{ACAD_REACTORS
330
1A6
102
}
330
1A6
100
AcDbXrecord
280
     1
102
RTVSPropertyOp0
 70
     1
102
RTVSPropertyOp1
 70
     1
102
RTVSPropertyOp2
 70
     1
102
RTVSPropertyOp3
 70
     1
102
RTVSPropertyOp4
 70
     1
102
RTVSPropertyOp5
 70
     1
102
RTVSPropertyOp6
 70
     1
102
RTVSPropertyOp7
 70
     1
102
RTVSPropertyOp8
 70
     1
102
RTVSPropertyOp9
 70
     1
102
RTVSPropertyOp10
 70
     1
102
RTVSPropertyOp11
 70
     1
102
RTVSPropertyOp12
 70
     1
102
RTVSPropertyOp13
 70
     1
102
RTVSPropertyOp14
 70
     1
102
RTVSPropertyOp15
 70
     1
102
RTVSPropertyOp16
 70
     1
102
RTVSPropertyOp17
 70
     1
102
RTVSPropertyOp18
 70
     1
102
RTVSPropertyOp19
 70
     1
102
RTVSPropertyOp20
 70
     1
102
RTVSPropertyOp21
 70
     1
102
RTVSPropertyOp22
 70
     1
102
RTVSPropertyOp23
 70
     1
102
RTVSPropertyOp24
 70
     1
102
RTVSPropertyOp25
 70
     1
102
RTVSPropertyOp26
 70
     1
102
RTVSPropertyOp27
 70
     1
102
RTVSPropertyOp28
 70
     1
102
RTVSPropertyOp29
 70
     1
102
RTVSPropertyOp30
 70
     1
102
RTVSPropertyOp31
 70
     1
102
RTVSPropertyOp32
 70
     1
  0
XRECORD
  5
19D
102
{ACAD_REACTORS
330
19C
102
}
330
19C
100
AcDbXrecord
280
     1
102
RTVSPropertyOp0
 70
     1
102
RTVSPropertyOp1
 70
     1
102
RTVSPropertyOp2
 70
     1
102
RTVSPropertyOp3
 70
     1
102
RTVSPropertyOp4
 70
     1
102
RTVSPropertyOp5
 70
     1
102
RTVSPropertyOp6
 70
     1
102
RTVSPropertyOp7
 70
     1
102
RTVSPropertyOp8
 70
     1
102
RTVSPropertyOp9
 70
     1
102
RTVSPropertyOp10
 70
     1
102
RTVSPropertyOp11
 70
     1
102
RTVSPropertyOp12
 70
     1
102
RTVSPropertyOp13
 70
     1
102
RTVSPropertyOp14
 70
     1
102
RTVSPropertyOp15
 70
     1
102
RTVSPropertyOp16
 70
     1
102
RTVSPropertyOp17
 70
     1
102
RTVSPropertyOp18
 70
     1
102
RTVSPropertyOp19
 70
     1
102
RTVSPropertyOp20
 70
     1
102
RTVSPropertyOp21
 70
     1
102
RTVSPropertyOp22
 70
     1
102
RTVSPropertyOp23
 70
     1
102
RTVSPropertyOp24
 70
     1
102
RTVSPropertyOp25
 70
     1
102
RTVSPropertyOp26
 70
     1
102
RTVSPropertyOp27
 70
     1
102
RTVSPropertyOp28
 70
     1
102
RTVSPropertyOp29
 70
     1
102
RTVSPropertyOp30
 70
     1
102
RTVSPropertyOp31
 70
     1
102
RTVSPropertyOp32
 70
     1
  0
XRECORD
  5
1A5
102
{ACAD_REACTORS
330
1A4
102
}
330
1A4
100
AcDbXrecord
280
     1
102
RTVSPropertyOp0
 70
     1
102
RTVSPropertyOp1
 70
     1
102
RTVSPropertyOp2
 70
     1
102
RTVSPropertyOp3
 70
     1
102
RTVSPropertyOp4
 70
     1
102
RTVSPropertyOp5
 70
     1
102
RTVSPropertyOp6
 70
     1
102
RTVSPropertyOp7
 70
     1
102
RTVSPropertyOp8
 70
     1
102
RTVSPropertyOp9
 70
     1
102
RTVSPropertyOp10
 70
     1
102
RTVSPropertyOp11
 70
     1
102
RTVSPropertyOp12
 70
     1
102
RTVSPropertyOp13
 70
     1
102
RTVSPropertyOp14
 70
     1
102
RTVSPropertyOp15
 70
     1
102
RTVSPropertyOp16
 70
     1
102
RTVSPropertyOp17
 70
     1
102
RTVSPropertyOp18
 70
     1
102
RTVSPropertyOp19
 70
     1
102
RTVSPropertyOp20
 70
     1
102
RTVSPropertyOp21
 70
     1
102
RTVSPropertyOp22
 70
     1
102
RTVSPropertyOp23
 70
     1
102
RTVSPropertyOp24
 70
     1
102
RTVSPropertyOp25
 70
     1
102
RTVSPropertyOp26
 70
     1
102
RTVSPropertyOp27
 70
     1
102
RTVSPropertyOp28
 70
     1
102
RTVSPropertyOp29
 70
     1
102
RTVSPropertyOp30
 70
     1
102
RTVSPropertyOp31
 70
     1
102
RTVSPropertyOp32
 70
     1
  0
ENDSEC
  0
EOF
