  0
SECTION
  2
HEADER
  9
$ACADVER
  1
AC1018
  9
$ACADMAINTVER
 70
     0
  9
$DWGCODEPAGE
  3
ANSI_1252
  9
$INSBASE
 10
0.0
 20
0.0
 30
0.0
  9
$EXTMIN
 10
1.000000000000000E+20
 20
1.000000000000000E+20
 30
1.000000000000000E+20
  9
$EXTMAX
 10
-1.000000000000000E+20
 20
-1.000000000000000E+20
 30
-1.000000000000000E+20
  9
$LIMMIN
 10
0.0
 20
0.0
  9
$LIMMAX
 10
12.0
 20
9.0
  9
$ORTHOMODE
 70
     0
  9
$REGENMODE
 70
     1
  9
$FILLMODE
 70
     1
  9
$QTEXTMODE
 70
     0
  9
$MIRRTEXT
 70
     1
  9
$LTSCALE
 40
1.0
  9
$ATTMODE
 70
     1
  9
$TEXTSIZE
 40
0.2
  9
$TRACEWID
 40
0.05
  9
$TEXTSTYLE
  7
Standard
  9
$CLAYER
  8
0
  9
$CELTYPE
  6
ByLayer
  9
$CECOLOR
 62
   256
  9
$CELTSCALE
 40
1.0
  9
$DISPSILH
 70
     0
  9
$DIMSCALE
 40
1.0
  9
$DIMASZ
 40
0.18
  9
$DIMEXO
 40
0.0625
  9
$DIMDLI
 40
0.38
  9
$DIMRND
 40
0.0
  9
$DIMDLE
 40
0.0
  9
$DIMEXE
 40
0.18
  9
$DIMTP
 40
0.0
  9
$DIMTM
 40
0.0
  9
$DIMTXT
 40
0.18
  9
$DIMCEN
 40
0.09
  9
$DIMTSZ
 40
0.0
  9
$DIMTOL
 70
     0
  9
$DIMLIM
 70
     0
  9
$DIMTIH
 70
     1
  9
$DIMTOH
 70
     1
  9
$DIMSE1
 70
     0
  9
$DIMSE2
 70
     0
  9
$DIMTAD
 70
     0
  9
$DIMZIN
 70
     0
  9
$DIMBLK
  1

  9
$DIMASO
 70
     1
  9
$DIMSHO
 70
     1
  9
$DIMPOST
  1

  9
$DIMAPOST
  1

  9
$DIMALT
 70
     0
  9
$DIMALTD
 70
     2
  9
$DIMALTF
 40
25.4
  9
$DIMLFAC
 40
1.0
  9
$DIMTOFL
 70
     0
  9
$DIMTVP
 40
0.0
  9
$DIMTIX
 70
     0
  9
$DIMSOXD
 70
     0
  9
$DIMSAH
 70
     0
  9
$DIMBLK1
  1

  9
$DIMBLK2
  1

  9
$DIMSTYLE
  2
Standard
  9
$DIMCLRD
 70
     0
  9
$DIMCLRE
 70
     0
  9
$DIMCLRT
 70
     0
  9
$DIMTFAC
 40
1.0
  9
$DIMGAP
 40
0.09
  9
$DIMJUST
 70
     0
  9
$DIMSD1
 70
     0
  9
$DIMSD2
 70
     0
  9
$DIMTOLJ
 70
     1
  9
$DIMTZIN
 70
     0
  9
$DIMALTZ
 70
     0
  9
$DIMALTTZ
 70
     0
  9
$DIMUPT
 70
     0
  9
$DIMDEC
 70
     4
  9
$DIMTDEC
 70
     4
  9
$DIMALTU
 70
     2
  9
$DIMALTTD
 70
     2
  9
$DIMTXSTY
  7
Standard
  9
$DIMAUNIT
 70
     0
  9
$DIMADEC
 70
     0
  9
$DIMALTRND
 40
0.0
  9
$DIMAZIN
 70
     0
  9
$DIMDSEP
 70
    46
  9
$DIMATFIT
 70
     3
  9
$DIMFRAC
 70
     0
  9
$DIMLDRBLK
  1

  9
$DIMLUNIT
 70
     2
  9
$DIMLWD
 70
    -2
  9
$DIMLWE
 70
    -2
  9
$DIMTMOVE
 70
     0
  9
$LUNITS
 70
     2
  9
$LUPREC
 70
     4
  9
$SKETCHINC
 40
0.1
  9
$FILLETRAD
 40
0.5
  9
$AUNITS
 70
     0
  9
$AUPREC
 70
     0
  9
$MENU
  1
.
  9
$ELEVATION
 40
0.0
  9
$PELEVATION
 40
0.0
  9
$THICKNESS
 40
0.0
  9
$LIMCHECK
 70
     0
  9
$CHAMFERA
 40
0.5
  9
$CHAMFERB
 40
0.5
  9
$CHAMFERC
 40
1.0
  9
$CHAMFERD
 40
0.0
  9
$SKPOLY
 70
     0
  9
$TDCREATE
 40
2457126.421932882
  9
$TDUCREATE
 40
2457125.921932882
  9
$TDUPDATE
 40
2457126.42193382
  9
$TDUUPDATE
 40
2457125.92193382
  9
$TDINDWG
 40
0.0000000116
  9
$TDUSRTIMER
 40
0.0000000116
  9
$USRTIMER
 70
     1
  9
$ANGBASE
 50
0.0
  9
$ANGDIR
 70
     0
  9
$PDMODE
 70
     0
  9
$PDSIZE
 40
0.0
  9
$PLINEWID
 40
0.0
  9
$SPLFRAME
 70
     0
  9
$SPLINETYPE
 70
     6
  9
$SPLINESEGS
 70
     8
  9
$HANDSEED
  5
11D
  9
$SURFTAB1
 70
     6
  9
$SURFTAB2
 70
     6
  9
$SURFTYPE
 70
     6
  9
$SURFU
 70
     6
  9
$SURFV
 70
     6
  9
$UCSBASE
  2

  9
$UCSNAME
  2

  9
$UCSORG
 10
0.0
 20
0.0
 30
0.0
  9
$UCSXDIR
 10
1.0
 20
0.0
 30
0.0
  9
$UCSYDIR
 10
0.0
 20
1.0
 30
0.0
  9
$UCSORTHOREF
  2

  9
$UCSORTHOVIEW
 70
     0
  9
$UCSORGTOP
 10
0.0
 20
0.0
 30
0.0
  9
$UCSORGBOTTOM
 10
0.0
 20
0.0
 30
0.0
  9
$UCSORGLEFT
 10
0.0
 20
0.0
 30
0.0
  9
$UCSORGRIGHT
 10
0.0
 20
0.0
 30
0.0
  9
$UCSORGFRONT
 10
0.0
 20
0.0
 30
0.0
  9
$UCSORGBACK
 10
0.0
 20
0.0
 30
0.0
  9
$PUCSBASE
  2

  9
$PUCSNAME
  2

  9
$PUCSORG
 10
0.0
 20
0.0
 30
0.0
  9
$PUCSXDIR
 10
1.0
 20
0.0
 30
0.0
  9
$PUCSYDIR
 10
0.0
 20
1.0
 30
0.0
  9
$PUCSORTHOREF
  2

  9
$PUCSORTHOVIEW
 70
     0
  9
$PUCSORGTOP
 10
0.0
 20
0.0
 30
0.0
  9
$PUCSORGBOTTOM
 10
0.0
 20
0.0
 30
0.0
  9
$PUCSORGLEFT
 10
0.0
 20
0.0
 30
0.0
  9
$PUCSORGRIGHT
 10
0.0
 20
0.0
 30
0.0
  9
$PUCSORGFRONT
 10
0.0
 20
0.0
 30
0.0
  9
$PUCSORGBACK
 10
0.0
 20
0.0
 30
0.0
  9
$USERI1
 70
     0
  9
$USERI2
 70
     0
  9
$USERI3
 70
     0
  9
$USERI4
 70
     0
  9
$USERI5
 70
     0
  9
$USERR1
 40
0.0
  9
$USERR2
 40
0.0
  9
$USERR3
 40
0.0
  9
$USERR4
 40
0.0
  9
$USERR5
 40
0.0
  9
$WORLDVIEW
 70
     1
  9
$SHADEDGE
 70
     3
  9
$SHADEDIF
 70
    70
  9
$TILEMODE
 70
     1
  9
$MAXACTVP
 70
    64
  9
$PINSBASE
 10
0.0
 20
0.0
 30
0.0
  9
$PLIMCHECK
 70
     0
  9
$PEXTMIN
 10
1.000000000000000E+20
 20
1.000000000000000E+20
 30
1.000000000000000E+20
  9
$PEXTMAX
 10
-1.000000000000000E+20
 20
-1.000000000000000E+20
 30
-1.000000000000000E+20
  9
$PLIMMIN
 10
0.0
 20
0.0
  9
$PLIMMAX
 10
12.0
 20
9.0
  9
$UNITMODE
 70
     0
  9
$VISRETAIN
 70
     1
  9
$PLINEGEN
 70
     0
  9
$PSLTSCALE
 70
     1
  9
$TREEDEPTH
 70
  3020
  9
$CMLSTYLE
  2
Standard
  9
$CMLJUST
 70
     0
  9
$CMLSCALE
 40
1.0
  9
$PROXYGRAPHICS
 70
     1
  9
$MEASUREMENT
 70
     0
  9
$CELWEIGHT
370
    -1
  9
$ENDCAPS
280
     0
  9
$JOINSTYLE
280
     0
  9
$LWDISPLAY
290
     1
  9
$INSUNITS
 70
     4
  9
$HYPERLINKBASE
  1

  9
$STYLESHEET
  1

  9
$XEDIT
290
     1
  9
$CEPSNTYPE
380
     0
  9
$PSTYLEMODE
290
     1
  9
$FINGERPRINTGUID
  2
{0FE1AA4D-0E69-4EAB-96AA-7DD1F71447A0}
  9
$VERSIONGUID
  2
{FAEB1C32-E019-11D5-929B-00C0DF256EC4}
  9
$EXTNAMES
290
     1
  9
$PSVPSCALE
 40
0.0
  9
$OLESTARTUP
290
     0
  9
$SORTENTS
280
   127
  9
$INDEXCTL
280
     0
  9
$HIDETEXT
280
     1
  9
$XCLIPFRAME
290
     0
  9
$HALOGAP
280
     0
  9
$OBSCOLOR
 70
   257
  9
$OBSLTYPE
280
     0
  9
$INTERSECTIONDISPLAY
280
     0
  9
$INTERSECTIONCOLOR
 70
   257
  9
$DIMASSOC
280
     2
  9
$PROJECTNAME
  1

  0
ENDSEC
  0
SECTION
  2
CLASSES
  0
CLASS
  1
ACDBDICTIONARYWDFLT
  2
AcDbDictionaryWithDefault
  3
ObjectDBX Classes
 90
        0
 91
        4
280
     0
281
     0
  0
CLASS
  1
VISUALSTYLE
  2
AcDbVisualStyle
  3
ObjectDBX Classes
 90
     4095
 91
        4
280
     0
281
     0
  0
CLASS
  1
MATERIAL
  2
AcDbMaterial
  3
ObjectDBX Classes
 90
     1153
 91
        4
280
     0
281
     0
  0
CLASS
  1
WIPEOUT
  2
AcDbWipeout
  3
WipeOut|AutoCAD Express Tool|expresstools@autodesk.com
 90
      127
 91
        4
280
     0
281
     1
  0
CLASS
  1
SCALE
  2
AcDbScale
  3
ObjectDBX Classes
 90
     1153
 91
        4
280
     0
281
     0
  0
CLASS
  1
DICTIONARYVAR
  2
AcDbDictionaryVar
  3
ObjectDBX Classes
 90
        0
 91
        4
280
     0
281
     0
  0
ENDSEC
  0
SECTION
  2
TABLES
  0
TABLE
  2
VPORT
  5
8
330
0
100
AcDbSymbolTable
 70
     1
  0
VPORT
  5
29
330
8
100
AcDbSymbolTableRecord
100
AcDbViewportTableRecord
  2
*Active
 70
     0
 10
0.0
 20
0.0
 11
1.0
 21
1.0
 12
150.3325765994487
 22
76.89472545827073
 13
0.0
 23
0.0
 14
0.5
 24
0.5
 15
0.5
 25
0.5
 16
0.0
 26
0.0
 36
1.0
 17
0.0
 27
0.0
 37
0.0
 40
299.9833057467434
 41
1.162708350412282
 42
50.0
 43
0.0
 44
0.0
 50
0.0
 51
0.0
 71
     0
 72
   100
 73
     1
 74
     3
 75
     0
 76
     0
 77
     0
 78
     0
281
     0
 65
     1
110
0.0
120
0.0
130
0.0
111
1.0
121
0.0
131
0.0
112
0.0
122
1.0
132
0.0
 79
     0
146
0.0
  0
ENDTAB
  0
TABLE
  2
LTYPE
  5
5
330
0
100
AcDbSymbolTable
 70
     3
  0
LTYPE
  5
14
330
5
100
AcDbSymbolTableRecord
100
AcDbLinetypeTableRecord
  2
ByBlock
 70
     0
  3

 72
    65
 73
     0
 40
0.0
  0
LTYPE
  5
15
330
5
100
AcDbSymbolTableRecord
100
AcDbLinetypeTableRecord
  2
ByLayer
 70
     0
  3

 72
    65
 73
     0
 40
0.0
  0
LTYPE
  5
16
330
5
100
AcDbSymbolTableRecord
100
AcDbLinetypeTableRecord
  2
Continuous
 70
     0
  3
Solid line
 72
    65
 73
     0
 40
0.0
  0
LTYPE
  5
97
330
5
100
AcDbSymbolTableRecord
100
AcDbLinetypeTableRecord
  2
Above
 70
     0
  3
- - - - - 
 72
    65
 73
     2
 40
15.0
 49
10.0
 74
     0
 49
-4.999999999999999
 74
     0
  0
LTYPE
  5
B2
330
5
100
AcDbSymbolTableRecord
100
AcDbLinetypeTableRecord
  2
Wipeout_Contour
 70
     0
  3
- - - - - 
 72
    65
 73
     2
 40
1000.0
 49
0.0
 74
     0
 49
-1000.0
 74
     0
  0
ENDTAB
  0
TABLE
  2
LAYER
  5
2
330
0
100
AcDbSymbolTable
 70
     4
  0
LAYER
  5
10
330
2
100
AcDbSymbolTableRecord
100
AcDbLayerTableRecord
  2
0
 70
     0
 62
     7
  6
Continuous
370
    -3
390
F
  0
LAYER
  5
40
330
2
100
AcDbSymbolTableRecord
100
AcDbLayerTableRecord
  2
0_Pen_No__146
 70
     0
 62
     9
420
 13290186
  6
Continuous
370
     5
390
F
  0
LAYER
  5
41
330
2
100
AcDbSymbolTableRecord
100
AcDbLayerTableRecord
  2
0_Pen_No__1
 70
     0
 62
     7
  6
Continuous
370
    13
390
F
  0
LAYER
  5
B3
330
2
100
AcDbSymbolTableRecord
100
AcDbLayerTableRecord
  2
Key_ Sections_Pen_No__1
 70
     0
 62
     7
  6
Continuous
370
    13
390
F
  0
ENDTAB
  0
TABLE
  2
STYLE
  5
3
330
0
100
AcDbSymbolTable
 70
     2
  0
STYLE
  5
11
330
3
100
AcDbSymbolTableRecord
100
AcDbTextStyleTableRecord
  2
Standard
 70
     0
 40
0.0
 41
1.0
 50
0.0
 71
     0
 42
0.2
  3
txt
  4

  0
STYLE
  5
B0
330
3
100
AcDbSymbolTableRecord
100
AcDbTextStyleTableRecord
  2
GENERATED_STYLE_1
 70
     0
 40
0.0
 41
1.0
 50
0.0
 71
     0
 42
0.2
  3

  4

1001
ACAD
1000
Arial
1071
       34
  0
ENDTAB
  0
TABLE
  2
VIEW
  5
6
330
0
100
AcDbSymbolTable
 70
     0
  0
ENDTAB
  0
TABLE
  2
UCS
  5
7
330
0
100
AcDbSymbolTable
 70
     0
  0
ENDTAB
  0
TABLE
  2
APPID
  5
9
330
0
100
AcDbSymbolTable
 70
     1
  0
APPID
  5
12
330
9
100
AcDbSymbolTableRecord
100
AcDbRegAppTableRecord
  2
ACAD
 70
     0
  0
ENDTAB
  0
TABLE
  2
DIMSTYLE
  5
A
330
0
100
AcDbSymbolTable
 70
     2
100
AcDbDimStyleTable
  0
DIMSTYLE
105
27
330
A
100
AcDbSymbolTableRecord
100
AcDbDimStyleTableRecord
  2
Standard
 70
     0
178
     0
340
11
  0
DIMSTYLE
105
B6
330
A
100
AcDbSymbolTableRecord
100
AcDbDimStyleTableRecord
  2
GENERATED_STYLE__1
 70
     0
 41
3.648
172
     1
178
     0
340
0
341
B7
  0
ENDTAB
  0
TABLE
  2
BLOCK_RECORD
  5
1
330
0
100
AcDbSymbolTable
 70
     3
  0
BLOCK_RECORD
  5
1F
330
1
100
AcDbSymbolTableRecord
100
AcDbBlockTableRecord
  2
*Model_Space
340
22
  0
BLOCK_RECORD
  5
1B
330
1
100
AcDbSymbolTableRecord
100
AcDbBlockTableRecord
  2
*Paper_Space
340
1E
  0
BLOCK_RECORD
  5
23
330
1
100
AcDbSymbolTableRecord
100
AcDbBlockTableRecord
  2
*Paper_Space0
340
26
  0
BLOCK_RECORD
  5
B7
330
1
100
AcDbSymbolTableRecord
100
AcDbBlockTableRecord
  2
ARROWHEAD_5
340
0
  0
BLOCK_RECORD
  5
CB
330
1
100
AcDbSymbolTableRecord
100
AcDbBlockTableRecord
  2
DC-50 Palliside-Profile metal V_STORY_MARKER
340
0
  0
ENDTAB
  0
ENDSEC
  0
SECTION
  2
BLOCKS
  0
BLOCK
  5
20
330
1F
100
AcDbEntity
  8
0
100
AcDbBlockBegin
  2
*Model_Space
 70
     0
 10
0.0
 20
0.0
 30
0.0
  3
*Model_Space
  1

  0
ENDBLK
  5
21
330
1F
100
AcDbEntity
  8
0
100
AcDbBlockEnd
  0
BLOCK
  5
1C
330
1B
100
AcDbEntity
 67
     1
  8
0
100
AcDbBlockBegin
  2
*Paper_Space
 70
     0
 10
0.0
 20
0.0
 30
0.0
  3
*Paper_Space
  1

  0
ENDBLK
  5
1D
330
1B
100
AcDbEntity
 67
     1
  8
0
100
AcDbBlockEnd
  0
BLOCK
  5
24
330
23
100
AcDbEntity
  8
0
100
AcDbBlockBegin
  2
*Paper_Space0
 70
     0
 10
0.0
 20
0.0
 30
0.0
  3
*Paper_Space0
  1

  0
ENDBLK
  5
25
330
23
100
AcDbEntity
  8
0
100
AcDbBlockEnd
  0
BLOCK
  5
B8
330
B7
100
AcDbEntity
  8
0
100
AcDbBlockBegin
  2
ARROWHEAD_5
 70
     0
 10
0.0
 20
0.0
 30
0.0
  3
ARROWHEAD_5
  1

  0
SOLID
  5
BA
330
B7
100
AcDbEntity
  8
0
  6
Continuous
 62
     0
370
     0
100
AcDbTrace
 10
-1.0
 20
0.2679
 30
0.0
 11
0.0
 21
0.0
 31
0.0
 12
-1.0
 22
-0.2679
 32
0.0
 13
-1.0
 23
0.2679
 33
0.0
  0
LINE
  5
BB
330
B7
100
AcDbEntity
  8
0
  6
Continuous
 62
     0
370
     0
100
AcDbLine
 10
0.0
 20
0.0
 30
0.0
 11
-1.0
 21
0.0
 31
0.0
  0
ENDBLK
  5
B9
330
B7
100
AcDbEntity
  8
0
100
AcDbBlockEnd
  0
BLOCK
  5
CC
330
CB
100
AcDbEntity
  8
0
100
AcDbBlockBegin
  2
DC-50 Palliside-Profile metal V_STORY_MARKER
 70
     0
 10
0.0
 20
0.0
 30
0.0
  3
DC-50 Palliside-Profile metal V_STORY_MARKER
  1

  0
ENDBLK
  5
CD
330
CB
100
AcDbEntity
  8
0
100
AcDbBlockEnd
  0
ENDSEC
  0
SECTION
  2
ENTITIES
  0
HATCH
  5
3F
330
1F
100
AcDbEntity
  8
0_Pen_No__146
  6
Continuous
 62
   250
420
  3289650
370
     0
100
AcDbHatch
 10
0.0
 20
0.0
 30
0.0
210
0.0
220
0.0
230
1.0
  2
SOLID
 70
     1
 71
     1
 91
        1
 92
        3
 72
     0
 73
     1
 93
        4
 10
0.0
 20
0.0
 10
44.99999999999982
 20
0.0
 10
44.99999999999982
 20
89.99999999999986
 10
0.0
 20
89.99999999999986
 97
        1
330
42
 75
     0
 76
     1
 98
        0
  0
LWPOLYLINE
  5
42
102
{ACAD_REACTORS
330
3F
102
}
330
1F
100
AcDbEntity
  8
0_Pen_No__1
  6
Continuous
100
AcDbPolyline
 90
        4
 70
   129
 43
0.0
 10
0.0
 20
0.0
 10
44.99999999999982
 20
0.0
 10
44.99999999999982
 20
89.99999999999986
 10
0.0
 20
89.99999999999986
  0
HATCH
  5
43
330
1F
100
AcDbEntity
  8
0_Pen_No__146
  6
Continuous
 62
   250
420
  3289650
370
     0
100
AcDbHatch
 10
0.0
 20
0.0
 30
0.0
210
0.0
220
0.0
230
1.0
  2
SOLID
 70
     1
 71
     0
 91
        1
 92
        3
 72
     0
 73
     1
 93
        4
 10
231.4020275411325
 20
-0.0000000000008882
 10
231.4020275411325
 20
89.99999999999942
 10
186.4020275411326
 20
89.99999999999942
 10
186.4020275411326
 20
-0.0000000000008882
 97
        0
 75
     0
 76
     1
 98
        0
  0
HATCH
  5
44
330
1F
100
AcDbEntity
  8
0_Pen_No__146
  6
Continuous
 62
   250
420
  3289650
370
     0
100
AcDbHatch
 10
0.0
 20
0.0
 30
0.0
210
0.0
220
0.0
230
1.0
  2
SOLID
 70
     1
 71
     0
 91
        1
 92
        3
 72
     0
 73
     1
 93
        4
 10
253.9020275411313
 20
-0.0000000000008882
 10
253.9020275411313
 20
89.99999999999942
 10
298.9020275411319
 20
89.99999999999942
 10
298.9020275411319
 20
-0.0000000000009021
 97
        0
 75
     0
 76
     1
 98
        0
  0
HATCH
  5
45
330
1F
100
AcDbEntity
  8
0_Pen_No__146
  6
Continuous
 62
   250
420
  3289650
370
     0
100
AcDbHatch
 10
0.0
 20
0.0
 30
0.0
210
0.0
220
0.0
230
1.0
  2
SOLID
 70
     1
 71
     0
 91
        1
 92
        3
 72
     0
 73
     1
 93
        4
 10
229.8020275411319
 20
93.99999999999942
 10
229.8020275411319
 20
112.0000000000001
 10
189.0020275411326
 20
112.0000000000001
 10
189.0020275411326
 20
93.99999999999942
 97
        0
 75
     0
 76
     1
 98
        0
  0
HATCH
  5
46
330
1F
100
AcDbEntity
  8
0_Pen_No__146
  6
Continuous
100
AcDbHatch
 10
0.0
 20
0.0
 30
0.0
210
0.0
220
0.0
230
1.0
  2
SMALLDOTS
 70
     0
 71
     1
 91
        1
 92
        3
 72
     0
 73
     1
 93
        4
 10
168.9279783911955
 20
127.8020275411344
 10
168.9279783911955
 20
119.8020275411344
 10
311.2412386498265
 20
119.8020275411344
 10
311.2412386498265
 20
127.8020275411344
 97
        1
330
47
 75
     0
 76
     2
 52
0.0
 41
1.0
 77
     0
 78
     2
 53
45.0
 43
0.0
 44
0.0
 45
-4.772970773009195
 46
4.772970773009196
 79
     4
 49
0.0
 49
-4.5
 49
0.0
 49
-6.75
 53
110.0
 43
15.0
 44
0.0
 45
6.34292519030488
 46
2.308635967448266
 79
     4
 49
0.0
 49
-3.3
 49
0.0
 49
-5.700000000000001
 98
        0
  0
LWPOLYLINE
  5
47
102
{ACAD_REACTORS
330
46
102
}
330
1F
100
AcDbEntity
  8
0_Pen_No__1
  6
Continuous
100
AcDbPolyline
 90
        4
 70
   129
 43
0.0
 10
168.9279783911955
 20
127.8020275411344
 10
168.9279783911955
 20
119.8020275411344
 10
311.2412386498265
 20
119.8020275411344
 10
311.2412386498265
 20
127.8020275411344
  0
LWPOLYLINE
  5
48
330
1F
100
AcDbEntity
  8
0_Pen_No__1
  6
Continuous
100
AcDbPolyline
 90
        4
 70
   129
 43
0.0
 10
189.0020275411326
 20
93.99999999999942
 10
189.0020275411326
 20
112.0000000000001
 10
311.2412386498262
 20
112.0000000000001
 10
311.2412386498262
 20
93.99999999999942
  0
HATCH
  5
49
330
1F
100
AcDbEntity
  8
0_Pen_No__146
  6
Continuous
 62
   250
420
  3289650
370
     0
100
AcDbHatch
 10
0.0
 20
0.0
 30
0.0
210
0.0
220
0.0
230
1.0
  2
SOLID
 70
     1
 71
     0
 91
        1
 92
        3
 72
     0
 73
     1
 93
        4
 10
104.2020275411332
 20
93.99999999999939
 10
104.2020275411332
 20
112.0000000000001
 10
145.0020275411325
 20
112.0000000000001
 10
145.0020275411326
 20
93.99999999999939
 97
        0
 75
     0
 76
     1
 98
        0
  0
LWPOLYLINE
  5
4A
330
1F
100
AcDbEntity
  8
0_Pen_No__1
  6
Continuous
100
AcDbPolyline
 90
        4
 70
   129
 43
0.0
 10
145.0020275411326
 20
93.99999999999939
 10
145.0020275411325
 20
112.0000000000001
 10
-10.57608545092914
 20
112.0
 10
-10.57608545092914
 20
93.99999999999933
  0
LWPOLYLINE
  5
4B
330
1F
100
AcDbEntity
  8
0_Pen_No__1
  6
Continuous
100
AcDbPolyline
 90
        4
 70
   129
 43
0.0
 10
164.9020275411291
 20
142.5000000000347
 10
-10.57608545092914
 20
142.5000000000346
 10
-10.57608545092914
 20
119.3999999999997
 10
164.9020275411291
 20
119.3999999999998
  0
HATCH
  5
4C
330
1F
100
AcDbEntity
  8
0_Pen_No__146
  6
Continuous
100
AcDbHatch
 10
0.0
 20
0.0
 30
0.0
210
0.0
220
0.0
230
1.0
  2
Concrete_Block
 70
     0
 71
     1
 91
        1
 92
        3
 72
     0
 73
     1
 93
        4
 10
146.0020275411325
 20
140.9500000000178
 10
131.0020275411326
 20
140.9500000000178
 10
131.0020275411326
 20
114.3999999999994
 10
146.0020275411325
 20
114.3999999999994
 97
        1
330
4D
 75
     0
 76
     2
 52
0.0
 41
1.0
 77
     0
 78
     2
 53
44.99999999999999
 43
0.0
 44
0.0
 45
-1.838477563650065
 46
1.838477563650066
 79
     0
 53
135.0
 43
0.0
 44
0.0
 45
1.838477563650065
 46
1.838477563650066
 79
     0
 98
        0
  0
LWPOLYLINE
  5
4D
102
{ACAD_REACTORS
330
4C
102
}
330
1F
100
AcDbEntity
  8
0_Pen_No__1
  6
Continuous
100
AcDbPolyline
 90
        4
 70
   129
 43
0.0
 10
146.0020275411325
 20
140.9500000000178
 10
131.0020275411326
 20
140.9500000000178
 10
131.0020275411326
 20
114.3999999999994
 10
146.0020275411325
 20
114.3999999999994
  0
LWPOLYLINE
  5
4E
330
1F
100
AcDbEntity
  8
0_Pen_No__1
  6
Continuous
100
AcDbPolyline
 90
        4
 70
   129
 43
0.0
 10
186.4020275411321
 20
-0.0000000000008882
 10
186.4020275411321
 20
89.99999999999898
 10
311.2412386498265
 20
89.99999999999898
 10
311.2412386498265
 20
-0.0000000000009021
  0
HATCH
  5
4F
330
1F
100
AcDbEntity
  8
0_Pen_No__146
  6
Continuous
 62
   250
420
  3289650
370
     0
100
AcDbHatch
 10
0.0
 20
0.0
 30
0.0
210
0.0
220
0.0
230
1.0
  2
SOLID
 70
     1
 71
     0
 91
        1
 92
        3
 72
     0
 73
     1
 93
        4
 10
102.1020275411326
 20
-0.0000000000008882
 10
102.1020275411326
 20
89.99999999999942
 10
147.1020275411325
 20
89.99999999999942
 10
147.1020275411325
 20
-0.0000000000008882
 97
        0
 75
     0
 76
     1
 98
        0
  0
HATCH
  5
50
330
1F
100
AcDbEntity
  8
0_Pen_No__1
  6
Continuous
100
AcDbHatch
 10
0.0
 20
0.0
 30
0.0
210
0.0
220
0.0
230
1.0
  2
SOLID
 70
     1
 71
     0
 91
        1
 92
        3
 72
     0
 73
     1
 93
        4
 10
27.49999999999982
 20
120.3013370111485
 10
27.49999999999982
 20
122.3013370111485
 10
17.49999999999981
 20
122.3013370111485
 10
17.49999999999981
 20
120.3013370111485
 97
        0
 75
     0
 76
     1
 98
        0
  0
HATCH
  5
51
330
1F
100
AcDbEntity
  8
0_Pen_No__1
  6
Continuous
100
AcDbHatch
 10
0.0
 20
0.0
 30
0.0
210
0.0
220
0.0
230
1.0
  2
SOLID
 70
     1
 71
     1
 91
        1
 92
        3
 72
     1
 73
     1
 93
       28
 10
123.7020275411327
 20
114.9999999999994
 42
0.9999999999999999
 10
123.7020275411327
 20
112.9999999999994
 42
0.0
 10
146.0020275411325
 20
112.9999999999994
 42
0.0
 10
146.0020275411325
 20
102.1999999999994
 42
0.0
 10
188.0020275411326
 20
102.1999999999994
 42
0.0
 10
188.0020275411326
 20
112.9999999999994
 42
0.0
 10
210.3020275411327
 20
112.9999999999994
 42
0.9999999999999999
 10
210.3020275411327
 20
114.9999999999994
 42
0.0
 10
205.0020275411326
 20
114.9999999999994
 42
0.0
 10
205.0020275411326
 20
115.9999999999994
 42
0.9999999999999999
 10
203.0020275411326
 20
115.9999999999994
 42
0.0
 10
203.0020275411326
 20
114.9999999999994
 42
0.0
 10
188.0020275411326
 20
114.9999999999994
 42
0.0
 10
188.0020275411326
 20
115.9999999999994
 42
0.9999999999999999
 10
186.0020275411326
 20
115.9999999999994
 42
0.0
 10
186.0020275411326
 20
104.1999999999994
 42
0.0
 10
167.9279783911955
 20
104.1999999999994
 42
0.0
 10
167.9279783911955
 20
157.1999999999994
 42
2.061149010287535
 10
165.9279783911955
 20
157.1999999999994
 42
0.0
 10
165.9279783911955
 20
104.1999999999994
 42
0.0
 10
148.0020275411325
 20
104.1999999999994
 42
0.0
 10
148.0020275411325
 20
115.9999999999994
 42
0.9999999999999999
 10
146.0020275411325
 20
115.9999999999994
 42
0.0
 10
146.0020275411325
 20
114.9999999999994
 42
0.0
 10
131.0020275411325
 20
114.9999999999994
 42
0.0
 10
131.0020275411325
 20
115.9999999999994
 42
0.9999999999999999
 10
129.0020275411325
 20
115.9999999999994
 42
0.0
 10
129.0020275411325
 20
114.9999999999994
 42
0.0
 97
        1
330
52
 75
     0
 76
     1
 98
        0
  0
LWPOLYLINE
  5
52
102
{ACAD_REACTORS
330
51
102
}
330
1F
100
AcDbEntity
  8
0_Pen_No__1
  6
Continuous
100
AcDbPolyline
 90
       28
 70
   129
 43
0.0
 10
123.7020275411327
 20
114.9999999999994
 42
0.9999999999999999
 10
123.7020275411327
 20
112.9999999999994
 10
146.0020275411325
 20
112.9999999999994
 10
146.0020275411325
 20
102.1999999999994
 10
188.0020275411326
 20
102.1999999999994
 10
188.0020275411326
 20
112.9999999999994
 10
210.3020275411327
 20
112.9999999999994
 42
0.9999999999999999
 10
210.3020275411327
 20
114.9999999999994
 10
205.0020275411326
 20
114.9999999999994
 10
205.0020275411326
 20
115.9999999999994
 42
0.9999999999999999
 10
203.0020275411326
 20
115.9999999999994
 10
203.0020275411326
 20
114.9999999999994
 10
188.0020275411326
 20
114.9999999999994
 10
188.0020275411326
 20
115.9999999999994
 42
0.9999999999999999
 10
186.0020275411326
 20
115.9999999999994
 10
186.0020275411326
 20
104.1999999999994
 10
167.9279783911955
 20
104.1999999999994
 10
167.9279783911955
 20
157.1999999999994
 42
2.061149010287535
 10
165.9279783911955
 20
157.1999999999994
 10
165.9279783911955
 20
104.1999999999994
 10
148.0020275411325
 20
104.1999999999994
 10
148.0020275411325
 20
115.9999999999994
 42
0.9999999999999999
 10
146.0020275411325
 20
115.9999999999994
 10
146.0020275411325
 20
114.9999999999994
 10
131.0020275411325
 20
114.9999999999994
 10
131.0020275411325
 20
115.9999999999994
 42
0.9999999999999999
 10
129.0020275411325
 20
115.9999999999994
 10
129.0020275411325
 20
114.9999999999994
  0
LINE
  5
53
330
1F
100
AcDbEntity
  8
0_Pen_No__1
  6
Continuous
100
AcDbLine
 10
18.25537500000336
 20
124.1763370111458
 30
0.0
 11
17.03037500000022
 21
123.8263370111491
 31
0.0
  0
LINE
  5
54
330
1F
100
AcDbEntity
  8
0_Pen_No__1
  6
Continuous
100
AcDbLine
 10
26.74462500000115
 20
124.1763370111495
 30
0.0
 11
18.25537500000425
 21
124.1763370111476
 31
0.0
  0
LINE
  5
55
330
1F
100
AcDbEntity
  8
0_Pen_No__1
  6
Continuous
100
AcDbLine
 10
23.25000000000173
 20
126.3913370111478
 30
0.0
 11
21.75000000000078
 21
126.3913370111478
 31
0.0
  0
LINE
  5
56
330
1F
100
AcDbEntity
  8
0_Pen_No__1
  6
Continuous
100
AcDbLine
 10
20.37768750000297
 20
124.1763370111476
 30
0.0
 11
20.37768750000297
 21
127.6381495111491
 31
0.0
  0
LINE
  5
57
330
1F
100
AcDbEntity
  8
0_Pen_No__1
  6
Continuous
100
AcDbLine
 10
24.62231249999865
 20
124.1763370111476
 30
0.0
 11
24.62231249999953
 21
127.6381495111473
 31
0.0
  0
LINE
  5
58
330
1F
100
AcDbEntity
  8
0_Pen_No__1
  6
Continuous
100
AcDbLine
 10
26.74462500000115
 20
124.1763370111495
 30
0.0
 11
26.74462500000003
 21
127.6381495111473
 31
0.0
  0
LINE
  5
59
330
1F
100
AcDbEntity
  8
0_Pen_No__1
  6
Continuous
100
AcDbLine
 10
18.25537500000425
 20
124.1763370111476
 30
0.0
 11
18.25537500000137
 21
127.6381495111491
 31
0.0
  0
LINE
  5
5A
330
1F
100
AcDbEntity
  8
0_Pen_No__1
  6
Continuous
100
AcDbLine
 10
27.96962499999962
 20
122.8013370111476
 30
0.0
 11
17.03037500000022
 21
122.8013370111495
 31
0.0
  0
LINE
  5
5B
330
1F
100
AcDbEntity
  8
0_Pen_No__1
  6
Continuous
100
AcDbLine
 10
25.68346875000023
 20
127.9413370111488
 30
0.0
 11
23.25000000000084
 21
127.941337011147
 31
0.0
  0
LINE
  5
5C
330
1F
100
AcDbEntity
  8
0_Pen_No__1
  6
Continuous
100
AcDbLine
 10
21.75000000000078
 20
127.9413370111488
 30
0.0
 11
19.31653125000028
 21
127.9413370111488
 31
0.0
  0
LINE
  5
5D
330
1F
100
AcDbEntity
  8
0_Pen_No__1
  6
Continuous
100
AcDbLine
 10
27.96962499999962
 20
123.8263370111473
 30
0.0
 11
26.74462500000115
 21
124.1763370111495
 31
0.0
  0
LINE
  5
5E
330
1F
100
AcDbEntity
  8
0_Pen_No__1
  6
Continuous
100
AcDbLine
 10
17.03037500000022
 20
122.8013370111495
 30
0.0
 11
17.03037500000022
 21
123.8263370111491
 31
0.0
  0
LINE
  5
5F
330
1F
100
AcDbEntity
  8
0_Pen_No__1
  6
Continuous
100
AcDbLine
 10
27.96962499999962
 20
122.8013370111476
 30
0.0
 11
27.96962499999962
 21
123.8263370111473
 31
0.0
  0
LINE
  5
60
330
1F
100
AcDbEntity
  8
0_Pen_No__1
  6
Continuous
100
AcDbLine
 10
23.25000000000084
 20
127.941337011147
 30
0.0
 11
23.25000000000173
 21
126.3913370111478
 31
0.0
  0
LINE
  5
61
330
1F
100
AcDbEntity
  8
0_Pen_No__1
  6
Continuous
100
AcDbLine
 10
21.75000000000078
 20
127.9413370111488
 30
0.0
 11
21.75000000000078
 21
126.3913370111478
 31
0.0
  0
LINE
  5
62
330
1F
100
AcDbEntity
  8
0_Pen_No__1
  6
Continuous
100
AcDbLine
 10
21.00000000000075
 20
90.2584083786133
 30
0.0
 11
24.00000000000087
 21
91.06225595590698
 31
0.0
  0
LINE
  5
63
330
1F
100
AcDbEntity
  8
0_Pen_No__1
  6
Continuous
100
AcDbLine
 10
20.99999999999986
 20
87.04301806944034
 30
0.0
 11
24.00000000000176
 21
87.84686564673402
 31
0.0
  0
LINE
  5
64
330
1F
100
AcDbEntity
  8
0_Pen_No__1
  6
Continuous
100
AcDbLine
 10
21.00000000000075
 20
83.82762776026728
 30
0.0
 11
24.00000000000087
 21
84.63147533756096
 31
0.0
  0
LINE
  5
65
330
1F
100
AcDbEntity
  8
0_Pen_No__1
  6
Continuous
100
AcDbLine
 10
20.99999999999986
 20
80.61223745109244
 30
0.0
 11
23.99999999999909
 21
81.41608502838801
 31
0.0
  0
LINE
  5
66
330
1F
100
AcDbEntity
  8
0_Pen_No__1
  6
Continuous
100
AcDbLine
 10
20.99999999999986
 20
77.39684714192127
 30
0.0
 11
24.00000000000087
 21
78.20069471921495
 31
0.0
  0
LINE
  5
67
330
1F
100
AcDbEntity
  8
0_Pen_No__1
  6
Continuous
100
AcDbLine
 10
21.00000000000075
 20
74.18145683274821
 30
0.0
 11
24.00000000000087
 21
74.98530441004011
 31
0.0
  0
LINE
  5
68
330
1F
100
AcDbEntity
  8
0_Pen_No__1
  6
Continuous
100
AcDbLine
 10
21.00000000000075
 20
70.96606652357515
 30
0.0
 11
24.00000000000087
 21
71.76991410086895
 31
0.0
  0
LINE
  5
69
330
1F
100
AcDbEntity
  8
0_Pen_No__1
  6
Continuous
100
AcDbLine
 10
20.99999999999809
 20
67.7506762144022
 30
0.0
 11
23.99999999999998
 21
68.55452379169589
 31
0.0
  0
LINE
  5
6A
330
1F
100
AcDbEntity
  8
0_Pen_No__1
  6
Continuous
100
AcDbLine
 10
20.99999999999986
 20
64.53528590522737
 30
0.0
 11
23.99999999999998
 21
65.33913348252293
 31
0.0
  0
LINE
  5
6B
330
1F
100
AcDbEntity
  8
0_Pen_No__1
  6
Continuous
100
AcDbLine
 10
20.99999999999986
 20
61.3198955960543
 30
0.0
 11
23.99999999999998
 21
62.12374317334987
 31
0.0
  0
LINE
  5
6C
330
1F
100
AcDbEntity
  8
0_Pen_No__1
  6
Continuous
100
AcDbLine
 10
21.00000000000075
 20
58.10450528688136
 30
0.0
 11
24.00000000000087
 21
58.90835286417681
 31
0.0
  0
LINE
  5
6D
330
1F
100
AcDbEntity
  8
0_Pen_No__1
  6
Continuous
100
AcDbLine
 10
20.99999999999898
 20
54.88911497771196
 30
0.0
 11
24.00000000000087
 21
55.69296255500198
 31
0.0
  0
LINE
  5
6E
330
1F
100
AcDbEntity
  8
0_Pen_No__1
  6
Continuous
100
AcDbLine
 10
23.99999999999998
 20
122.8013370111476
 30
0.0
 11
24.00000000000087
 21
49.89873392094532
 31
0.0
  0
LINE
  5
6F
330
1F
100
AcDbEntity
  8
0_Pen_No__1
  6
Continuous
100
AcDbLine
 10
20.99999999999986
 20
122.8013370111495
 30
0.0
 11
20.99999999999986
 21
49.89873392094166
 31
0.0
  0
LINE
  5
70
330
1F
100
AcDbEntity
  8
0_Pen_No__1
  6
Continuous
100
AcDbLine
 10
22.50000000000081
 20
46.89873392094343
 30
0.0
 11
20.99999999999986
 21
49.89873392094166
 31
0.0
  0
LINE
  5
71
330
1F
100
AcDbEntity
  8
0_Pen_No__1
  6
Continuous
100
AcDbLine
 10
22.50000000000081
 20
46.89873392094343
 30
0.0
 11
24.00000000000087
 21
49.89873392094532
 31
0.0
  0
LINE
  5
72
330
1F
100
AcDbEntity
  8
0_Pen_No__1
  6
Continuous
100
AcDbLine
 10
20.99999999999986
 20
51.6737246685389
 30
0.0
 11
23.99999999999998
 21
52.47757224582902
 31
0.0
  0
LINE
  5
73
330
1F
100
AcDbEntity
  8
0_Pen_No__1
  6
Continuous
100
AcDbLine
 10
21.63511103616563
 20
48.62851184861036
 30
0.0
 11
23.63248654051838
 21
49.16370700198067
 31
0.0
  0
LWPOLYLINE
  5
74
330
1F
100
AcDbEntity
  8
0_Pen_No__1
  6
Continuous
100
AcDbPolyline
 90
        2
 70
   128
 43
0.0
 10
186.4020275411326
 20
89.99999999999942
 10
186.4020275411321
 20
-0.0000000000008882
  0
LWPOLYLINE
  5
75
330
1F
100
AcDbEntity
  8
0_Pen_No__1
  6
Continuous
100
AcDbPolyline
 90
        2
 70
   128
 43
0.0
 10
186.4020275411321
 20
-0.0000000000008882
 10
231.4020275411325
 20
-0.0000000000008882
  0
LWPOLYLINE
  5
76
330
1F
100
AcDbEntity
  8
0_Pen_No__1
  6
Continuous
100
AcDbPolyline
 90
        2
 70
   128
 43
0.0
 10
231.4020275411325
 20
-0.0000000000008882
 10
231.4020275411325
 20
89.99999999999942
  0
LWPOLYLINE
  5
77
330
1F
100
AcDbEntity
  8
0_Pen_No__1
  6
Continuous
100
AcDbPolyline
 90
        2
 70
   128
 43
0.0
 10
231.4020275411325
 20
89.99999999999942
 10
186.4020275411326
 20
89.99999999999942
  0
LWPOLYLINE
  5
78
330
1F
100
AcDbEntity
  8
0_Pen_No__1
  6
Continuous
100
AcDbPolyline
 90
        2
 70
   128
 43
0.0
 10
253.902027541132
 20
89.99999999999942
 10
253.9020275411313
 20
-0.0000000000008882
  0
LWPOLYLINE
  5
79
330
1F
100
AcDbEntity
  8
0_Pen_No__1
  6
Continuous
100
AcDbPolyline
 90
        2
 70
   128
 43
0.0
 10
253.9020275411313
 20
-0.0000000000008882
 10
298.9020275411319
 20
-0.0000000000009021
  0
LWPOLYLINE
  5
7A
330
1F
100
AcDbEntity
  8
0_Pen_No__1
  6
Continuous
100
AcDbPolyline
 90
        2
 70
   128
 43
0.0
 10
298.9020275411319
 20
-0.0000000000009021
 10
298.9020275411319
 20
89.99999999999942
  0
LWPOLYLINE
  5
7B
330
1F
100
AcDbEntity
  8
0_Pen_No__1
  6
Continuous
100
AcDbPolyline
 90
        2
 70
   128
 43
0.0
 10
298.9020275411319
 20
89.99999999999942
 10
253.902027541132
 20
89.99999999999942
  0
LWPOLYLINE
  5
7C
330
1F
100
AcDbEntity
  8
0_Pen_No__1
  6
Continuous
100
AcDbPolyline
 90
        2
 70
   128
 43
0.0
 10
186.4020275411321
 20
-0.0000000000008882
 10
276.402027541132
 20
-0.0000000000000139
  0
LWPOLYLINE
  5
7D
330
1F
100
AcDbEntity
  8
0_Pen_No__1
  6
Continuous
100
AcDbPolyline
 90
        2
 70
   128
 43
0.0
 10
45.0000000000007
 20
0.0
 10
0.0
 20
0.0
  0
LWPOLYLINE
  5
7E
330
1F
100
AcDbEntity
  8
0_Pen_No__1
  6
Continuous
100
AcDbPolyline
 90
        2
 70
   128
 43
0.0
 10
0.0
 20
0.0
 10
0.0
 20
89.99999999999986
  0
LWPOLYLINE
  5
7F
330
1F
100
AcDbEntity
  8
0_Pen_No__1
  6
Continuous
100
AcDbPolyline
 90
        2
 70
   128
 43
0.0
 10
0.0
 20
89.99999999999986
 10
44.99999999999982
 20
89.99999999999986
  0
LWPOLYLINE
  5
80
330
1F
100
AcDbEntity
  8
0_Pen_No__1
  6
Continuous
100
AcDbPolyline
 90
        2
 70
   128
 43
0.0
 10
189.0020275411321
 20
93.99999999999986
 10
229.8020275411319
 20
93.99999999999942
  0
LWPOLYLINE
  5
81
330
1F
100
AcDbEntity
  8
0_Pen_No__1
  6
Continuous
100
AcDbPolyline
 90
        2
 70
   128
 43
0.0
 10
229.8020275411319
 20
93.99999999999942
 10
229.8020275411324
 20
111.9999999999997
  0
LWPOLYLINE
  5
82
330
1F
100
AcDbEntity
  8
0_Pen_No__1
  6
Continuous
100
AcDbPolyline
 90
        2
 70
   128
 43
0.0
 10
229.8020275411324
 20
111.9999999999997
 10
189.0020275411326
 20
112.0000000000001
  0
LWPOLYLINE
  5
83
330
1F
100
AcDbEntity
  8
0_Pen_No__1
  6
Continuous
100
AcDbPolyline
 90
        2
 70
   128
 43
0.0
 10
189.0020275411326
 20
112.0000000000001
 10
189.0020275411321
 20
93.99999999999986
  0
LWPOLYLINE
  5
84
330
1F
100
AcDbEntity
  8
0_Pen_No__1
  6
Continuous
100
AcDbPolyline
 90
        2
 70
   128
 43
0.0
 10
-10.57608545092914
 20
125.2267303181712
 10
-10.57608545092914
 20
117.2267303181712
  0
LWPOLYLINE
  5
85
330
1F
100
AcDbEntity
  8
0_Pen_No__1
  6
Continuous
100
AcDbPolyline
 90
        2
 70
   128
 43
0.0
 10
311.2412386498265
 20
117.22673031817
 10
311.2412386498265
 20
125.22673031817
  0
LWPOLYLINE
  5
86
330
1F
100
AcDbEntity
  8
0_Pen_No__1
  6
Continuous
100
AcDbPolyline
 90
        2
 70
   128
 43
0.0
 10
311.2412386498265
 20
170.8402878579229
 10
311.2412386498265
 20
46.37897184838513
  0
LWPOLYLINE
  5
87
330
1F
100
AcDbEntity
  8
0_Pen_No__1
  6
Continuous
100
AcDbPolyline
 90
        2
 70
   128
 43
0.0
 10
311.2412386498265
 20
46.37897184838513
 10
321.3095837445562
 20
44.94784202863844
  0
LWPOLYLINE
  5
88
330
1F
100
AcDbEntity
  8
0_Pen_No__1
  6
Continuous
100
AcDbPolyline
 90
        2
 70
   128
 43
0.0
 10
321.3095837445562
 20
44.94784202863844
 10
301.6700557827297
 20
42.41028438041283
  0
LWPOLYLINE
  5
89
330
1F
100
AcDbEntity
  8
0_Pen_No__1
  6
Continuous
100
AcDbPolyline
 90
        2
 70
   128
 43
0.0
 10
301.6700557827297
 20
42.41028438041283
 10
311.2412386498265
 20
40.6079548470526
  0
LWPOLYLINE
  5
8A
330
1F
100
AcDbEntity
  8
0_Pen_No__1
  6
Continuous
100
AcDbPolyline
 90
        2
 70
   128
 43
0.0
 10
311.2412386498265
 20
40.6079548470526
 10
311.2412386498265
 20
-70.15591461366233
  0
LWPOLYLINE
  5
8B
330
1F
100
AcDbEntity
  8
0_Pen_No__1
  6
Continuous
100
AcDbPolyline
 90
        2
 70
   128
 43
0.0
 10
-10.57608545092914
 20
180.5696401362461
 10
-10.57608545092914
 20
56.10832412670808
  0
LWPOLYLINE
  5
8C
330
1F
100
AcDbEntity
  8
0_Pen_No__1
  6
Continuous
100
AcDbPolyline
 90
        2
 70
   128
 43
0.0
 10
-10.57608545092914
 20
56.10832412670808
 10
-20.64443054565879
 20
54.67719430696183
  0
LWPOLYLINE
  5
8D
330
1F
100
AcDbEntity
  8
0_Pen_No__1
  6
Continuous
100
AcDbPolyline
 90
        2
 70
   128
 43
0.0
 10
-20.64443054565879
 20
54.67719430696183
 10
-1.004902583832346
 20
52.139636658736
  0
LWPOLYLINE
  5
8E
330
1F
100
AcDbEntity
  8
0_Pen_No__1
  6
Continuous
100
AcDbPolyline
 90
        2
 70
   128
 43
0.0
 10
-1.004902583832346
 20
52.139636658736
 10
-10.57608545092914
 20
50.33730712537599
  0
LWPOLYLINE
  5
8F
330
1F
100
AcDbEntity
  8
0_Pen_No__1
  6
Continuous
100
AcDbPolyline
 90
        2
 70
   128
 43
0.0
 10
-10.57608545092914
 20
50.33730712537599
 10
-10.57608545092914
 20
-60.42656233533916
  0
LWPOLYLINE
  5
90
330
1F
100
AcDbEntity
  8
0_Pen_No__1
  6
Continuous
100
AcDbPolyline
 90
        2
 70
   128
 43
0.0
 10
186.4020275411326
 20
89.99999999999942
 10
231.4020275411325
 20
-0.0000000000008882
  0
LWPOLYLINE
  5
91
330
1F
100
AcDbEntity
  8
0_Pen_No__1
  6
Continuous
100
AcDbPolyline
 90
        2
 70
   128
 43
0.0
 10
231.4020275411325
 20
89.99999999999942
 10
186.4020275411321
 20
-0.0000000000008882
  0
LWPOLYLINE
  5
92
330
1F
100
AcDbEntity
  8
0_Pen_No__1
  6
Continuous
100
AcDbPolyline
 90
        2
 70
   128
 43
0.0
 10
253.902027541132
 20
89.99999999999942
 10
298.9020275411319
 20
-0.0000000000009021
  0
LWPOLYLINE
  5
93
330
1F
100
AcDbEntity
  8
0_Pen_No__1
  6
Continuous
100
AcDbPolyline
 90
        2
 70
   128
 43
0.0
 10
298.9020275411319
 20
89.99999999999942
 10
253.9020275411313
 20
-0.0000000000008882
  0
LWPOLYLINE
  5
94
330
1F
100
AcDbEntity
  8
0_Pen_No__1
  6
Continuous
100
AcDbPolyline
 90
        2
 70
   128
 43
0.0
 10
44.99999999999982
 20
89.99999999999986
 10
0.0
 20
0.0
  0
LWPOLYLINE
  5
95
330
1F
100
AcDbEntity
  8
0_Pen_No__1
  6
Continuous
100
AcDbPolyline
 90
        2
 70
   128
 43
0.0
 10
0.0
 20
89.99999999999986
 10
45.0000000000007
 20
0.0
  0
LWPOLYLINE
  5
96
330
1F
100
AcDbEntity
  8
0_Pen_No__1
  6
Continuous
100
AcDbPolyline
 90
        3
 70
   128
 43
0.0
 10
311.2412386498265
 20
89.99999999999898
 10
90.00000000000018
 20
89.99999999999898
 10
-10.57608545092914
 20
89.9999999999993
  0
LWPOLYLINE
  5
98
330
1F
100
AcDbEntity
  8
0_Pen_No__1
  6
Above
100
AcDbPolyline
 90
        3
 70
   128
 43
0.0
 10
-10.57608545092914
 20
91.99999999999953
 10
137.0000000000008
 20
91.99999999999986
 10
311.2412386498265
 20
91.99999999999983
  0
LWPOLYLINE
  5
99
330
1F
100
AcDbEntity
  8
0_Pen_No__1
  6
Continuous
100
AcDbPolyline
 90
        3
 70
   128
 43
0.0
 10
311.2412386498265
 20
-0.0000000000009021
 10
45.0000000000007
 20
-0.0000000000006661
 10
-10.57608545092958
 20
-0.0000000000005551
  0
LWPOLYLINE
  5
9A
330
1F
100
AcDbEntity
  8
0_Pen_No__1
  6
Continuous
100
AcDbPolyline
 90
        2
 70
   128
 43
0.0
 10
189.0020275411326
 20
93.99999999999986
 10
229.8020275411324
 20
111.9999999999997
  0
LWPOLYLINE
  5
9B
330
1F
100
AcDbEntity
  8
0_Pen_No__1
  6
Continuous
100
AcDbPolyline
 90
        2
 70
   128
 43
0.0
 10
229.8020275411319
 20
93.99999999999942
 10
189.0020275411326
 20
112.0000000000001
  0
LWPOLYLINE
  5
9C
330
1F
100
AcDbEntity
  8
0_Pen_No__1
  6
Continuous
100
AcDbPolyline
 90
        2
 70
   128
 43
0.0
 10
311.2412386498265
 20
127.8020275411344
 10
168.9279783911955
 20
127.8020275411344
  0
LWPOLYLINE
  5
9D
330
1F
100
AcDbEntity
  8
0_Pen_No__1
  6
Continuous
100
AcDbPolyline
 90
        2
 70
   128
 43
0.0
 10
168.9279783911955
 20
119.8020275411344
 10
311.2412386498265
 20
119.8020275411344
  0
LWPOLYLINE
  5
9E
330
1F
100
AcDbEntity
  8
0_Pen_No__1
  6
Continuous
100
AcDbPolyline
 90
        2
 70
   128
 43
0.0
 10
168.9279783911955
 20
135.5941199634707
 10
311.2412386498265
 20
135.5941199634707
  0
LWPOLYLINE
  5
9F
330
1F
100
AcDbEntity
  8
0_Pen_No__1
  6
Continuous
100
AcDbPolyline
 90
        2
 70
   128
 43
0.0
 10
145.002027541133
 20
93.99999999999983
 10
104.2020275411332
 20
93.99999999999939
  0
LWPOLYLINE
  5
A0
330
1F
100
AcDbEntity
  8
0_Pen_No__1
  6
Continuous
100
AcDbPolyline
 90
        2
 70
   128
 43
0.0
 10
104.2020275411332
 20
93.99999999999939
 10
104.2020275411328
 20
111.9999999999996
  0
LWPOLYLINE
  5
A1
330
1F
100
AcDbEntity
  8
0_Pen_No__1
  6
Continuous
100
AcDbPolyline
 90
        2
 70
   128
 43
0.0
 10
104.2020275411328
 20
111.9999999999996
 10
145.0020275411325
 20
112.0000000000001
  0
LWPOLYLINE
  5
A2
330
1F
100
AcDbEntity
  8
0_Pen_No__1
  6
Continuous
100
AcDbPolyline
 90
        2
 70
   128
 43
0.0
 10
145.0020275411326
 20
93.99999999999983
 10
104.2020275411328
 20
111.9999999999996
  0
LWPOLYLINE
  5
A3
330
1F
100
AcDbEntity
  8
0_Pen_No__1
  6
Continuous
100
AcDbPolyline
 90
        2
 70
   128
 43
0.0
 10
104.2020275411332
 20
93.99999999999939
 10
145.0020275411325
 20
112.0000000000001
  0
LWPOLYLINE
  5
A4
330
1F
100
AcDbEntity
  8
0_Pen_No__1
  6
Continuous
100
AcDbPolyline
 90
        2
 70
   128
 43
0.0
 10
147.1020275411325
 20
89.99999999999942
 10
147.102027541133
 20
-0.0000000000008882
  0
LWPOLYLINE
  5
A5
330
1F
100
AcDbEntity
  8
0_Pen_No__1
  6
Continuous
100
AcDbPolyline
 90
        2
 70
   128
 43
0.0
 10
147.102027541133
 20
-0.0000000000008882
 10
102.1020275411326
 20
-0.0000000000008882
  0
LWPOLYLINE
  5
A6
330
1F
100
AcDbEntity
  8
0_Pen_No__1
  6
Continuous
100
AcDbPolyline
 90
        2
 70
   128
 43
0.0
 10
102.1020275411326
 20
-0.0000000000008882
 10
102.1020275411326
 20
89.99999999999942
  0
LWPOLYLINE
  5
A7
330
1F
100
AcDbEntity
  8
0_Pen_No__1
  6
Continuous
100
AcDbPolyline
 90
        2
 70
   128
 43
0.0
 10
102.1020275411326
 20
89.99999999999942
 10
147.1020275411325
 20
89.99999999999942
  0
LWPOLYLINE
  5
A8
330
1F
100
AcDbEntity
  8
0_Pen_No__1
  6
Continuous
100
AcDbPolyline
 90
        2
 70
   128
 43
0.0
 10
147.1020275411325
 20
89.99999999999942
 10
102.1020275411326
 20
-0.0000000000008882
  0
LWPOLYLINE
  5
A9
330
1F
100
AcDbEntity
  8
0_Pen_No__1
  6
Continuous
100
AcDbPolyline
 90
        2
 70
   128
 43
0.0
 10
102.1020275411326
 20
89.99999999999942
 10
147.102027541133
 20
-0.0000000000008882
  0
LWPOLYLINE
  5
AA
330
1F
100
AcDbEntity
  8
0_Pen_No__1
  6
Continuous
100
AcDbPolyline
 90
        2
 70
   128
 43
0.0
 10
168.9279783911955
 20
127.8020275411344
 10
168.9279783911955
 20
119.8020275411344
  0
LWPOLYLINE
  5
AB
330
1F
100
AcDbEntity
  8
0_Pen_No__1
  6
Continuous
100
AcDbPolyline
 90
        2
 70
   128
 43
0.0
 10
168.9279783911955
 20
135.5941199634707
 10
168.9279783911955
 20
127.8020275411344
  0
ARC
  5
AC
330
1F
100
AcDbEntity
  8
0_Pen_No__1
  6
Continuous
100
AcDbCircle
 10
22.49999999999815
 20
120.3616495111492
 30
0.0
 40
7.579687500000043
100
AcDbArc
 50
73.73979529170335
 51
84.32136653167285
  0
ARC
  5
AD
330
1F
100
AcDbEntity
  8
0_Pen_No__1
  6
Continuous
100
AcDbCircle
 10
19.31653125000028
 20
125.9327198236497
 30
0.0
 40
2.008617187499784
100
AcDbArc
 50
58.10920819816242
 51
121.8907918018305
  0
ARC
  5
AE
330
1F
100
AcDbEntity
  8
0_Pen_No__1
  6
Continuous
100
AcDbCircle
 10
25.68346875000134
 20
125.9327198236497
 30
0.0
 40
2.008617187499784
100
AcDbArc
 50
58.10920819816948
 51
121.8907918018376
  0
ARC
  5
AF
330
1F
100
AcDbEntity
  8
0_Pen_No__1
  6
Continuous
100
AcDbCircle
 10
22.49999999999815
 20
120.3616495111492
 30
0.0
 40
7.579687500000043
100
AcDbArc
 50
95.6786334682732
 51
106.2602047083474
  0
WIPEOUT
  5
B1
330
1F
100
AcDbEntity
  8
Key_ Sections_Pen_No__1
  6
Wipeout_Contour
 48
1195.255911911941
 92
      296
310
28010000060000000C0000000E000000120000000C00000016000000000000C20C00000014000000010000006C000000070000000400000023A8DC68DD0C6C405AD7B2F939D7634000000000000000005B6070DFF50072405AD7B2F939D7634000000000000000005B6070DFF50072407A18A45D0657624000000000000000
310
0023A8DC68DD0C6C407A18A45D0657624000000000000000000C0000000E0000000700000084000000060000000500000023A8DC68DD0C6C405AD7B2F939D7634000000000000000005B6070DFF50072405AD7B2F939D7634000000000000000005B6070DFF50072407A18A45D06576240000000000000000023A8DC68DD0C
310
6C407A18A45D06576240000000000000000023A8DC68DD0C6C405AD7B2F939D763400000000000000000
100
AcDbWipeout
 90
        0
 10
224.4020275411322
 20
146.7195270733826
 30
0.0
 11
63.65799999999999
 21
0.0
 31
0.0
 12
0.0
 22
12.00630000000001
 32
0.0
 13
1.0
 23
1.0
340
0
 70
    15
280
     1
281
    50
282
    50
283
     0
360
0
 71
     2
 91
        5
 14
-0.4999999999999998
 24
-0.5
 14
0.5000000000000002
 24
-0.5
 14
0.5000000000000002
 24
0.5
 14
-0.4999999999999998
 24
0.5
 14
-0.4999999999999998
 24
-0.5
  0
MTEXT
  5
B4
102
{ACAD_REACTORS
330
B5
102
}
330
1F
100
AcDbEntity
  8
Key_ Sections_Pen_No__1
  6
Continuous
100
AcDbMText
 10
226.4020275411323
 20
152.3629699305255
 30
0.0
 40
4.999999999999999
 41
59.658
 71
     4
 72
     1
  1
{H3.1 Cavity battens}
  7
GENERATED_STYLE_1
 73
     1
 44
1.0
  0
LEADER
  5
B5
330
1F
100
AcDbEntity
  8
Key_ Sections_Pen_No__1
  6
Continuous
100
AcDbLeader
  3
GENERATED_STYLE__1
 72
     1
 73
     0
 74
     0
 40
13.49833333333333
 41
35.44999999999999
 76
     3
 10
209.4020275411322
 20
112.0000000000001
 30
0.0
 10
216.0060113143493
 20
150.2901317763298
 30
0.0
 10
226.3120275411323
 20
152.3629699305255
 30
0.0
340
B4
  0
WIPEOUT
  5
BC
330
1F
100
AcDbEntity
  8
Key_ Sections_Pen_No__1
  6
Wipeout_Contour
 48
1010.907012410097
 92
      296
310
28010000060000000C0000000E000000120000000C00000016000000000000C20C00000014000000010000006C00000007000000040000003C18971585EB6A40B0B4FADDE97A28C0000000000000000091F45C783FFB7140B0B4FADDE97A28C0000000000000000091F45C783FFB7140B7196673642040C000000000000000
310
003C18971585EB6A40B7196673642040C000000000000000000C0000000E000000070000008400000006000000050000003C18971585EB6A40B0B4FADDE97A28C0000000000000000091F45C783FFB7140B0B4FADDE97A28C0000000000000000091F45C783FFB7140B7196673642040C000000000000000003C18971585EB
310
6A40B7196673642040C000000000000000003C18971585EB6A40B0B4FADDE97A28C00000000000000000
100
AcDbWipeout
 90
        0
 10
215.3599956465786
 20
-32.25306551442502
 30
0.0
 11
72.34300000000002
 21
0.0
 31
0.0
 12
0.0
 22
20.013
 32
0.0
 13
1.0
 23
1.0
340
0
 70
    15
280
     1
281
    50
282
    50
283
     0
360
0
 71
     2
 91
        5
 14
-0.5
 24
-0.5
 14
0.5
 24
-0.5
 14
0.5
 24
0.5
 14
-0.5
 24
0.5
 14
-0.5
 24
-0.5
  0
MTEXT
  5
BD
102
{ACAD_REACTORS
330
BE
102
}
330
1F
100
AcDbEntity
  8
Key_ Sections_Pen_No__1
  6
Continuous
100
AcDbMText
 10
217.3599956465786
 20
-22.60607124711192
 30
0.0
 40
4.999999999999998
 41
68.343
 71
     4
 72
     1
  1
{Breather type building \Punderlay continuous }
  7
GENERATED_STYLE_1
 73
     1
 44
0.9578820155126029
  0
LEADER
  5
BE
330
1F
100
AcDbEntity
  8
Key_ Sections_Pen_No__1
  6
Continuous
100
AcDbLeader
  3
GENERATED_STYLE__1
 72
     1
 73
     0
 74
     0
 40
14.44735012927169
 41
66.90999999999997
 76
     3
 10
152.9360623195157
 20
91.99999999999986
 30
0.0
 10
187.3068336639367
 20
-12.64906584159711
 30
0.0
 10
217.2699956465786
 20
-22.60607124711192
 30
0.0
340
BD
  0
WIPEOUT
  5
BF
330
1F
100
AcDbEntity
  8
Key_ Sections_Pen_No__1
  6
Wipeout_Contour
 48
1254.32851491659
 92
      296
310
28010000060000000C0000000E000000120000000C00000016000000000000C20C00000014000000010000006C000000070000000400000023A8DC68DD0C6C40E4E680845528684000000000000000002A58C4C29B047240E4E680845528684000000000000000002A58C4C29B047240EC929DDEB9A7644000000000000000
310
0023A8DC68DD0C6C40EC929DDEB9A7644000000000000000000C0000000E0000000700000084000000060000000500000023A8DC68DD0C6C40E4E680845528684000000000000000002A58C4C29B047240E4E680845528684000000000000000002A58C4C29B047240EC929DDEB9A76440000000000000000023A8DC68DD0C
310
6C40EC929DDEB9A76440000000000000000023A8DC68DD0C6C40E4E68084552868400000000000000000
100
AcDbWipeout
 90
        0
 10
224.4020275411322
 20
165.2414391591659
 30
0.0
 11
63.886
 21
0.0
 31
0.0
 12
0.0
 22
28.01900000000001
 32
0.0
 13
1.0
 23
1.0
340
0
 70
    15
280
     1
281
    50
282
    50
283
     0
360
0
 71
     2
 91
        5
 14
-0.5000000000000002
 24
-0.5
 14
0.4999999999999998
 24
-0.5
 14
0.4999999999999998
 24
0.5
 14
-0.5000000000000002
 24
0.5
 14
-0.5000000000000002
 24
-0.5
  0
MTEXT
  5
C0
102
{ACAD_REACTORS
330
C1
102
}
330
1F
100
AcDbEntity
  8
Key_ Sections_Pen_No__1
  6
Continuous
100
AcDbMText
 10
226.4020275411323
 20
179.5718562652207
 30
0.0
 40
4.999999999999998
 41
59.886
 71
     4
 72
     1
  1
{Selected Palliside \Pweatherboard fixed \Pwith Palliside nails}
  7
GENERATED_STYLE_1
 73
     1
 44
0.9509903492301887
  0
LEADER
  5
C1
330
1F
100
AcDbEntity
  8
Key_ Sections_Pen_No__1
  6
Continuous
100
AcDbLeader
  3
GENERATED_STYLE__1
 72
     1
 73
     0
 74
     0
 40
21.0915075132056
 41
58.82999999999997
 76
     3
 10
180.3082864510936
 20
135.5941199634707
 30
0.0
 10
191.2219500981676
 20
168.2280504544089
 30
0.0
 10
226.3120275411323
 20
179.5718562652207
 30
0.0
340
C0
  0
WIPEOUT
  5
C2
330
1F
100
AcDbEntity
  8
Key_ Sections_Pen_No__1
  6
Wipeout_Contour
 48
684.9702358806562
 92
      296
310
28010000060000000C0000000E000000120000000C00000016000000000000C20C00000014000000010000006C0000000700000004000000005D89103404F0BFB09D0B346807664000000000000000009ECB542ED6334D40B09D0B346807664000000000000000009ECB542ED6334D408DC211B5FD86634000000000000000
310
00005D89103404F0BF8DC211B5FD86634000000000000000000C0000000E00000007000000840000000600000005000000005D89103404F0BFB09D0B346807664000000000000000009ECB542ED6334D40B09D0B346807664000000000000000009ECB542ED6334D408DC211B5FD8663400000000000000000005D89103404
310
F0BF8DC211B5FD8663400000000000000000005D89103404F0BFB09D0B34680766400000000000000000
100
AcDbWipeout
 90
        0
 10
-1.001026215167997
 20
156.2184701296686
 30
0.0
 11
59.40599999999999
 21
0.0
 31
0.0
 12
0.0
 22
20.01300000000001
 32
0.0
 13
1.0
 23
1.0
340
0
 70
    15
280
     1
281
    50
282
    50
283
     0
360
0
 71
     2
 91
        5
 14
-0.5
 24
-0.5000000000000007
 14
0.5
 24
-0.5000000000000007
 14
0.5
 24
0.4999999999999993
 14
-0.5
 24
0.4999999999999993
 14
-0.5
 24
-0.5000000000000007
  0
MTEXT
  5
C3
102
{ACAD_REACTORS
330
C4
102
}
330
1F
100
AcDbEntity
  8
Key_ Sections_Pen_No__1
  6
Continuous
100
AcDbMText
 10
56.404973784832
 20
165.8654643969817
 30
0.0
 40
4.999999999999999
 41
55.406
 71
     6
 72
     1
  1
{Profile metal wall \Pcladding by others}
  7
GENERATED_STYLE_1
 73
     1
 44
0.5201709050130704
  0
LEADER
  5
C4
330
1F
100
AcDbEntity
  8
Key_ Sections_Pen_No__1
  6
Continuous
100
AcDbLeader
  3
GENERATED_STYLE__1
 72
     1
 73
     0
 40
13.79372961047728
 41
51.715
 76
     3
 10
73.40497378483191
 20
142.5000000000347
 30
0.0
 10
68.04681315920234
 20
162.8372984510412
 30
0.0
 10
56.49497378483201
 20
165.8654643969817
 30
0.0
340
C3
  0
WIPEOUT
  5
C5
330
1F
100
AcDbEntity
  8
Key_ Sections_Pen_No__1
  6
Wipeout_Contour
 48
804.7589286041809
 92
      296
310
28010000060000000C0000000E000000120000000C00000016000000000000C20C00000014000000010000006C0000000700000004000000804A92F15803F0BFD26D93D2BA396940000000000000000078FCEF8FF0AC5540D26D93D2BA396940000000000000000078FCEF8FF0AC5540AF92995350B9664000000000000000
310
00804A92F15803F0BFAF92995350B9664000000000000000000C0000000E00000007000000840000000600000005000000804A92F15803F0BFD26D93D2BA396940000000000000000078FCEF8FF0AC5540D26D93D2BA396940000000000000000078FCEF8FF0AC5540AF92995350B966400000000000000000804A92F15803
310
F0BFAF92995350B966400000000000000000804A92F15803F0BFD26D93D2BA3969400000000000000000
100
AcDbWipeout
 90
        0
 10
-1.000817245138619
 20
181.7910554885361
 30
0.0
 11
87.703
 21
0.0
 31
0.0
 12
0.0
 22
20.01300000000001
 32
0.0
 13
1.0
 23
1.0
340
0
 70
    15
280
     1
281
    50
282
    50
283
     0
360
0
 71
     2
 91
        5
 14
-0.5
 24
-0.5000000000000007
 14
0.5
 24
-0.5000000000000007
 14
0.5
 24
0.4999999999999993
 14
-0.5
 24
0.4999999999999993
 14
-0.5
 24
-0.5000000000000007
  0
MTEXT
  5
C6
102
{ACAD_REACTORS
330
C7
102
}
330
1F
100
AcDbEntity
  8
Key_ Sections_Pen_No__1
  6
Continuous
100
AcDbMText
 10
84.70218275486138
 20
191.4380497558492
 30
0.0
 40
4.999999999999997
 41
83.703
 71
     6
 72
     1
  1
{Vertical flashing 50mm min \Pcover behind cladding}
  7
GENERATED_STYLE_1
 73
     1
 44
0.9482389079738858
  0
LEADER
  5
C7
330
1F
100
AcDbEntity
  8
Key_ Sections_Pen_No__1
  6
Continuous
100
AcDbLeader
  3
GENERATED_STYLE__1
 72
     1
 73
     0
 40
14.44759120696015
 41
83.26499999999996
 76
     3
 10
138.7960999605626
 20
136.3857985611118
 30
0.0
 10
121.0226713852133
 20
180.1395328737462
 30
0.0
 10
84.79218275486139
 20
191.4380497558492
 30
0.0
340
C6
  0
WIPEOUT
  5
C8
330
1F
100
AcDbEntity
  8
Key_ Sections_Pen_No__1
  6
Wipeout_Contour
 48
910.1030322833453
 92
      296
310
28010000060000000C0000000E000000120000000C00000016000000000000C20C00000014000000010000006C00000007000000040000001C6E4AAE3D3C2840B75F366F40FE6B4000000000000000008EC48755A2665B40B75F366F40FE6B4000000000000000008EC48755A2665B403B4B88275F87694000000000000000
310
001C6E4AAE3D3C28403B4B88275F87694000000000000000000C0000000E000000070000008400000006000000050000001C6E4AAE3D3C2840B75F366F40FE6B4000000000000000008EC48755A2665B40B75F366F40FE6B4000000000000000008EC48755A2665B403B4B88275F87694000000000000000001C6E4AAE3D3C
310
28403B4B88275F87694000000000000000001C6E4AAE3D3C2840B75F366F40FE6B400000000000000000
100
AcDbWipeout
 90
        0
 10
12.11765808733532
 20
204.2303655302038
 30
0.0
 11
97.486
 21
0.0
 31
0.0
 12
0.0
 22
19.71500000000003
 32
0.0
 13
1.0
 23
1.0
340
0
 70
    15
280
     1
281
    50
282
    50
283
     0
360
0
 71
     2
 91
        5
 14
-0.5000000000000001
 24
-0.5
 14
0.5
 24
-0.5
 14
0.5
 24
0.5
 14
-0.5000000000000001
 24
0.5
 14
-0.5000000000000001
 24
-0.5
  0
MTEXT
  5
C9
102
{ACAD_REACTORS
330
CA
102
}
330
1F
100
AcDbEntity
  8
Key_ Sections_Pen_No__1
  6
Continuous
100
AcDbMText
 10
107.6036580873353
 20
213.6539369587752
 30
0.0
 40
5.0
 41
93.486
 71
     6
 72
     1
  1
{Flashman extruded aluminium \Pcladding junction flashing}
  7
GENERATED_STYLE_1
 73
     1
 44
0.9305735717105637
  0
LEADER
  5
CA
330
1F
100
AcDbEntity
  8
Key_ Sections_Pen_No__1
  6
Continuous
100
AcDbLeader
  3
GENERATED_STYLE__1
 72
     1
 73
     0
 40
14.3047797642547
 41
92.45499999999998
 76
     3
 10
165.9279783911955
 20
124.7716339018874
 30
0.0
 10
127.2245596026345
 20
207.8985402882119
 30
0.0
 10
107.6936580873353
 20
213.6539369587752
 30
0.0
340
C9
  0
ENDSEC
  0
SECTION
  2
OBJECTS
  0
DICTIONARY
  5
C
330
0
100
AcDbDictionary
281
     1
  3
ACAD_GROUP
350
D
  3
ACAD_LAYOUT
350
1A
  3
ACAD_MATERIAL
350
3B
  3
ACAD_MLEADERSTYLE
350
11B
  3
ACAD_MLINESTYLE
350
17
  3
ACAD_PLOTSETTINGS
350
19
  3
ACAD_PLOTSTYLENAME
350
E
  3
ACAD_SCALELIST
350
CE
  3
ACAD_TABLESTYLE
350
11A
  3
ACAD_VISUALSTYLE
350
2A
  3
AcDbVariableDictionary
350
F2
  3
WATERMARKS
350
F0
  0
DICTIONARY
  5
D
102
{ACAD_REACTORS
330
C
102
}
330
C
100
AcDbDictionary
281
     1
  0
DICTIONARY
  5
1A
102
{ACAD_REACTORS
330
C
102
}
330
C
100
AcDbDictionary
281
     1
  3
Layout1
350
1E
  3
Layout2
350
26
  3
Model
350
22
  0
DICTIONARY
  5
3B
102
{ACAD_REACTORS
330
C
102
}
330
C
100
AcDbDictionary
281
     1
  3
ByBlock
350
3D
  3
ByLayer
350
3C
  3
Global
350
3E
  0
DICTIONARY
  5
11B
102
{ACAD_REACTORS
330
C
102
}
330
C
100
AcDbDictionary
281
     1
  0
DICTIONARY
  5
17
102
{ACAD_REACTORS
330
C
102
}
330
C
100
AcDbDictionary
281
     1
  3
Standard
350
18
  0
DICTIONARY
  5
19
102
{ACAD_REACTORS
330
C
102
}
330
C
100
AcDbDictionary
281
     1
  0
ACDBDICTIONARYWDFLT
  5
E
102
{ACAD_REACTORS
330
C
102
}
330
C
100
AcDbDictionary
281
     1
  3
Normal
350
F
100
AcDbDictionaryWithDefault
340
F
  0
DICTIONARY
  5
CE
102
{ACAD_REACTORS
330
C
102
}
330
C
100
AcDbDictionary
281
     1
  3
A0
350
CF
  3
A1
350
D0
  3
A2
350
D1
  3
A3
350
D2
  3
A4
350
D3
  3
A5
350
D4
  3
A6
350
D5
  3
A7
350
D6
  3
A8
350
D7
  3
A9
350
D8
  3
B0
350
D9
  3
B1
350
DA
  3
B2
350
DB
  3
B3
350
DC
  3
B4
350
DD
  3
B5
350
DE
  3
B6
350
DF
  3
B7
350
E0
  3
B8
350
E1
  3
B9
350
E2
  3
C0
350
E3
  3
C1
350
E4
  3
C2
350
E5
  3
C3
350
E6
  3
C4
350
E7
  3
C5
350
E8
  3
C6
350
E9
  3
C7
350
EA
  3
C8
350
EB
  3
C9
350
EC
  3
D0
350
ED
  3
D1
350
EE
  3
D2
350
EF
  0
DICTIONARY
  5
11A
102
{ACAD_REACTORS
330
C
102
}
330
C
100
AcDbDictionary
281
     1
  0
DICTIONARY
  5
2A
102
{ACAD_REACTORS
330
C
102
}
330
C
100
AcDbDictionary
281
     1
  3
2dWireframe
350
2F
  3
3D Hidden
350
31
  3
3dWireframe
350
30
  3
Basic
350
32
  3
Brighten
350
36
  3
ColorChange
350
3A
  3
Conceptual
350
34
  3
Dim
350
35
  3
Facepattern
350
39
  3
Flat
350
2B
  3
FlatWithEdges
350
2C
  3
Gouraud
350
2D
  3
GouraudWithEdges
350
2E
  3
Linepattern
350
38
  3
Realistic
350
33
  3
Thicken
350
37
  0
DICTIONARY
  5
F2
102
{ACAD_REACTORS
330
C
102
}
330
C
100
AcDbDictionary
281
     1
  3
CANNOSCALE
350
F3
  3
XCLIPFRAME
350
11C
  0
DICTIONARY
  5
F0
102
{ACAD_REACTORS
330
C
102
}
330
C
100
AcDbDictionary
281
     1
  3
AC_WATERMARK
350
F1
  0
LAYOUT
  5
1E
102
{ACAD_REACTORS
330
1A
102
}
330
1A
100
AcDbPlotSettings
  1

  2
none_device
  4

  6

 40
0.0
 41
0.0
 42
0.0
 43
0.0
 44
0.0
 45
0.0
 46
0.0
 47
0.0
 48
0.0
 49
0.0
140
0.0
141
0.0
142
1.0
143
1.0
 70
   688
 72
     0
 73
     0
 74
     5
  7

 75
    16
 76
     0
 77
     2
 78
   300
147
1.0
148
0.0
149
0.0
100
AcDbLayout
  1
Layout1
 70
     1
 71
     1
 10
0.0
 20
0.0
 11
12.0
 21
9.0
 12
0.0
 22
0.0
 32
0.0
 14
1.000000000000000E+20
 24
1.000000000000000E+20
 34
1.000000000000000E+20
 15
-1.000000000000000E+20
 25
-1.000000000000000E+20
 35
-1.000000000000000E+20
146
0.0
 13
0.0
 23
0.0
 33
0.0
 16
1.0
 26
0.0
 36
0.0
 17
0.0
 27
1.0
 37
0.0
 76
     0
330
1B
  0
LAYOUT
  5
26
102
{ACAD_REACTORS
330
1A
102
}
330
1A
100
AcDbPlotSettings
  1

  2
none_device
  4

  6

 40
0.0
 41
0.0
 42
0.0
 43
0.0
 44
0.0
 45
0.0
 46
0.0
 47
0.0
 48
0.0
 49
0.0
140
0.0
141
0.0
142
1.0
143
1.0
 70
   688
 72
     0
 73
     0
 74
     5
  7

 75
    16
 76
     0
 77
     2
 78
   300
147
1.0
148
0.0
149
0.0
100
AcDbLayout
  1
Layout2
 70
     1
 71
     2
 10
0.0
 20
0.0
 11
0.0
 21
0.0
 12
0.0
 22
0.0
 32
0.0
 14
0.0
 24
0.0
 34
0.0
 15
0.0
 25
0.0
 35
0.0
146
0.0
 13
0.0
 23
0.0
 33
0.0
 16
1.0
 26
0.0
 36
0.0
 17
0.0
 27
1.0
 37
0.0
 76
     0
330
23
  0
LAYOUT
  5
22
102
{ACAD_REACTORS
330
1A
102
}
330
1A
100
AcDbPlotSettings
  1

  2
none_device
  4

  6

 40
0.0
 41
0.0
 42
0.0
 43
0.0
 44
0.0
 45
0.0
 46
0.0
 47
0.0
 48
0.0
 49
0.0
140
0.0
141
0.0
142
1.0
143
1.0
 70
  1712
 72
     0
 73
     0
 74
     0
  7

 75
     0
 76
     0
 77
     2
 78
   300
147
1.0
148
0.0
149
0.0
100
AcDbLayout
  1
Model
 70
     1
 71
     0
 10
0.0
 20
0.0
 11
12.0
 21
9.0
 12
0.0
 22
0.0
 32
0.0
 14
1.000000000000000E+20
 24
1.000000000000000E+20
 34
1.000000000000000E+20
 15
-1.000000000000000E+20
 25
-1.000000000000000E+20
 35
-1.000000000000000E+20
146
0.0
 13
0.0
 23
0.0
 33
0.0
 16
1.0
 26
0.0
 36
0.0
 17
0.0
 27
1.0
 37
0.0
 76
     0
330
1F
331
29
  0
MATERIAL
  5
3D
102
{ACAD_REACTORS
330
3B
102
}
102
{ACAD_XDICTIONARY
360
116
102
}
330
3B
100
AcDbMaterial
  1
ByBlock
  0
MATERIAL
  5
3C
102
{ACAD_REACTORS
330
3B
102
}
102
{ACAD_XDICTIONARY
360
114
102
}
330
3B
100
AcDbMaterial
  1
ByLayer
  0
MATERIAL
  5
3E
102
{ACAD_REACTORS
330
3B
102
}
102
{ACAD_XDICTIONARY
360
118
102
}
330
3B
100
AcDbMaterial
  1
Global
  0
MLINESTYLE
  5
18
102
{ACAD_REACTORS
330
17
102
}
330
17
100
AcDbMlineStyle
  2
Standard
 70
     0
  3

 62
   256
 51
90.0
 52
90.0
 71
     2
 49
0.5
 62
   256
  6
BYLAYER
 49
-0.5
 62
   256
  6
BYLAYER
  0
ACDBPLACEHOLDER
  5
F
102
{ACAD_REACTORS
330
E
102
}
330
E
  0
SCALE
  5
CF
102
{ACAD_REACTORS
330
CE
102
}
330
CE
100
AcDbScale
 70
     0
300
1:1
140
1.0
141
1.0
290
     1
  0
SCALE
  5
D0
102
{ACAD_REACTORS
330
CE
102
}
330
CE
100
AcDbScale
 70
     0
300
1:2
140
1.0
141
2.0
290
     0
  0
SCALE
  5
D1
102
{ACAD_REACTORS
330
CE
102
}
330
CE
100
AcDbScale
 70
     0
300
1:4
140
1.0
141
4.0
290
     0
  0
SCALE
  5
D2
102
{ACAD_REACTORS
330
CE
102
}
330
CE
100
AcDbScale
 70
     0
300
1:5
140
1.0
141
5.0
290
     0
  0
SCALE
  5
D3
102
{ACAD_REACTORS
330
CE
102
}
330
CE
100
AcDbScale
 70
     0
300
1:8
140
1.0
141
8.0
290
     0
  0
SCALE
  5
D4
102
{ACAD_REACTORS
330
CE
102
}
330
CE
100
AcDbScale
 70
     0
300
1:10
140
1.0
141
10.0
290
     0
  0
SCALE
  5
D5
102
{ACAD_REACTORS
330
CE
102
}
330
CE
100
AcDbScale
 70
     0
300
1:16
140
1.0
141
16.0
290
     0
  0
SCALE
  5
D6
102
{ACAD_REACTORS
330
CE
102
}
330
CE
100
AcDbScale
 70
     0
300
1:20
140
1.0
141
20.0
290
     0
  0
SCALE
  5
D7
102
{ACAD_REACTORS
330
CE
102
}
330
CE
100
AcDbScale
 70
     0
300
1:30
140
1.0
141
30.0
290
     0
  0
SCALE
  5
D8
102
{ACAD_REACTORS
330
CE
102
}
330
CE
100
AcDbScale
 70
     0
300
1:40
140
1.0
141
40.0
290
     0
  0
SCALE
  5
D9
102
{ACAD_REACTORS
330
CE
102
}
330
CE
100
AcDbScale
 70
     0
300
1:50
140
1.0
141
50.0
290
     0
  0
SCALE
  5
DA
102
{ACAD_REACTORS
330
CE
102
}
330
CE
100
AcDbScale
 70
     0
300
1:100
140
1.0
141
100.0
290
     0
  0
SCALE
  5
DB
102
{ACAD_REACTORS
330
CE
102
}
330
CE
100
AcDbScale
 70
     0
300
2:1
140
2.0
141
1.0
290
     0
  0
SCALE
  5
DC
102
{ACAD_REACTORS
330
CE
102
}
330
CE
100
AcDbScale
 70
     0
300
4:1
140
4.0
141
1.0
290
     0
  0
SCALE
  5
DD
102
{ACAD_REACTORS
330
CE
102
}
330
CE
100
AcDbScale
 70
     0
300
8:1
140
8.0
141
1.0
290
     0
  0
SCALE
  5
DE
102
{ACAD_REACTORS
330
CE
102
}
330
CE
100
AcDbScale
 70
     0
300
10:1
140
10.0
141
1.0
290
     0
  0
SCALE
  5
DF
102
{ACAD_REACTORS
330
CE
102
}
330
CE
100
AcDbScale
 70
     0
300
100:1
140
100.0
141
1.0
290
     0
  0
SCALE
  5
E0
102
{ACAD_REACTORS
330
CE
102
}
330
CE
100
AcDbScale
 70
     0
300
1/128" = 1'-0"
140
0.0078125
141
12.0
290
     0
  0
SCALE
  5
E1
102
{ACAD_REACTORS
330
CE
102
}
330
CE
100
AcDbScale
 70
     0
300
1/64" = 1'-0"
140
0.015625
141
12.0
290
     0
  0
SCALE
  5
E2
102
{ACAD_REACTORS
330
CE
102
}
330
CE
100
AcDbScale
 70
     0
300
1/32" = 1'-0"
140
0.03125
141
12.0
290
     0
  0
SCALE
  5
E3
102
{ACAD_REACTORS
330
CE
102
}
330
CE
100
AcDbScale
 70
     0
300
1/16" = 1'-0"
140
0.0625
141
12.0
290
     0
  0
SCALE
  5
E4
102
{ACAD_REACTORS
330
CE
102
}
330
CE
100
AcDbScale
 70
     0
300
3/32" = 1'-0"
140
0.09375
141
12.0
290
     0
  0
SCALE
  5
E5
102
{ACAD_REACTORS
330
CE
102
}
330
CE
100
AcDbScale
 70
     0
300
1/8" = 1'-0"
140
0.125
141
12.0
290
     0
  0
SCALE
  5
E6
102
{ACAD_REACTORS
330
CE
102
}
330
CE
100
AcDbScale
 70
     0
300
3/16" = 1'-0"
140
0.1875
141
12.0
290
     0
  0
SCALE
  5
E7
102
{ACAD_REACTORS
330
CE
102
}
330
CE
100
AcDbScale
 70
     0
300
1/4" = 1'-0"
140
0.25
141
12.0
290
     0
  0
SCALE
  5
E8
102
{ACAD_REACTORS
330
CE
102
}
330
CE
100
AcDbScale
 70
     0
300
3/8" = 1'-0"
140
0.375
141
12.0
290
     0
  0
SCALE
  5
E9
102
{ACAD_REACTORS
330
CE
102
}
330
CE
100
AcDbScale
 70
     0
300
1/2" = 1'-0"
140
0.5
141
12.0
290
     0
  0
SCALE
  5
EA
102
{ACAD_REACTORS
330
CE
102
}
330
CE
100
AcDbScale
 70
     0
300
3/4" = 1'-0"
140
0.75
141
12.0
290
     0
  0
SCALE
  5
EB
102
{ACAD_REACTORS
330
CE
102
}
330
CE
100
AcDbScale
 70
     0
300
1" = 1'-0"
140
1.0
141
12.0
290
     0
  0
SCALE
  5
EC
102
{ACAD_REACTORS
330
CE
102
}
330
CE
100
AcDbScale
 70
     0
300
1-1/2" = 1'-0"
140
1.5
141
12.0
290
     0
  0
SCALE
  5
ED
102
{ACAD_REACTORS
330
CE
102
}
330
CE
100
AcDbScale
 70
     0
300
3" = 1'-0"
140
3.0
141
12.0
290
     0
  0
SCALE
  5
EE
102
{ACAD_REACTORS
330
CE
102
}
330
CE
100
AcDbScale
 70
     0
300
6" = 1'-0"
140
6.0
141
12.0
290
     0
  0
SCALE
  5
EF
102
{ACAD_REACTORS
330
CE
102
}
330
CE
100
AcDbScale
 70
     0
300
1'-0" = 1'-0"
140
12.0
141
12.0
290
     0
  0
VISUALSTYLE
  5
2F
102
{ACAD_REACTORS
330
2A
102
}
102
{ACAD_XDICTIONARY
360
FC
102
}
330
2A
100
AcDbVisualStyle
  2
2dWireframe
 70
     4
 71
     0
 72
     2
 73
     0
 90
        0
 40
-0.6
 41
-30.0
 62
     5
 63
     7
421
 16777215
 74
     1
 91
        4
 64
     7
 65
   257
 75
     1
175
     1
 42
1.0
 92
        0
 66
   257
 43
1.0
 76
     1
 77
     6
 78
     2
 67
     7
 79
     5
170
     0
171
     0
290
     0
174
     0
 93
        1
 44
0.0
173
     0
291
     0
 45
0.0
1001
ACAD
1000
AcDbSavedByObjectVersion
1070
     0
  0
VISUALSTYLE
  5
31
102
{ACAD_REACTORS
330
2A
102
}
102
{ACAD_XDICTIONARY
360
100
102
}
330
2A
100
AcDbVisualStyle
  2
3D Hidden
 70
     6
 71
     1
 72
     2
 73
     2
 90
        0
 40
-0.6
 41
-30.0
 62
     5
 63
     7
421
 16777215
 74
     2
 91
        2
 64
     7
 65
   257
 75
     2
175
     1
 42
40.0
 92
        0
 66
   257
 43
1.0
 76
     1
 77
     6
 78
     2
 67
     7
 79
     3
170
     0
171
     0
290
     0
174
     0
 93
        1
 44
0.0
173
     0
291
     0
 45
0.0
1001
ACAD
1000
AcDbSavedByObjectVersion
1070
     0
  0
VISUALSTYLE
  5
30
102
{ACAD_REACTORS
330
2A
102
}
102
{ACAD_XDICTIONARY
360
FE
102
}
330
2A
100
AcDbVisualStyle
  2
3dWireframe
 70
     5
 71
     0
 72
     2
 73
     0
 90
        0
 40
-0.6
 41
-30.0
 62
     5
 63
     7
421
 16777215
 74
     1
 91
        4
 64
     7
 65
   257
 75
     1
175
     1
 42
1.0
 92
        0
 66
   257
 43
1.0
 76
     1
 77
     6
 78
     2
 67
     7
 79
     5
170
     0
171
     0
290
     0
174
     0
 93
        1
 44
0.0
173
     0
291
     0
 45
0.0
1001
ACAD
1000
AcDbSavedByObjectVersion
1070
     0
  0
VISUALSTYLE
  5
32
102
{ACAD_REACTORS
330
2A
102
}
102
{ACAD_XDICTIONARY
360
102
102
}
330
2A
100
AcDbVisualStyle
  2
Basic
 70
     7
 71
     1
 72
     0
 73
     1
 90
        0
 40
-0.6
 41
-30.0
 62
     5
 63
     7
421
 16777215
 74
     0
 91
        4
 64
     7
 65
   257
 75
     1
175
     1
 42
1.0
 92
        8
 66
     7
 43
1.0
 76
     1
 77
     6
 78
     2
 67
     7
 79
     5
170
     0
171
     0
290
     0
174
     0
 93
        1
 44
0.0
173
     0
291
     1
 45
0.0
1001
ACAD
1000
AcDbSavedByObjectVersion
1070
     0
  0
VISUALSTYLE
  5
36
102
{ACAD_REACTORS
330
2A
102
}
102
{ACAD_XDICTIONARY
360
10A
102
}
330
2A
100
AcDbVisualStyle
  2
Brighten
 70
    12
 71
     2
 72
     2
 73
     0
 90
        0
 40
-0.6
 41
-30.0
 62
     5
 63
     7
421
 16777215
 74
     1
 91
        4
 64
     7
 65
   257
 75
     1
175
     1
 42
1.0
 92
        8
 66
     7
 43
1.0
 76
     1
 77
     6
 78
     2
 67
     7
 79
     5
170
     0
171
     0
290
     0
174
     0
 93
        1
 44
50.0
173
     0
291
     1
 45
0.0
1001
ACAD
1000
AcDbSavedByObjectVersion
1070
     0
  0
VISUALSTYLE
  5
3A
102
{ACAD_REACTORS
330
2A
102
}
102
{ACAD_XDICTIONARY
360
112
102
}
330
2A
100
AcDbVisualStyle
  2
ColorChange
 70
    16
 71
     2
 72
     2
 73
     3
 90
        0
 40
-0.6
 41
-30.0
 62
     5
 63
     8
421
  8421504
 74
     1
 91
        4
 64
     7
 65
   257
 75
     1
175
     1
 42
1.0
 92
        8
 66
     8
424
  8421504
 43
1.0
 76
     1
 77
     6
 78
     2
 67
     7
 79
     5
170
     0
171
     0
290
     0
174
     0
 93
        1
 44
0.0
173
     0
291
     1
 45
0.0
1001
ACAD
1000
AcDbSavedByObjectVersion
1070
     0
  0
VISUALSTYLE
  5
34
102
{ACAD_REACTORS
330
2A
102
}
102
{ACAD_XDICTIONARY
360
106
102
}
330
2A
100
AcDbVisualStyle
  2
Conceptual
 70
     9
 71
     3
 72
     2
 73
     0
 90
        0
 40
-0.6
 41
-30.0
 62
     5
 63
     7
421
 16777215
 74
     2
 91
        2
 64
     7
 65
   257
 75
     1
175
     1
 42
40.0
 92
        8
 66
     7
 43
1.0
 76
     1
 77
     6
 78
     2
 67
     7
 79
     3
170
     0
171
     0
290
     0
174
     0
 93
        1
 44
0.0
173
     0
291
     0
 45
0.0
1001
ACAD
1000
AcDbSavedByObjectVersion
1070
     0
  0
VISUALSTYLE
  5
35
102
{ACAD_REACTORS
330
2A
102
}
102
{ACAD_XDICTIONARY
360
108
102
}
330
2A
100
AcDbVisualStyle
  2
Dim
 70
    11
 71
     2
 72
     2
 73
     0
 90
        0
 40
-0.6
 41
-30.0
 62
     5
 63
     7
421
 16777215
 74
     1
 91
        4
 64
     7
 65
   257
 75
     1
175
     1
 42
1.0
 92
        8
 66
     7
 43
1.0
 76
     1
 77
     6
 78
     2
 67
     7
 79
     5
170
     0
171
     0
290
     0
174
     0
 93
        1
 44
-50.0
173
     0
291
     1
 45
0.0
1001
ACAD
1000
AcDbSavedByObjectVersion
1070
     0
  0
VISUALSTYLE
  5
39
102
{ACAD_REACTORS
330
2A
102
}
102
{ACAD_XDICTIONARY
360
110
102
}
330
2A
100
AcDbVisualStyle
  2
Facepattern
 70
    15
 71
     2
 72
     2
 73
     0
 90
        0
 40
-0.6
 41
-30.0
 62
     5
 63
     7
421
 16777215
 74
     1
 91
        4
 64
     7
 65
   257
 75
     1
175
     1
 42
1.0
 92
        8
 66
     7
 43
1.0
 76
     1
 77
     6
 78
     2
 67
     7
 79
     5
170
     0
171
     0
290
     0
174
     0
 93
        1
 44
0.0
173
     0
291
     1
 45
0.0
1001
ACAD
1000
AcDbSavedByObjectVersion
1070
     0
  0
VISUALSTYLE
  5
2B
102
{ACAD_REACTORS
330
2A
102
}
102
{ACAD_XDICTIONARY
360
F4
102
}
330
2A
100
AcDbVisualStyle
  2
Flat
 70
     0
 71
     2
 72
     1
 73
     1
 90
        2
 40
-0.6
 41
30.0
 62
     5
 63
     7
421
 16777215
 74
     0
 91
        4
 64
     7
 65
   257
 75
     1
175
     1
 42
1.0
 92
        8
 66
     7
 43
1.0
 76
     1
 77
     6
 78
     2
 67
     7
 79
     5
170
     0
171
     0
290
     0
174
     0
 93
       13
 44
0.0
173
     0
291
     1
 45
0.0
1001
ACAD
1000
AcDbSavedByObjectVersion
1070
     0
  0
VISUALSTYLE
  5
2C
102
{ACAD_REACTORS
330
2A
102
}
102
{ACAD_XDICTIONARY
360
F6
102
}
330
2A
100
AcDbVisualStyle
  2
FlatWithEdges
 70
     1
 71
     2
 72
     1
 73
     1
 90
        2
 40
-0.6
 41
30.0
 62
     5
 63
     7
421
 16777215
 74
     1
 91
        4
 64
     7
 65
   257
 75
     1
175
     1
 42
1.0
 92
        0
 66
   257
 43
1.0
 76
     1
 77
     6
 78
     2
 67
     7
 79
     5
170
     0
171
     0
290
     0
174
     0
 93
       13
 44
0.0
173
     0
291
     1
 45
0.0
1001
ACAD
1000
AcDbSavedByObjectVersion
1070
     0
  0
VISUALSTYLE
  5
2D
102
{ACAD_REACTORS
330
2A
102
}
102
{ACAD_XDICTIONARY
360
F8
102
}
330
2A
100
AcDbVisualStyle
  2
Gouraud
 70
     2
 71
     2
 72
     2
 73
     1
 90
        2
 40
-0.6
 41
30.0
 62
     5
 63
     7
421
 16777215
 74
     0
 91
        4
 64
     7
 65
   257
 75
     1
175
     1
 42
1.0
 92
        0
 66
     7
 43
1.0
 76
     1
 77
     6
 78
     2
 67
     7
 79
     5
170
     0
171
     0
290
     0
174
     0
 93
       13
 44
0.0
173
     0
291
     1
 45
0.0
1001
ACAD
1000
AcDbSavedByObjectVersion
1070
     0
  0
VISUALSTYLE
  5
2E
102
{ACAD_REACTORS
330
2A
102
}
102
{ACAD_XDICTIONARY
360
FA
102
}
330
2A
100
AcDbVisualStyle
  2
GouraudWithEdges
 70
     3
 71
     2
 72
     2
 73
     1
 90
        2
 40
-0.6
 41
30.0
 62
     5
 63
     7
421
 16777215
 74
     1
 91
        4
 64
     7
 65
   257
 75
     1
175
     1
 42
1.0
 92
        0
 66
   257
 43
1.0
 76
     1
 77
     6
 78
     2
 67
     7
 79
     5
170
     0
171
     0
290
     0
174
     0
 93
       13
 44
0.0
173
     0
291
     1
 45
0.0
1001
ACAD
1000
AcDbSavedByObjectVersion
1070
     0
  0
VISUALSTYLE
  5
38
102
{ACAD_REACTORS
330
2A
102
}
102
{ACAD_XDICTIONARY
360
10E
102
}
330
2A
100
AcDbVisualStyle
  2
Linepattern
 70
    14
 71
     2
 72
     2
 73
     0
 90
        0
 40
-0.6
 41
-30.0
 62
     5
 63
     7
421
 16777215
 74
     1
 91
        4
 64
     7
 65
   257
 75
     7
175
     7
 42
1.0
 92
        8
 66
     7
 43
1.0
 76
     1
 77
     6
 78
     2
 67
     7
 79
     5
170
     0
171
     0
290
     0
174
     0
 93
        1
 44
0.0
173
     0
291
     1
 45
0.0
1001
ACAD
1000
AcDbSavedByObjectVersion
1070
     0
  0
VISUALSTYLE
  5
33
102
{ACAD_REACTORS
330
2A
102
}
102
{ACAD_XDICTIONARY
360
104
102
}
330
2A
100
AcDbVisualStyle
  2
Realistic
 70
     8
 71
     2
 72
     2
 73
     0
 90
        0
 40
-0.6
 41
-30.0
 62
     5
 63
     7
421
 16777215
 74
     1
 91
        0
 64
     7
 65
   257
 75
     1
175
     1
 42
1.0
 92
        8
 66
     8
424
  7895160
 43
1.0
 76
     1
 77
     6
 78
     2
 67
     7
 79
     5
170
     0
171
     0
290
     0
174
     0
 93
       13
 44
0.0
173
     0
291
     0
 45
0.0
1001
ACAD
1000
AcDbSavedByObjectVersion
1070
     0
  0
VISUALSTYLE
  5
37
102
{ACAD_REACTORS
330
2A
102
}
102
{ACAD_XDICTIONARY
360
10C
102
}
330
2A
100
AcDbVisualStyle
  2
Thicken
 70
    13
 71
     2
 72
     2
 73
     0
 90
        0
 40
-0.6
 41
-30.0
 62
     5
 63
     7
421
 16777215
 74
     1
 91
        4
 64
     7
 65
   257
 75
     1
175
     1
 42
1.0
 92
       12
 66
     7
 43
1.0
 76
     1
 77
     6
 78
     2
 67
     7
 79
     5
170
     0
171
     0
290
     0
174
     0
 93
        1
 44
0.0
173
     0
291
     1
 45
0.0
1001
ACAD
1000
AcDbSavedByObjectVersion
1070
     0
  0
DICTIONARYVAR
  5
F3
102
{ACAD_REACTORS
330
F2
102
}
330
F2
100
DictionaryVariables
280
     0
  1
1:1
  0
DICTIONARYVAR
  5
11C
102
{ACAD_REACTORS
330
F2
102
}
330
F2
100
DictionaryVariables
280
     0
  1
0
  0
XRECORD
  5
F1
102
{ACAD_REACTORS
330
F0
102
}
330
F0
100
AcDbXrecord
280
     1
1000
This DWG file was created in ArchiCAD(TM)®
  0
DICTIONARY
  5
116
330
3D
100
AcDbDictionary
280
     1
281
     1
  3
ACAD_XREC_ROUNDTRIP
360
117
  0
DICTIONARY
  5
114
330
3C
100
AcDbDictionary
280
     1
281
     1
  3
ACAD_XREC_ROUNDTRIP
360
115
  0
DICTIONARY
  5
118
330
3E
100
AcDbDictionary
280
     1
281
     1
  3
ACAD_XREC_ROUNDTRIP
360
119
  0
DICTIONARY
  5
FC
330
2F
100
AcDbDictionary
280
     1
281
     1
  3
ACAD_XREC_ROUNDTRIP
360
FD
  0
DICTIONARY
  5
100
330
31
100
AcDbDictionary
280
     1
281
     1
  3
ACAD_XREC_ROUNDTRIP
360
101
  0
DICTIONARY
  5
FE
330
30
100
AcDbDictionary
280
     1
281
     1
  3
ACAD_XREC_ROUNDTRIP
360
FF
  0
DICTIONARY
  5
102
330
32
100
AcDbDictionary
280
     1
281
     1
  3
ACAD_XREC_ROUNDTRIP
360
103
  0
DICTIONARY
  5
10A
330
36
100
AcDbDictionary
280
     1
281
     1
  3
ACAD_XREC_ROUNDTRIP
360
10B
  0
DICTIONARY
  5
112
330
3A
100
AcDbDictionary
280
     1
281
     1
  3
ACAD_XREC_ROUNDTRIP
360
113
  0
DICTIONARY
  5
106
330
34
100
AcDbDictionary
280
     1
281
     1
  3
ACAD_XREC_ROUNDTRIP
360
107
  0
DICTIONARY
  5
108
330
35
100
AcDbDictionary
280
     1
281
     1
  3
ACAD_XREC_ROUNDTRIP
360
109
  0
DICTIONARY
  5
110
330
39
100
AcDbDictionary
280
     1
281
     1
  3
ACAD_XREC_ROUNDTRIP
360
111
  0
DICTIONARY
  5
F4
330
2B
100
AcDbDictionary
280
     1
281
     1
  3
ACAD_XREC_ROUNDTRIP
360
F5
  0
DICTIONARY
  5
F6
330
2C
100
AcDbDictionary
280
     1
281
     1
  3
ACAD_XREC_ROUNDTRIP
360
F7
  0
DICTIONARY
  5
F8
330
2D
100
AcDbDictionary
280
     1
281
     1
  3
ACAD_XREC_ROUNDTRIP
360
F9
  0
DICTIONARY
  5
FA
330
2E
100
AcDbDictionary
280
     1
281
     1
  3
ACAD_XREC_ROUNDTRIP
360
FB
  0
DICTIONARY
  5
10E
330
38
100
AcDbDictionary
280
     1
281
     1
  3
ACAD_XREC_ROUNDTRIP
360
10F
  0
DICTIONARY
  5
104
330
33
100
AcDbDictionary
280
     1
281
     1
  3
ACAD_XREC_ROUNDTRIP
360
105
  0
DICTIONARY
  5
10C
330
37
100
AcDbDictionary
280
     1
281
     1
  3
ACAD_XREC_ROUNDTRIP
360
10D
  0
XRECORD
  5
117
102
{ACAD_REACTORS
330
116
102
}
330
116
100
AcDbXrecord
280
     1
102
MATERIAL
148
0.0
149
0.0
149
0.0
 93
        0
 94
      127
282
     0
 72
     1
 77
     1
171
     1
175
     1
179
     1
273
     0
  0
XRECORD
  5
115
102
{ACAD_REACTORS
330
114
102
}
330
114
100
AcDbXrecord
280
     1
102
MATERIAL
148
0.0
149
0.0
149
0.0
 93
        0
 94
      127
282
     0
 72
     1
 77
     1
171
     1
175
     1
179
     1
273
     0
  0
XRECORD
  5
119
102
{ACAD_REACTORS
330
118
102
}
330
118
100
AcDbXrecord
280
     1
102
MATERIAL
148
0.0
149
0.0
149
0.0
 93
        0
 94
      127
282
     0
 72
     1
 77
     1
171
     1
175
     1
179
     1
273
     0
  0
XRECORD
  5
FD
102
{ACAD_REACTORS
330
FC
102
}
330
FC
100
AcDbXrecord
280
     1
102
RTVSPropertyOp0
 70
     1
102
RTVSPropertyOp1
 70
     1
102
RTVSPropertyOp2
 70
     1
102
RTVSPropertyOp3
 70
     1
102
RTVSPropertyOp4
 70
     1
102
RTVSPropertyOp5
 70
     1
102
RTVSPropertyOp6
 70
     1
102
RTVSPropertyOp7
 70
     1
102
RTVSPropertyOp8
 70
     1
102
RTVSPropertyOp9
 70
     1
102
RTVSPropertyOp10
 70
     1
102
RTVSPropertyOp11
 70
     1
102
RTVSPropertyOp12
 70
     1
102
RTVSPropertyOp13
 70
     1
102
RTVSPropertyOp14
 70
     1
102
RTVSPropertyOp15
 70
     1
102
RTVSPropertyOp16
 70
     1
102
RTVSPropertyOp17
 70
     1
102
RTVSPropertyOp18
 70
     1
102
RTVSPropertyOp19
 70
     1
102
RTVSPropertyOp20
 70
     1
102
RTVSPropertyOp21
 70
     1
102
RTVSPropertyOp22
 70
     1
102
RTVSPropertyOp23
 70
     1
102
RTVSPropertyOp24
 70
     1
102
RTVSPropertyOp25
 70
     1
102
RTVSPropertyOp26
 70
     1
102
RTVSPropertyOp27
 70
     1
102
RTVSPropertyOp28
 70
     1
102
RTVSPropertyOp29
 70
     1
102
RTVSPropertyOp30
 70
     1
102
RTVSPropertyOp31
 70
     1
102
RTVSPropertyOp32
 70
     1
  0
XRECORD
  5
101
102
{ACAD_REACTORS
330
100
102
}
330
100
100
AcDbXrecord
280
     1
102
RTVSPropertyOp0
 70
     1
102
RTVSPropertyOp1
 70
     1
102
RTVSPropertyOp2
 70
     1
102
RTVSPropertyOp3
 70
     1
102
RTVSPropertyOp4
 70
     1
102
RTVSPropertyOp5
 70
     1
102
RTVSPropertyOp6
 70
     1
102
RTVSPropertyOp7
 70
     1
102
RTVSPropertyOp8
 70
     1
102
RTVSPropertyOp9
 70
     1
102
RTVSPropertyOp10
 70
     1
102
RTVSPropertyOp11
 70
     1
102
RTVSPropertyOp12
 70
     1
102
RTVSPropertyOp13
 70
     1
102
RTVSPropertyOp14
 70
     1
102
RTVSPropertyOp15
 70
     1
102
RTVSPropertyOp16
 70
     1
102
RTVSPropertyOp17
 70
     1
102
RTVSPropertyOp18
 70
     1
102
RTVSPropertyOp19
 70
     1
102
RTVSPropertyOp20
 70
     1
102
RTVSPropertyOp21
 70
     1
102
RTVSPropertyOp22
 70
     1
102
RTVSPropertyOp23
 70
     1
102
RTVSPropertyOp24
 70
     1
102
RTVSPropertyOp25
 70
     1
102
RTVSPropertyOp26
 70
     1
102
RTVSPropertyOp27
 70
     1
102
RTVSPropertyOp28
 70
     1
102
RTVSPropertyOp29
 70
     1
102
RTVSPropertyOp30
 70
     1
102
RTVSPropertyOp31
 70
     1
102
RTVSPropertyOp32
 70
     1
  0
XRECORD
  5
FF
102
{ACAD_REACTORS
330
FE
102
}
330
FE
100
AcDbXrecord
280
     1
102
RTVSPropertyOp0
 70
     1
102
RTVSPropertyOp1
 70
     1
102
RTVSPropertyOp2
 70
     1
102
RTVSPropertyOp3
 70
     1
102
RTVSPropertyOp4
 70
     1
102
RTVSPropertyOp5
 70
     1
102
RTVSPropertyOp6
 70
     1
102
RTVSPropertyOp7
 70
     1
102
RTVSPropertyOp8
 70
     1
102
RTVSPropertyOp9
 70
     1
102
RTVSPropertyOp10
 70
     1
102
RTVSPropertyOp11
 70
     1
102
RTVSPropertyOp12
 70
     1
102
RTVSPropertyOp13
 70
     1
102
RTVSPropertyOp14
 70
     1
102
RTVSPropertyOp15
 70
     1
102
RTVSPropertyOp16
 70
     1
102
RTVSPropertyOp17
 70
     1
102
RTVSPropertyOp18
 70
     1
102
RTVSPropertyOp19
 70
     1
102
RTVSPropertyOp20
 70
     1
102
RTVSPropertyOp21
 70
     1
102
RTVSPropertyOp22
 70
     1
102
RTVSPropertyOp23
 70
     1
102
RTVSPropertyOp24
 70
     1
102
RTVSPropertyOp25
 70
     1
102
RTVSPropertyOp26
 70
     1
102
RTVSPropertyOp27
 70
     1
102
RTVSPropertyOp28
 70
     1
102
RTVSPropertyOp29
 70
     1
102
RTVSPropertyOp30
 70
     1
102
RTVSPropertyOp31
 70
     1
102
RTVSPropertyOp32
 70
     1
  0
XRECORD
  5
103
102
{ACAD_REACTORS
330
102
102
}
330
102
100
AcDbXrecord
280
     1
102
RTVSPropertyOp0
 70
     1
102
RTVSPropertyOp1
 70
     1
102
RTVSPropertyOp2
 70
     1
102
RTVSPropertyOp3
 70
     1
102
RTVSPropertyOp4
 70
     1
102
RTVSPropertyOp5
 70
     1
102
RTVSPropertyOp6
 70
     1
102
RTVSPropertyOp7
 70
     1
102
RTVSPropertyOp8
 70
     1
102
RTVSPropertyOp9
 70
     1
102
RTVSPropertyOp10
 70
     1
102
RTVSPropertyOp11
 70
     1
102
RTVSPropertyOp12
 70
     1
102
RTVSPropertyOp13
 70
     1
102
RTVSPropertyOp14
 70
     1
102
RTVSPropertyOp15
 70
     1
102
RTVSPropertyOp16
 70
     1
102
RTVSPropertyOp17
 70
     1
102
RTVSPropertyOp18
 70
     1
102
RTVSPropertyOp19
 70
     1
102
RTVSPropertyOp20
 70
     1
102
RTVSPropertyOp21
 70
     1
102
RTVSPropertyOp22
 70
     1
102
RTVSPropertyOp23
 70
     1
102
RTVSPropertyOp24
 70
     1
102
RTVSPropertyOp25
 70
     1
102
RTVSPropertyOp26
 70
     1
102
RTVSPropertyOp27
 70
     1
102
RTVSPropertyOp28
 70
     1
102
RTVSPropertyOp29
 70
     1
102
RTVSPropertyOp30
 70
     1
102
RTVSPropertyOp31
 70
     1
102
RTVSPropertyOp32
 70
     1
  0
XRECORD
  5
10B
102
{ACAD_REACTORS
330
10A
102
}
330
10A
100
AcDbXrecord
280
     1
102
RTVSPropertyOp0
 70
     1
102
RTVSPropertyOp1
 70
     1
102
RTVSPropertyOp2
 70
     1
102
RTVSPropertyOp3
 70
     1
102
RTVSPropertyOp4
 70
     1
102
RTVSPropertyOp5
 70
     1
102
RTVSPropertyOp6
 70
     1
102
RTVSPropertyOp7
 70
     1
102
RTVSPropertyOp8
 70
     1
102
RTVSPropertyOp9
 70
     1
102
RTVSPropertyOp10
 70
     1
102
RTVSPropertyOp11
 70
     1
102
RTVSPropertyOp12
 70
     1
102
RTVSPropertyOp13
 70
     1
102
RTVSPropertyOp14
 70
     1
102
RTVSPropertyOp15
 70
     1
102
RTVSPropertyOp16
 70
     1
102
RTVSPropertyOp17
 70
     1
102
RTVSPropertyOp18
 70
     1
102
RTVSPropertyOp19
 70
     1
102
RTVSPropertyOp20
 70
     1
102
RTVSPropertyOp21
 70
     1
102
RTVSPropertyOp22
 70
     1
102
RTVSPropertyOp23
 70
     1
102
RTVSPropertyOp24
 70
     1
102
RTVSPropertyOp25
 70
     1
102
RTVSPropertyOp26
 70
     1
102
RTVSPropertyOp27
 70
     1
102
RTVSPropertyOp28
 70
     1
102
RTVSPropertyOp29
 70
     1
102
RTVSPropertyOp30
 70
     1
102
RTVSPropertyOp31
 70
     1
102
RTVSPropertyOp32
 70
     1
  0
XRECORD
  5
113
102
{ACAD_REACTORS
330
112
102
}
330
112
100
AcDbXrecord
280
     1
102
RTVSPropertyOp0
 70
     1
102
RTVSPropertyOp1
 70
     1
102
RTVSPropertyOp2
 70
     1
102
RTVSPropertyOp3
 70
     1
102
RTVSPropertyOp4
 70
     1
102
RTVSPropertyOp5
 70
     1
102
RTVSPropertyOp6
 70
     1
102
RTVSPropertyOp7
 70
     1
102
RTVSPropertyOp8
 70
     1
102
RTVSPropertyOp9
 70
     1
102
RTVSPropertyOp10
 70
     1
102
RTVSPropertyOp11
 70
     1
102
RTVSPropertyOp12
 70
     1
102
RTVSPropertyOp13
 70
     1
102
RTVSPropertyOp14
 70
     1
102
RTVSPropertyOp15
 70
     1
102
RTVSPropertyOp16
 70
     1
102
RTVSPropertyOp17
 70
     1
102
RTVSPropertyOp18
 70
     1
102
RTVSPropertyOp19
 70
     1
102
RTVSPropertyOp20
 70
     1
102
RTVSPropertyOp21
 70
     1
102
RTVSPropertyOp22
 70
     1
102
RTVSPropertyOp23
 70
     1
102
RTVSPropertyOp24
 70
     1
102
RTVSPropertyOp25
 70
     1
102
RTVSPropertyOp26
 70
     1
102
RTVSPropertyOp27
 70
     1
102
RTVSPropertyOp28
 70
     1
102
RTVSPropertyOp29
 70
     1
102
RTVSPropertyOp30
 70
     1
102
RTVSPropertyOp31
 70
     1
102
RTVSPropertyOp32
 70
     1
  0
XRECORD
  5
107
102
{ACAD_REACTORS
330
106
102
}
330
106
100
AcDbXrecord
280
     1
102
RTVSPropertyOp0
 70
     1
102
RTVSPropertyOp1
 70
     1
102
RTVSPropertyOp2
 70
     1
102
RTVSPropertyOp3
 70
     1
102
RTVSPropertyOp4
 70
     1
102
RTVSPropertyOp5
 70
     1
102
RTVSPropertyOp6
 70
     1
102
RTVSPropertyOp7
 70
     1
102
RTVSPropertyOp8
 70
     1
102
RTVSPropertyOp9
 70
     1
102
RTVSPropertyOp10
 70
     1
102
RTVSPropertyOp11
 70
     1
102
RTVSPropertyOp12
 70
     1
102
RTVSPropertyOp13
 70
     1
102
RTVSPropertyOp14
 70
     1
102
RTVSPropertyOp15
 70
     1
102
RTVSPropertyOp16
 70
     1
102
RTVSPropertyOp17
 70
     1
102
RTVSPropertyOp18
 70
     1
102
RTVSPropertyOp19
 70
     1
102
RTVSPropertyOp20
 70
     1
102
RTVSPropertyOp21
 70
     1
102
RTVSPropertyOp22
 70
     1
102
RTVSPropertyOp23
 70
     1
102
RTVSPropertyOp24
 70
     1
102
RTVSPropertyOp25
 70
     1
102
RTVSPropertyOp26
 70
     1
102
RTVSPropertyOp27
 70
     1
102
RTVSPropertyOp28
 70
     1
102
RTVSPropertyOp29
 70
     1
102
RTVSPropertyOp30
 70
     1
102
RTVSPropertyOp31
 70
     1
102
RTVSPropertyOp32
 70
     1
  0
XRECORD
  5
109
102
{ACAD_REACTORS
330
108
102
}
330
108
100
AcDbXrecord
280
     1
102
RTVSPropertyOp0
 70
     1
102
RTVSPropertyOp1
 70
     1
102
RTVSPropertyOp2
 70
     1
102
RTVSPropertyOp3
 70
     1
102
RTVSPropertyOp4
 70
     1
102
RTVSPropertyOp5
 70
     1
102
RTVSPropertyOp6
 70
     1
102
RTVSPropertyOp7
 70
     1
102
RTVSPropertyOp8
 70
     1
102
RTVSPropertyOp9
 70
     1
102
RTVSPropertyOp10
 70
     1
102
RTVSPropertyOp11
 70
     1
102
RTVSPropertyOp12
 70
     1
102
RTVSPropertyOp13
 70
     1
102
RTVSPropertyOp14
 70
     1
102
RTVSPropertyOp15
 70
     1
102
RTVSPropertyOp16
 70
     1
102
RTVSPropertyOp17
 70
     1
102
RTVSPropertyOp18
 70
     1
102
RTVSPropertyOp19
 70
     1
102
RTVSPropertyOp20
 70
     1
102
RTVSPropertyOp21
 70
     1
102
RTVSPropertyOp22
 70
     1
102
RTVSPropertyOp23
 70
     1
102
RTVSPropertyOp24
 70
     1
102
RTVSPropertyOp25
 70
     1
102
RTVSPropertyOp26
 70
     1
102
RTVSPropertyOp27
 70
     1
102
RTVSPropertyOp28
 70
     1
102
RTVSPropertyOp29
 70
     1
102
RTVSPropertyOp30
 70
     1
102
RTVSPropertyOp31
 70
     1
102
RTVSPropertyOp32
 70
     1
  0
XRECORD
  5
111
102
{ACAD_REACTORS
330
110
102
}
330
110
100
AcDbXrecord
280
     1
102
RTVSPropertyOp0
 70
     1
102
RTVSPropertyOp1
 70
     1
102
RTVSPropertyOp2
 70
     1
102
RTVSPropertyOp3
 70
     1
102
RTVSPropertyOp4
 70
     1
102
RTVSPropertyOp5
 70
     1
102
RTVSPropertyOp6
 70
     1
102
RTVSPropertyOp7
 70
     1
102
RTVSPropertyOp8
 70
     1
102
RTVSPropertyOp9
 70
     1
102
RTVSPropertyOp10
 70
     1
102
RTVSPropertyOp11
 70
     1
102
RTVSPropertyOp12
 70
     1
102
RTVSPropertyOp13
 70
     1
102
RTVSPropertyOp14
 70
     1
102
RTVSPropertyOp15
 70
     1
102
RTVSPropertyOp16
 70
     1
102
RTVSPropertyOp17
 70
     1
102
RTVSPropertyOp18
 70
     1
102
RTVSPropertyOp19
 70
     1
102
RTVSPropertyOp20
 70
     1
102
RTVSPropertyOp21
 70
     1
102
RTVSPropertyOp22
 70
     1
102
RTVSPropertyOp23
 70
     1
102
RTVSPropertyOp24
 70
     1
102
RTVSPropertyOp25
 70
     1
102
RTVSPropertyOp26
 70
     1
102
RTVSPropertyOp27
 70
     1
102
RTVSPropertyOp28
 70
     1
102
RTVSPropertyOp29
 70
     1
102
RTVSPropertyOp30
 70
     1
102
RTVSPropertyOp31
 70
     1
102
RTVSPropertyOp32
 70
     1
  0
XRECORD
  5
F5
102
{ACAD_REACTORS
330
F4
102
}
330
F4
100
AcDbXrecord
280
     1
102
RTVSPropertyOp0
 70
     1
102
RTVSPropertyOp1
 70
     1
102
RTVSPropertyOp2
 70
     1
102
RTVSPropertyOp3
 70
     1
102
RTVSPropertyOp4
 70
     1
102
RTVSPropertyOp5
 70
     1
102
RTVSPropertyOp6
 70
     1
102
RTVSPropertyOp7
 70
     1
102
RTVSPropertyOp8
 70
     1
102
RTVSPropertyOp9
 70
     1
102
RTVSPropertyOp10
 70
     1
102
RTVSPropertyOp11
 70
     1
102
RTVSPropertyOp12
 70
     1
102
RTVSPropertyOp13
 70
     1
102
RTVSPropertyOp14
 70
     1
102
RTVSPropertyOp15
 70
     1
102
RTVSPropertyOp16
 70
     1
102
RTVSPropertyOp17
 70
     1
102
RTVSPropertyOp18
 70
     1
102
RTVSPropertyOp19
 70
     1
102
RTVSPropertyOp20
 70
     1
102
RTVSPropertyOp21
 70
     1
102
RTVSPropertyOp22
 70
     1
102
RTVSPropertyOp23
 70
     1
102
RTVSPropertyOp24
 70
     1
102
RTVSPropertyOp25
 70
     1
102
RTVSPropertyOp26
 70
     1
102
RTVSPropertyOp27
 70
     1
102
RTVSPropertyOp28
 70
     1
102
RTVSPropertyOp29
 70
     1
102
RTVSPropertyOp30
 70
     1
102
RTVSPropertyOp31
 70
     1
102
RTVSPropertyOp32
 70
     1
  0
XRECORD
  5
F7
102
{ACAD_REACTORS
330
F6
102
}
330
F6
100
AcDbXrecord
280
     1
102
RTVSPropertyOp0
 70
     1
102
RTVSPropertyOp1
 70
     1
102
RTVSPropertyOp2
 70
     1
102
RTVSPropertyOp3
 70
     1
102
RTVSPropertyOp4
 70
     1
102
RTVSPropertyOp5
 70
     1
102
RTVSPropertyOp6
 70
     1
102
RTVSPropertyOp7
 70
     1
102
RTVSPropertyOp8
 70
     1
102
RTVSPropertyOp9
 70
     1
102
RTVSPropertyOp10
 70
     1
102
RTVSPropertyOp11
 70
     1
102
RTVSPropertyOp12
 70
     1
102
RTVSPropertyOp13
 70
     1
102
RTVSPropertyOp14
 70
     1
102
RTVSPropertyOp15
 70
     1
102
RTVSPropertyOp16
 70
     1
102
RTVSPropertyOp17
 70
     1
102
RTVSPropertyOp18
 70
     1
102
RTVSPropertyOp19
 70
     1
102
RTVSPropertyOp20
 70
     1
102
RTVSPropertyOp21
 70
     1
102
RTVSPropertyOp22
 70
     1
102
RTVSPropertyOp23
 70
     1
102
RTVSPropertyOp24
 70
     1
102
RTVSPropertyOp25
 70
     1
102
RTVSPropertyOp26
 70
     1
102
RTVSPropertyOp27
 70
     1
102
RTVSPropertyOp28
 70
     1
102
RTVSPropertyOp29
 70
     1
102
RTVSPropertyOp30
 70
     1
102
RTVSPropertyOp31
 70
     1
102
RTVSPropertyOp32
 70
     1
  0
XRECORD
  5
F9
102
{ACAD_REACTORS
330
F8
102
}
330
F8
100
AcDbXrecord
280
     1
102
RTVSPropertyOp0
 70
     1
102
RTVSPropertyOp1
 70
     1
102
RTVSPropertyOp2
 70
     1
102
RTVSPropertyOp3
 70
     1
102
RTVSPropertyOp4
 70
     1
102
RTVSPropertyOp5
 70
     1
102
RTVSPropertyOp6
 70
     1
102
RTVSPropertyOp7
 70
     1
102
RTVSPropertyOp8
 70
     1
102
RTVSPropertyOp9
 70
     1
102
RTVSPropertyOp10
 70
     1
102
RTVSPropertyOp11
 70
     1
102
RTVSPropertyOp12
 70
     1
102
RTVSPropertyOp13
 70
     1
102
RTVSPropertyOp14
 70
     1
102
RTVSPropertyOp15
 70
     1
102
RTVSPropertyOp16
 70
     1
102
RTVSPropertyOp17
 70
     1
102
RTVSPropertyOp18
 70
     1
102
RTVSPropertyOp19
 70
     1
102
RTVSPropertyOp20
 70
     1
102
RTVSPropertyOp21
 70
     1
102
RTVSPropertyOp22
 70
     1
102
RTVSPropertyOp23
 70
     1
102
RTVSPropertyOp24
 70
     1
102
RTVSPropertyOp25
 70
     1
102
RTVSPropertyOp26
 70
     1
102
RTVSPropertyOp27
 70
     1
102
RTVSPropertyOp28
 70
     1
102
RTVSPropertyOp29
 70
     1
102
RTVSPropertyOp30
 70
     1
102
RTVSPropertyOp31
 70
     1
102
RTVSPropertyOp32
 70
     1
  0
XRECORD
  5
FB
102
{ACAD_REACTORS
330
FA
102
}
330
FA
100
AcDbXrecord
280
     1
102
RTVSPropertyOp0
 70
     1
102
RTVSPropertyOp1
 70
     1
102
RTVSPropertyOp2
 70
     1
102
RTVSPropertyOp3
 70
     1
102
RTVSPropertyOp4
 70
     1
102
RTVSPropertyOp5
 70
     1
102
RTVSPropertyOp6
 70
     1
102
RTVSPropertyOp7
 70
     1
102
RTVSPropertyOp8
 70
     1
102
RTVSPropertyOp9
 70
     1
102
RTVSPropertyOp10
 70
     1
102
RTVSPropertyOp11
 70
     1
102
RTVSPropertyOp12
 70
     1
102
RTVSPropertyOp13
 70
     1
102
RTVSPropertyOp14
 70
     1
102
RTVSPropertyOp15
 70
     1
102
RTVSPropertyOp16
 70
     1
102
RTVSPropertyOp17
 70
     1
102
RTVSPropertyOp18
 70
     1
102
RTVSPropertyOp19
 70
     1
102
RTVSPropertyOp20
 70
     1
102
RTVSPropertyOp21
 70
     1
102
RTVSPropertyOp22
 70
     1
102
RTVSPropertyOp23
 70
     1
102
RTVSPropertyOp24
 70
     1
102
RTVSPropertyOp25
 70
     1
102
RTVSPropertyOp26
 70
     1
102
RTVSPropertyOp27
 70
     1
102
RTVSPropertyOp28
 70
     1
102
RTVSPropertyOp29
 70
     1
102
RTVSPropertyOp30
 70
     1
102
RTVSPropertyOp31
 70
     1
102
RTVSPropertyOp32
 70
     1
  0
XRECORD
  5
10F
102
{ACAD_REACTORS
330
10E
102
}
330
10E
100
AcDbXrecord
280
     1
102
RTVSPropertyOp0
 70
     1
102
RTVSPropertyOp1
 70
     1
102
RTVSPropertyOp2
 70
     1
102
RTVSPropertyOp3
 70
     1
102
RTVSPropertyOp4
 70
     1
102
RTVSPropertyOp5
 70
     1
102
RTVSPropertyOp6
 70
     1
102
RTVSPropertyOp7
 70
     1
102
RTVSPropertyOp8
 70
     1
102
RTVSPropertyOp9
 70
     1
102
RTVSPropertyOp10
 70
     1
102
RTVSPropertyOp11
 70
     1
102
RTVSPropertyOp12
 70
     1
102
RTVSPropertyOp13
 70
     1
102
RTVSPropertyOp14
 70
     1
102
RTVSPropertyOp15
 70
     1
102
RTVSPropertyOp16
 70
     1
102
RTVSPropertyOp17
 70
     1
102
RTVSPropertyOp18
 70
     1
102
RTVSPropertyOp19
 70
     1
102
RTVSPropertyOp20
 70
     1
102
RTVSPropertyOp21
 70
     1
102
RTVSPropertyOp22
 70
     1
102
RTVSPropertyOp23
 70
     1
102
RTVSPropertyOp24
 70
     1
102
RTVSPropertyOp25
 70
     1
102
RTVSPropertyOp26
 70
     1
102
RTVSPropertyOp27
 70
     1
102
RTVSPropertyOp28
 70
     1
102
RTVSPropertyOp29
 70
     1
102
RTVSPropertyOp30
 70
     1
102
RTVSPropertyOp31
 70
     1
102
RTVSPropertyOp32
 70
     1
  0
XRECORD
  5
105
102
{ACAD_REACTORS
330
104
102
}
330
104
100
AcDbXrecord
280
     1
102
RTVSPropertyOp0
 70
     1
102
RTVSPropertyOp1
 70
     1
102
RTVSPropertyOp2
 70
     1
102
RTVSPropertyOp3
 70
     1
102
RTVSPropertyOp4
 70
     1
102
RTVSPropertyOp5
 70
     1
102
RTVSPropertyOp6
 70
     1
102
RTVSPropertyOp7
 70
     1
102
RTVSPropertyOp8
 70
     1
102
RTVSPropertyOp9
 70
     1
102
RTVSPropertyOp10
 70
     1
102
RTVSPropertyOp11
 70
     1
102
RTVSPropertyOp12
 70
     1
102
RTVSPropertyOp13
 70
     1
102
RTVSPropertyOp14
 70
     1
102
RTVSPropertyOp15
 70
     1
102
RTVSPropertyOp16
 70
     1
102
RTVSPropertyOp17
 70
     1
102
RTVSPropertyOp18
 70
     1
102
RTVSPropertyOp19
 70
     1
102
RTVSPropertyOp20
 70
     1
102
RTVSPropertyOp21
 70
     1
102
RTVSPropertyOp22
 70
     1
102
RTVSPropertyOp23
 70
     1
102
RTVSPropertyOp24
 70
     1
102
RTVSPropertyOp25
 70
     1
102
RTVSPropertyOp26
 70
     1
102
RTVSPropertyOp27
 70
     1
102
RTVSPropertyOp28
 70
     1
102
RTVSPropertyOp29
 70
     1
102
RTVSPropertyOp30
 70
     1
102
RTVSPropertyOp31
 70
     1
102
RTVSPropertyOp32
 70
     1
  0
XRECORD
  5
10D
102
{ACAD_REACTORS
330
10C
102
}
330
10C
100
AcDbXrecord
280
     1
102
RTVSPropertyOp0
 70
     1
102
RTVSPropertyOp1
 70
     1
102
RTVSPropertyOp2
 70
     1
102
RTVSPropertyOp3
 70
     1
102
RTVSPropertyOp4
 70
     1
102
RTVSPropertyOp5
 70
     1
102
RTVSPropertyOp6
 70
     1
102
RTVSPropertyOp7
 70
     1
102
RTVSPropertyOp8
 70
     1
102
RTVSPropertyOp9
 70
     1
102
RTVSPropertyOp10
 70
     1
102
RTVSPropertyOp11
 70
     1
102
RTVSPropertyOp12
 70
     1
102
RTVSPropertyOp13
 70
     1
102
RTVSPropertyOp14
 70
     1
102
RTVSPropertyOp15
 70
     1
102
RTVSPropertyOp16
 70
     1
102
RTVSPropertyOp17
 70
     1
102
RTVSPropertyOp18
 70
     1
102
RTVSPropertyOp19
 70
     1
102
RTVSPropertyOp20
 70
     1
102
RTVSPropertyOp21
 70
     1
102
RTVSPropertyOp22
 70
     1
102
RTVSPropertyOp23
 70
     1
102
RTVSPropertyOp24
 70
     1
102
RTVSPropertyOp25
 70
     1
102
RTVSPropertyOp26
 70
     1
102
RTVSPropertyOp27
 70
     1
102
RTVSPropertyOp28
 70
     1
102
RTVSPropertyOp29
 70
     1
102
RTVSPropertyOp30
 70
     1
102
RTVSPropertyOp31
 70
     1
102
RTVSPropertyOp32
 70
     1
  0
ENDSEC
  0
EOF
