  0
SECTION
  2
HEADER
  9
$ACADVER
  1
AC1021
  9
$ACADMAINTVER
 70
    53
  9
$DWGCODEPAGE
  3
ANSI_1252
  9
$LASTSAVEDBY
  1
Dallas Williams
  9
$INSBASE
 10
0.0
 20
0.0
 30
0.0
  9
$EXTMIN
 10
-624.0558363746502
 20
-658.0625490720966
 30
-0.0000000000000457
  9
$EXTMAX
 10
1022.193257067172
 20
641.2716233568971
 30
0.0000000000000827
  9
$LIMMIN
 10
0.0
 20
0.0
  9
$LIMMAX
 10
12.0
 20
9.0
  9
$ORTHOMODE
 70
     1
  9
$REGENMODE
 70
     1
  9
$FILLMODE
 70
     1
  9
$QTEXTMODE
 70
     0
  9
$MIRRTEXT
 70
     0
  9
$LTSCALE
 40
1.0
  9
$ATTMODE
 70
     1
  9
$TEXTSIZE
 40
2.0
  9
$TRACEWID
 40
0.05
  9
$TEXTSTYLE
  7
2mm
  9
$CLAYER
  8
0
  9
$CELTYPE
  6
ByLayer
  9
$CECOLOR
 62
   256
  9
$CELTSCALE
 40
1.0
  9
$DISPSILH
 70
     0
  9
$DIMSCALE
 40
1.0
  9
$DIMASZ
 40
3.0
  9
$DIMEXO
 40
3.0
  9
$DIMDLI
 40
400.0
  9
$DIMRND
 40
0.0
  9
$DIMDLE
 40
0.0
  9
$DIMEXE
 40
1.0
  9
$DIMTP
 40
0.0
  9
$DIMTM
 40
0.0
  9
$DIMTXT
 40
2.0
  9
$DIMCEN
 40
2.0
  9
$DIMTSZ
 40
0.0
  9
$DIMTOL
 70
     0
  9
$DIMLIM
 70
     0
  9
$DIMTIH
 70
     0
  9
$DIMTOH
 70
     0
  9
$DIMSE1
 70
     0
  9
$DIMSE2
 70
     0
  9
$DIMTAD
 70
     0
  9
$DIMZIN
 70
     0
  9
$DIMBLK
  1
OBLIQUE
  9
$DIMASO
 70
     1
  9
$DIMSHO
 70
     1
  9
$DIMPOST
  1

  9
$DIMAPOST
  1
M
  9
$DIMALT
 70
     0
  9
$DIMALTD
 70
     2
  9
$DIMALTF
 40
0.001
  9
$DIMLFAC
 40
1.0
  9
$DIMTOFL
 70
     0
  9
$DIMTVP
 40
0.0
  9
$DIMTIX
 70
     0
  9
$DIMSOXD
 70
     0
  9
$DIMSAH
 70
     0
  9
$DIMBLK1
  1

  9
$DIMBLK2
  1

  9
$DIMSTYLE
  2
2mm
  9
$DIMCLRD
 70
   256
  9
$DIMCLRE
 70
   256
  9
$DIMCLRT
 70
   256
  9
$DIMTFAC
 40
1.0
  9
$DIMGAP
 40
0.0
  9
$DIMJUST
 70
     0
  9
$DIMSD1
 70
     0
  9
$DIMSD2
 70
     0
  9
$DIMTOLJ
 70
     1
  9
$DIMTZIN
 70
     0
  9
$DIMALTZ
 70
     8
  9
$DIMALTTZ
 70
     0
  9
$DIMUPT
 70
     0
  9
$DIMDEC
 70
     0
  9
$DIMTDEC
 70
     0
  9
$DIMALTU
 70
     2
  9
$DIMALTTD
 70
     2
  9
$DIMTXSTY
  7
2mm
  9
$DIMAUNIT
 70
     0
  9
$DIMADEC
 70
     2
  9
$DIMALTRND
 40
0.0
  9
$DIMAZIN
 70
     0
  9
$DIMDSEP
 70
    46
  9
$DIMATFIT
 70
     3
  9
$DIMFRAC
 70
     0
  9
$DIMLDRBLK
  1
OBLIQUE
  9
$DIMLUNIT
 70
     2
  9
$DIMLWD
 70
     9
  9
$DIMLWE
 70
     9
  9
$DIMTMOVE
 70
     2
  9
$DIMFXL
 40
1.0
  9
$DIMFXLON
 70
     0
  9
$DIMJOGANG
 40
0.7853981633974483
  9
$DIMTFILL
 70
     0
  9
$DIMTFILLCLR
 70
     0
  9
$DIMARCSYM
 70
     0
  9
$DIMLTYPE
  6
ByLayer
  9
$DIMLTEX1
  6
ByLayer
  9
$DIMLTEX2
  6
ByLayer
  9
$LUNITS
 70
     2
  9
$LUPREC
 70
     4
  9
$SKETCHINC
 40
0.1
  9
$FILLETRAD
 40
0.0
  9
$AUNITS
 70
     0
  9
$AUPREC
 70
     2
  9
$MENU
  1
.
  9
$ELEVATION
 40
0.0
  9
$PELEVATION
 40
0.0
  9
$THICKNESS
 40
0.0
  9
$LIMCHECK
 70
     0
  9
$CHAMFERA
 40
0.0
  9
$CHAMFERB
 40
0.0
  9
$CHAMFERC
 40
0.0
  9
$CHAMFERD
 40
0.0
  9
$SKPOLY
 70
     0
  9
$TDCREATE
 40
2456332.398470405
  9
$TDUCREATE
 40
2456331.898470405
  9
$TDUPDATE
 40
2456554.840262037
  9
$TDUUPDATE
 40
2456554.340262037
  9
$TDINDWG
 40
0.1795996065
  9
$TDUSRTIMER
 40
0.1795996065
  9
$USRTIMER
 70
     1
  9
$ANGBASE
 50
0.0
  9
$ANGDIR
 70
     0
  9
$PDMODE
 70
    35
  9
$PDSIZE
 40
0.0
  9
$PLINEWID
 40
0.0
  9
$SPLFRAME
 70
     0
  9
$SPLINETYPE
 70
     6
  9
$SPLINESEGS
 70
     8
  9
$HANDSEED
  5
10125
  9
$SURFTAB1
 70
     6
  9
$SURFTAB2
 70
     6
  9
$SURFTYPE
 70
     6
  9
$SURFU
 70
     6
  9
$SURFV
 70
     6
  9
$UCSBASE
  2

  9
$UCSNAME
  2

  9
$UCSORG
 10
0.0
 20
0.0
 30
0.0
  9
$UCSXDIR
 10
1.0
 20
0.0
 30
0.0
  9
$UCSYDIR
 10
0.0
 20
1.0
 30
0.0
  9
$UCSORTHOREF
  2

  9
$UCSORTHOVIEW
 70
     0
  9
$UCSORGTOP
 10
0.0
 20
0.0
 30
0.0
  9
$UCSORGBOTTOM
 10
0.0
 20
0.0
 30
0.0
  9
$UCSORGLEFT
 10
0.0
 20
0.0
 30
0.0
  9
$UCSORGRIGHT
 10
0.0
 20
0.0
 30
0.0
  9
$UCSORGFRONT
 10
0.0
 20
0.0
 30
0.0
  9
$UCSORGBACK
 10
0.0
 20
0.0
 30
0.0
  9
$PUCSBASE
  2

  9
$PUCSNAME
  2

  9
$PUCSORG
 10
0.0
 20
0.0
 30
0.0
  9
$PUCSXDIR
 10
1.0
 20
0.0
 30
0.0
  9
$PUCSYDIR
 10
0.0
 20
1.0
 30
0.0
  9
$PUCSORTHOREF
  2

  9
$PUCSORTHOVIEW
 70
     0
  9
$PUCSORGTOP
 10
0.0
 20
0.0
 30
0.0
  9
$PUCSORGBOTTOM
 10
0.0
 20
0.0
 30
0.0
  9
$PUCSORGLEFT
 10
0.0
 20
0.0
 30
0.0
  9
$PUCSORGRIGHT
 10
0.0
 20
0.0
 30
0.0
  9
$PUCSORGFRONT
 10
0.0
 20
0.0
 30
0.0
  9
$PUCSORGBACK
 10
0.0
 20
0.0
 30
0.0
  9
$USERI1
 70
     0
  9
$USERI2
 70
     0
  9
$USERI3
 70
     0
  9
$USERI4
 70
     0
  9
$USERI5
 70
     0
  9
$USERR1
 40
0.0
  9
$USERR2
 40
0.0
  9
$USERR3
 40
0.0
  9
$USERR4
 40
0.0
  9
$USERR5
 40
0.0
  9
$WORLDVIEW
 70
     1
  9
$SHADEDGE
 70
     3
  9
$SHADEDIF
 70
    70
  9
$TILEMODE
 70
     1
  9
$MAXACTVP
 70
    64
  9
$PINSBASE
 10
0.0
 20
0.0
 30
0.0
  9
$PLIMCHECK
 70
     0
  9
$PEXTMIN
 10
0.0010420625153245
 20
0.0014770624390508
 30
0.0
  9
$PEXTMAX
 10
208.4114610011634
 20
295.4110107424506
 30
0.0
  9
$PLIMMIN
 10
-0.7937499880790711
 20
-0.7937499880790711
  9
$PLIMMAX
 10
209.2062500119209
 20
296.2062500119209
  9
$UNITMODE
 70
     0
  9
$VISRETAIN
 70
     1
  9
$PLINEGEN
 70
     0
  9
$PSLTSCALE
 70
     1
  9
$TREEDEPTH
 70
  3020
  9
$CMLSTYLE
  2
Standard
  9
$CMLJUST
 70
     0
  9
$CMLSCALE
 40
1.0
  9
$PROXYGRAPHICS
 70
     1
  9
$MEASUREMENT
 70
     0
  9
$CELWEIGHT
370
    -1
  9
$ENDCAPS
280
     0
  9
$JOINSTYLE
280
     0
  9
$LWDISPLAY
290
     0
  9
$INSUNITS
 70
     4
  9
$HYPERLINKBASE
  1

  9
$STYLESHEET
  1

  9
$XEDIT
290
     1
  9
$CEPSNTYPE
380
     0
  9
$PSTYLEMODE
290
     1
  9
$FINGERPRINTGUID
  2
{C2DBB197-A9E4-43FA-9C69-81C1E1A60DB9}
  9
$VERSIONGUID
  2
{E2BB343C-D0F4-4C9F-A5C3-E1A2B0F5F638}
  9
$EXTNAMES
290
     1
  9
$PSVPSCALE
 40
0.0
  9
$OLESTARTUP
290
     0
  9
$SORTENTS
280
   127
  9
$INDEXCTL
280
     0
  9
$HIDETEXT
280
     0
  9
$XCLIPFRAME
290
     0
  9
$HALOGAP
280
     0
  9
$OBSCOLOR
 70
   257
  9
$OBSLTYPE
280
     0
  9
$INTERSECTIONDISPLAY
280
     0
  9
$INTERSECTIONCOLOR
 70
   257
  9
$DIMASSOC
280
     1
  9
$PROJECTNAME
  1

  9
$CAMERADISPLAY
290
     0
  9
$LENSLENGTH
 40
50.0
  9
$CAMERAHEIGHT
 40
0.0
  9
$STEPSPERSEC
 40
2.0
  9
$STEPSIZE
 40
6.0
  9
$3DDWFPREC
 40
2.0
  9
$PSOLWIDTH
 40
0.25
  9
$PSOLHEIGHT
 40
4.0
  9
$LOFTANG1
 40
1.570796326794896
  9
$LOFTANG2
 40
1.570796326794896
  9
$LOFTMAG1
 40
0.0
  9
$LOFTMAG2
 40
0.0
  9
$LOFTPARAM
 70
     7
  9
$LOFTNORMALS
280
     1
  9
$LATITUDE
 40
37.795
  9
$LONGITUDE
 40
-122.394
  9
$NORTHDIRECTION
 40
0.0
  9
$TIMEZONE
 70
 -8000
  9
$LIGHTGLYPHDISPLAY
280
     1
  9
$TILEMODELIGHTSYNCH
280
     1
  9
$CMATERIAL
347
217
  9
$SOLIDHIST
280
     0
  9
$SHOWHIST
280
     1
  9
$DWFFRAME
280
     2
  9
$DGNFRAME
280
     0
  9
$REALWORLDSCALE
290
     1
  9
$INTERFERECOLOR
 62
     1
  9
$INTERFEREOBJVS
345
224
  9
$INTERFEREVPVS
346
221
  9
$CSHADOW
280
     0
  9
$SHADOWPLANELOCATION
 40
0.0
  0
ENDSEC
  0
SECTION
  2
CLASSES
  0
CLASS
  1
ACDBDICTIONARYWDFLT
  2
AcDbDictionaryWithDefault
  3
ObjectDBX Classes
 90
        0
 91
        1
280
     0
281
     0
  0
CLASS
  1
MATERIAL
  2
AcDbMaterial
  3
ObjectDBX Classes
 90
     1153
 91
        3
280
     0
281
     0
  0
CLASS
  1
VISUALSTYLE
  2
AcDbVisualStyle
  3
ObjectDBX Classes
 90
     4095
 91
       16
280
     0
281
     0
  0
CLASS
  1
TABLESTYLE
  2
AcDbTableStyle
  3
ObjectDBX Classes
 90
     4095
 91
        2
280
     0
281
     0
  0
CLASS
  1
DICTIONARYVAR
  2
AcDbDictionaryVar
  3
ObjectDBX Classes
 90
        0
 91
        9
280
     0
281
     0
  0
CLASS
  1
SCALE
  2
AcDbScale
  3
ObjectDBX Classes
 90
     1153
 91
       43
280
     0
281
     0
  0
CLASS
  1
MLEADERSTYLE
  2
AcDbMLeaderStyle
  3
ACDB_MLEADERSTYLE_CLASS
 90
     4095
 91
        2
280
     0
281
     0
  0
CLASS
  1
CELLSTYLEMAP
  2
AcDbCellStyleMap
  3
ObjectDBX Classes
 90
     1152
 91
       17
280
     0
281
     0
  0
CLASS
  1
ACDB_TEXTOBJECTCONTEXTDATA_CLASS
  2
AcDbTextObjectContextData
  3
ObjectDBX Classes
 90
     1153
 91
        2
280
     0
281
     0
  0
CLASS
  1
ACDB_ALDIMOBJECTCONTEXTDATA_CLASS
  2
AcDbAlignedDimensionObjectContextData
  3
ObjectDBX Classes
 90
     1153
 91
        0
280
     0
281
     0
  0
CLASS
  1
MULTILEADER
  2
AcDbMLeader
  3
ACDB_MLEADER_CLASS
 90
     1025
 91
        0
280
     0
281
     1
  0
CLASS
  1
ACDB_MLEADEROBJECTCONTEXTDATA_CLASS
  2
AcDbMLeaderObjectContextData
  3
ObjectDBX Classes
 90
     1153
 91
        8
280
     0
281
     0
  0
CLASS
  1
SORTENTSTABLE
  2
AcDbSortentsTable
  3
ObjectDBX Classes
 90
        0
 91
        5
280
     0
281
     0
  0
CLASS
  1
AEC_REFEDIT_STATUS_TRACKER
  2
AecDbRefEditStatusTracker
  3
AecArchBase50|Product Desc: Autodesk Architectural Desktop 2007 |Company: Autodesk,Inc. |WEB Address: www.autodesk.com
 90
      129
 91
        1
280
     0
281
     0
  0
CLASS
  1
NPOCOLLECTION
  2
AcDbImpNonPersistentObjectsCollection
  3
ObjectDBX Classes
 90
     1153
 91
        2
280
     0
281
     0
  0
CLASS
  1
ACAD_EVALUATION_GRAPH
  2
AcDbEvalGraph
  3
ObjectDBX Classes
 90
     1153
 91
        0
280
     0
281
     0
  0
CLASS
  1
BLOCKPOLARPARAMETER
  2
AcDbBlockPolarParameter
  3
ObjectDBX Classes
 90
     1153
 91
        0
280
     0
281
     0
  0
CLASS
  1
BLOCKPOLARGRIP
  2
AcDbBlockPolarGrip
  3
ObjectDBX Classes
 90
     1153
 91
        0
280
     0
281
     0
  0
CLASS
  1
BLOCKGRIPLOCATIONCOMPONENT
  2
AcDbBlockGripExpr
  3
ObjectDBX Classes
 90
     1153
 91
        0
280
     0
281
     0
  0
CLASS
  1
BLOCKPOLARSTRETCHACTION
  2
AcDbBlockPolarStretchAction
  3
ObjectDBX Classes
 90
     1153
 91
        0
280
     0
281
     0
  0
CLASS
  1
ACDB_DYNAMICBLOCKPURGEPREVENTER_VERSION
  2
AcDbDynamicBlockPurgePreventer
  3
ObjectDBX Classes
 90
     1153
 91
        0
280
     0
281
     0
  0
CLASS
  1
BLOCKROTATIONPARAMETER
  2
AcDbBlockRotationParameter
  3
ObjectDBX Classes
 90
     1153
 91
        0
280
     0
281
     0
  0
CLASS
  1
BLOCKROTATIONGRIP
  2
AcDbBlockRotationGrip
  3
ObjectDBX Classes
 90
     1153
 91
        0
280
     0
281
     0
  0
CLASS
  1
BLOCKFLIPPARAMETER
  2
AcDbBlockFlipParameter
  3
ObjectDBX Classes
 90
     1153
 91
        0
280
     0
281
     0
  0
CLASS
  1
BLOCKFLIPGRIP
  2
AcDbBlockFlipGrip
  3
ObjectDBX Classes
 90
     1153
 91
        0
280
     0
281
     0
  0
CLASS
  1
BLOCKROTATEACTION
  2
AcDbBlockRotateAction
  3
ObjectDBX Classes
 90
     1153
 91
        0
280
     0
281
     0
  0
CLASS
  1
BLOCKFLIPACTION
  2
AcDbBlockFlipAction
  3
ObjectDBX Classes
 90
     1153
 91
        0
280
     0
281
     0
  0
CLASS
  1
BLOCKLINEARPARAMETER
  2
AcDbBlockLinearParameter
  3
ObjectDBX Classes
 90
     1153
 91
        0
280
     0
281
     0
  0
CLASS
  1
BLOCKLINEARGRIP
  2
AcDbBlockLinearGrip
  3
ObjectDBX Classes
 90
     1153
 91
        0
280
     0
281
     0
  0
CLASS
  1
BLOCKSTRETCHACTION
  2
AcDbBlockStretchAction
  3
ObjectDBX Classes
 90
     1153
 91
        0
280
     0
281
     0
  0
CLASS
  1
BLOCKVISIBILITYPARAMETER
  2
AcDbBlockVisibilityParameter
  3
ObjectDBX Classes
 90
     1153
 91
        0
280
     0
281
     0
  0
CLASS
  1
BLOCKVISIBILITYGRIP
  2
AcDbBlockVisibilityGrip
  3
ObjectDBX Classes
 90
     1153
 91
        0
280
     0
281
     0
  0
CLASS
  1
BLOCKPOINTPARAMETER
  2
AcDbBlockPointParameter
  3
ObjectDBX Classes
 90
     1153
 91
        0
280
     0
281
     0
  0
CLASS
  1
BLOCKMOVEACTION
  2
AcDbBlockMoveAction
  3
ObjectDBX Classes
 90
     1153
 91
        0
280
     0
281
     0
  0
CLASS
  1
ACDB_BLOCKREPRESENTATION_DATA
  2
AcDbBlockRepresentationData
  3
ObjectDBX Classes
 90
     1153
 91
        0
280
     0
281
     0
  0
CLASS
  1
ACDB_BLKREFOBJECTCONTEXTDATA_CLASS
  2
AcDbBlkRefObjectContextData
  3
ObjectDBX Classes
 90
     1153
 91
        0
280
     0
281
     0
  0
CLASS
  1
ACDB_MTEXTATTRIBUTEOBJECTCONTEXTDATA_CLASS
  2
AcDbMTextAttributeObjectContextData
  3
ObjectDBX Classes
 90
     1153
 91
        0
280
     0
281
     0
  0
CLASS
  1
AEC_VARS_DWG_SETUP
  2
AecDbVarsDwgSetup
  3
AecBase50|Product Desc: Autodesk Architectural Desktop 2007 |Company: Autodesk,Inc. |WEB Address: www.autodesk.com
 90
      129
 91
        1
280
     0
281
     0
  0
CLASS
  1
AEC_DISP_REP_CONFIG
  2
AecDbDispRepConfig
  3
AecBase50|Product Desc: Autodesk Architectural Desktop 2007 |Company: Autodesk,Inc. |WEB Address: www.autodesk.com
 90
      129
 91
        2
280
     0
281
     0
  0
CLASS
  1
AEC_DISP_REP_SET
  2
AecDbDispRepSet
  3
AecBase50|Product Desc: Autodesk Architectural Desktop 2007 |Company: Autodesk,Inc. |WEB Address: www.autodesk.com
 90
      129
 91
        9
280
     0
281
     0
  0
CLASS
  1
AEC_DISP_REP_2D_SECTION
  2
AecDbDispRep2dSection
  3
AecBase50|Product Desc: Autodesk Architectural Desktop 2007 |Company: Autodesk,Inc. |WEB Address: www.autodesk.com
 90
      129
 91
        1
280
     0
281
     0
  0
CLASS
  1
AEC_DISP_REP_ANCHOR_BUB_TO_GRID
  2
AecDbDispRepAnchorBubToGrid
  3
AecStructureBase50|Product Desc: Autodesk Architectural Desktop 2007 |Company: Autodesk,Inc. |WEB Address: www.autodesk.com
 90
      129
 91
        1
280
     0
281
     0
  0
CLASS
  1
AEC_DISP_REP_ANCHOR_BUB_TO_GRID_MODEL
  2
AecDbDispRepAnchorBubToGridMdl
  3
AecStructureBase50|Product Desc: Autodesk Architectural Desktop 2007 |Company: Autodesk,Inc. |WEB Address: www.autodesk.com
 90
      129
 91
        1
280
     0
281
     0
  0
CLASS
  1
AEC_DISP_REP_ANCHOR_ENT_TO_NODE
  2
AecDbDispRepAnchorEntToNode
  3
AecBaseEx50|Product Desc: Autodesk Architectural Desktop 2007 |Company: Autodesk,Inc. |WEB Address: www.autodesk.com
 90
      129
 91
        1
280
     0
281
     0
  0
CLASS
  1
AEC_DISP_REP_ANCHOR_TAG_TO_ENT
  2
AecDbDispRepAnchorTagToEnt
  3
AecScheduleData50|Product Desc: Autodesk Architectural Desktop 2007 |Company: Autodesk,Inc. |WEB Address: www.autodesk.com
 90
      129
 91
        1
280
     0
281
     0
  0
CLASS
  1
AEC_DISP_REP_BDG_ELEVLINE_MODEL
  2
AecDbDispRepBdgElevLineModel
  3
AecArchBase50|Product Desc: Autodesk Architectural Desktop 2007 |Company: Autodesk,Inc. |WEB Address: www.autodesk.com
 90
      129
 91
        1
280
     0
281
     0
  0
CLASS
  1
AEC_DISP_REP_BDG_SECTIONLINE_PLAN
  2
AecDbDispRepBdgElevLinePlan
  3
AecArchBase50|Product Desc: Autodesk Architectural Desktop 2007 |Company: Autodesk,Inc. |WEB Address: www.autodesk.com
 90
      129
 91
        1
280
     0
281
     0
  0
CLASS
  1
AEC_DISP_REP_BDG_SECTIONLINE_MODEL
  2
AecDbDispRepBdgSectionLineModel
  3
AecArchBase50|Product Desc: Autodesk Architectural Desktop 2007 |Company: Autodesk,Inc. |WEB Address: www.autodesk.com
 90
      129
 91
        1
280
     0
281
     0
  0
CLASS
  1
AEC_DISP_REP_BDG_SECTIONLINE_PLAN
  2
AecDbDispRepBdgSectionLinePlan
  3
AecArchBase50|Product Desc: Autodesk Architectural Desktop 2007 |Company: Autodesk,Inc. |WEB Address: www.autodesk.com
 90
      129
 91
        1
280
     0
281
     0
  0
CLASS
  1
AEC_DISP_REP_BDG_SECTION_SUBDIV
  2
AecDbDispRepBdgSectionSubDiv
  3
AecArchBase50|Product Desc: Autodesk Architectural Desktop 2007 |Company: Autodesk,Inc. |WEB Address: www.autodesk.com
 90
      129
 91
        1
280
     0
281
     0
  0
CLASS
  1
AEC_DISP_REP_CEILING_GRID
  2
AecDbDispRepCeilingGrid
  3
AecArchBase50|Product Desc: Autodesk Architectural Desktop 2007 |Company: Autodesk,Inc. |WEB Address: www.autodesk.com
 90
      893
 91
        1
280
     0
281
     0
  0
CLASS
  1
AEC_DISP_REP_CEILING_GRID_MODEL
  2
AecDbDispRepCeilingGridModel
  3
AecArchBase50|Product Desc: Autodesk Architectural Desktop 2007 |Company: Autodesk,Inc. |WEB Address: www.autodesk.com
 90
      129
 91
        1
280
     0
281
     0
  0
CLASS
  1
AEC_DISP_REP_CEILING_GRID_RCP
  2
AecDbDispRepCeilingGridRcp
  3
AecArchBase50|Product Desc: Autodesk Architectural Desktop 2007 |Company: Autodesk,Inc. |WEB Address: www.autodesk.com
 90
      129
 91
        1
280
     0
281
     0
  0
CLASS
  1
AEC_DISP_REP_CLIP_VOLUME_MODEL
  2
AecDbDispRepClipVolModel
  3
AecBase50|Product Desc: Autodesk Architectural Desktop 2007 |Company: Autodesk,Inc. |WEB Address: www.autodesk.com
 90
      129
 91
        1
280
     0
281
     0
  0
CLASS
  1
AEC_DISP_REP_CLIP_VOLUME_PLAN
  2
AecDbDispRepClipVolPlan
  3
AecBase50|Product Desc: Autodesk Architectural Desktop 2007 |Company: Autodesk,Inc. |WEB Address: www.autodesk.com
 90
      129
 91
        1
280
     0
281
     0
  0
CLASS
  1
AEC_DISP_REP_CLIP_VOLUME_RESULT_SUBDIV
  2
AecDbDispRepClipVolResSubDiv
  3
AecBase50|Product Desc: Autodesk Architectural Desktop 2007 |Company: Autodesk,Inc. |WEB Address: www.autodesk.com
 90
      129
 91
        1
280
     0
281
     0
  0
CLASS
  1
AEC_DISP_REP_CLIP_VOLUME_RESULT
  2
AecDbDispRepClipVolResult
  3
AecBase50|Product Desc: Autodesk Architectural Desktop 2007 |Company: Autodesk,Inc. |WEB Address: www.autodesk.com
 90
      129
 91
        1
280
     0
281
     0
  0
CLASS
  1
AEC_DISP_REP_COLUMN_GRID
  2
AecDbDispRepColumnGrid
  3
AecStructureBase50|Product Desc: Autodesk Architectural Desktop 2007 |Company: Autodesk,Inc. |WEB Address: www.autodesk.com
 90
      129
 91
        1
280
     0
281
     0
  0
CLASS
  1
AEC_DISP_REP_COLUMN_GRID_MODEL
  2
AecDbDispRepColumnGridModel
  3
AecStructureBase50|Product Desc: Autodesk Architectural Desktop 2007 |Company: Autodesk,Inc. |WEB Address: www.autodesk.com
 90
      129
 91
        1
280
     0
281
     0
  0
CLASS
  1
AEC_DISP_REP_CURTAIN_WALL_LAYOUT_MODEL
  2
AecDbDispRepCurtainWallLayoutModel
  3
AecArchBase50|Product Desc: Autodesk Architectural Desktop 2007 |Company: Autodesk,Inc. |WEB Address: www.autodesk.com
 90
      129
 91
        1
280
     0
281
     0
  0
CLASS
  1
AEC_DISP_REP_CURTAIN_WALL_LAYOUT_PLAN
  2
AecDbDispRepCurtainWallLayoutPlan
  3
AecArchBase50|Product Desc: Autodesk Architectural Desktop 2007 |Company: Autodesk,Inc. |WEB Address: www.autodesk.com
 90
      129
 91
        1
280
     0
281
     0
  0
CLASS
  1
AEC_DISP_REP_CURTAIN_WALL_UNIT_MODEL
  2
AecDbDispRepCurtainWallUnitModel
  3
AecArchBase50|Product Desc: Autodesk Architectural Desktop 2007 |Company: Autodesk,Inc. |WEB Address: www.autodesk.com
 90
      129
 91
        1
280
     0
281
     0
  0
CLASS
  1
AEC_DISP_REP_CURTAIN_WALL_UNIT_PLAN
  2
AecDbDispRepCurtainWallUnitPlan
  3
AecArchBase50|Product Desc: Autodesk Architectural Desktop 2007 |Company: Autodesk,Inc. |WEB Address: www.autodesk.com
 90
      129
 91
        1
280
     0
281
     0
  0
CLASS
  1
AEC_DB_DISP_REP_DIM_GROUP_PLAN
  2
AecDbDispRepDimGroupPlan
  3
AecArchDACHBase50|Product Desc: Autodesk Architectural Desktop 2007 |Company: Autodesk,Inc. |WEB Address: www.autodesk.com
 90
      129
 91
        1
280
     0
281
     0
  0
CLASS
  1
AEC_DISP_REP_DISPLAYTHEME
  2
AecDbDispRepDisplayTheme
  3
AecBase50|Product Desc: Autodesk Architectural Desktop 2007 |Company: Autodesk,Inc. |WEB Address: www.autodesk.com
 90
      129
 91
        1
280
     0
281
     0
  0
CLASS
  1
AEC_DISP_REP_DOOR_MODEL
  2
AecDbDispRepDoorModel
  3
AecArchBase50|Product Desc: Autodesk Architectural Desktop 2007 |Company: Autodesk,Inc. |WEB Address: www.autodesk.com
 90
      129
 91
        1
280
     0
281
     0
  0
CLASS
  1
AEC_DISP_REP_DOOR_NOMINAL
  2
AecDbDispRepDoorNominal
  3
AecArchBase50|Product Desc: Autodesk Architectural Desktop 2007 |Company: Autodesk,Inc. |WEB Address: www.autodesk.com
 90
      129
 91
        1
280
     0
281
     0
  0
CLASS
  1
AEC_DISP_REP_DOOR_PLAN
  2
AecDbDispRepDoorPlan
  3
AecArchBase50|Product Desc: Autodesk Architectural Desktop 2007 |Company: Autodesk,Inc. |WEB Address: www.autodesk.com
 90
      129
 91
        1
280
     0
281
     0
  0
CLASS
  1
AEC_DISP_REP_EDITINPLACEPROFILE
  2
AecDbDispRepEditInPlaceProfile
  3
AecBase50|Product Desc: Autodesk Architectural Desktop 2007 |Company: Autodesk,Inc. |WEB Address: www.autodesk.com
 90
      129
 91
        1
280
     0
281
     0
  0
CLASS
  1
AEC_DISP_REP_ENT_REF
  2
AecDbDispRepEntRef
  3
AecBase50|Product Desc: Autodesk Architectural Desktop 2007 |Company: Autodesk,Inc. |WEB Address: www.autodesk.com
 90
      129
 91
        1
280
     0
281
     0
  0
CLASS
  1
AEC_DISP_REP_LAYOUT_CURVE
  2
AecDbDispRepLayoutCurve
  3
AecBase50|Product Desc: Autodesk Architectural Desktop 2007 |Company: Autodesk,Inc. |WEB Address: www.autodesk.com
 90
      129
 91
        1
280
     0
281
     0
  0
CLASS
  1
AEC_DISP_REP_LAYOUT_GRID2D
  2
AecDbDispRepLayoutGrid2d
  3
AecBase50|Product Desc: Autodesk Architectural Desktop 2007 |Company: Autodesk,Inc. |WEB Address: www.autodesk.com
 90
      129
 91
        1
280
     0
281
     0
  0
CLASS
  1
AEC_DISP_REP_LAYOUT_GRID3D
  2
AecDbDispRepLayoutGrid3d
  3
AecBase50|Product Desc: Autodesk Architectural Desktop 2007 |Company: Autodesk,Inc. |WEB Address: www.autodesk.com
 90
      129
 91
        1
280
     0
281
     0
  0
CLASS
  1
AEC_DISP_REP_MASKBLOCK_REF
  2
AecDbDispRepMaskBlockRef
  3
AecBase50|Product Desc: Autodesk Architectural Desktop 2007 |Company: Autodesk,Inc. |WEB Address: www.autodesk.com
 90
      129
 91
        1
280
     0
281
     0
  0
CLASS
  1
AEC_DISP_REP_MASKBLOCK_REF_RCP
  2
AecDbDispRepMaskBlockRefRcp
  3
AecArchBase50|Product Desc: Autodesk Architectural Desktop 2007 |Company: Autodesk,Inc. |WEB Address: www.autodesk.com
 90
      129
 91
        1
280
     0
281
     0
  0
CLASS
  1
AEC_DISP_REP_MASS_ELEM_MODEL
  2
AecDbDispRepMassElemModel
  3
AecBaseEx50|Product Desc: Autodesk Architectural Desktop 2007 |Company: Autodesk,Inc. |WEB Address: www.autodesk.com
 90
      129
 91
        1
280
     0
281
     0
  0
CLASS
  1
AEC_DISP_REP_MASS_ELEM_SCHEM
  2
AecDbDispRepMassElemSchem
  3
AecBaseEx50|Product Desc: Autodesk Architectural Desktop 2007 |Company: Autodesk,Inc. |WEB Address: www.autodesk.com
 90
      129
 91
        1
280
     0
281
     0
  0
CLASS
  1
AEC_DISP_REP_MASS_GROUP_MODEL
  2
AecDbDispRepMassGroupModel
  3
AecBaseEx50|Product Desc: Autodesk Architectural Desktop 2007 |Company: Autodesk,Inc. |WEB Address: www.autodesk.com
 90
      129
 91
        1
280
     0
281
     0
  0
CLASS
  1
AEC_DISP_REP_MASS_GROUP_PLAN
  2
AecDbDispRepMassGroupPlan
  3
AecBaseEx50|Product Desc: Autodesk Architectural Desktop 2007 |Company: Autodesk,Inc. |WEB Address: www.autodesk.com
 90
      129
 91
        1
280
     0
281
     0
  0
CLASS
  1
AEC_DISP_REP_MATERIAL
  2
AecDbDispRepMaterial
  3
AecBase50|Product Desc: Autodesk Architectural Desktop 2007 |Company: Autodesk,Inc. |WEB Address: www.autodesk.com
 90
      129
 91
        1
280
     0
281
     0
  0
CLASS
  1
AEC_DISP_REP_MVBLOCK_REF
  2
AecDbDispRepMvBlockRef
  3
AecBase50|Product Desc: Autodesk Architectural Desktop 2007 |Company: Autodesk,Inc. |WEB Address: www.autodesk.com
 90
      129
 91
        2
280
     0
281
     0
  0
CLASS
  1
AEC_DISP_REP_MVBLOCK_REF_MODEL
  2
AecDbDispRepMvBlockRefModel
  3
AecBase50|Product Desc: Autodesk Architectural Desktop 2007 |Company: Autodesk,Inc. |WEB Address: www.autodesk.com
 90
      129
 91
        1
280
     0
281
     0
  0
CLASS
  1
AEC_DISP_REP_OPENING
  2
AecDbDispRepOpening
  3
AecArchBase50|Product Desc: Autodesk Architectural Desktop 2007 |Company: Autodesk,Inc. |WEB Address: www.autodesk.com
 90
      129
 91
        1
280
     0
281
     0
  0
CLASS
  1
AEC_DISP_REP_OPENING_MODEL
  2
AecDbDispRepOpeningModel
  3
AecArchBase50|Product Desc: Autodesk Architectural Desktop 2007 |Company: Autodesk,Inc. |WEB Address: www.autodesk.com
 90
      129
 91
        1
280
     0
281
     0
  0
CLASS
  1
AEC_DISP_REP_POLYGON_MODEL
  2
AecDbDispRepPolygonModel
  3
AecBaseEx50|Product Desc: Autodesk Architectural Desktop 2007 |Company: Autodesk,Inc. |WEB Address: www.autodesk.com
 90
      129
 91
        1
280
     0
281
     0
  0
CLASS
  1
AEC_DISP_REP_RAILING_MODEL
  2
AecDbDispRepRailingModel
  3
AecArchBase50|Product Desc: Autodesk Architectural Desktop 2007 |Company: Autodesk,Inc. |WEB Address: www.autodesk.com
 90
      129
 91
        1
280
     0
281
     0
  0
CLASS
  1
AEC_DISP_REP_RAILING_PLAN
  2
AecDbDispRepRailingPlan
  3
AecArchBase50|Product Desc: Autodesk Architectural Desktop 2007 |Company: Autodesk,Inc. |WEB Address: www.autodesk.com
 90
      129
 91
        1
280
     0
281
     0
  0
CLASS
  1
AEC_DISP_REP_ROOF_MODEL
  2
AecDbDispRepRoofModel
  3
AecArchBase50|Product Desc: Autodesk Architectural Desktop 2007 |Company: Autodesk,Inc. |WEB Address: www.autodesk.com
 90
      129
 91
        1
280
     0
281
     0
  0
CLASS
  1
AEC_DISP_REP_ROOF_PLAN
  2
AecDbDispRepRoofPlan
  3
AecArchBase50|Product Desc: Autodesk Architectural Desktop 2007 |Company: Autodesk,Inc. |WEB Address: www.autodesk.com
 90
      129
 91
        1
280
     0
281
     0
  0
CLASS
  1
AEC_DISP_REP_ROOFSLAB_MODEL
  2
AecDbDispRepRoofSlabModel
  3
AecArchBase50|Product Desc: Autodesk Architectural Desktop 2007 |Company: Autodesk,Inc. |WEB Address: www.autodesk.com
 90
      129
 91
        1
280
     0
281
     0
  0
CLASS
  1
AEC_DISP_REP_ROOFSLAB_PLAN
  2
AecDbDispRepRoofSlabPlan
  3
AecArchBase50|Product Desc: Autodesk Architectural Desktop 2007 |Company: Autodesk,Inc. |WEB Address: www.autodesk.com
 90
      129
 91
        1
280
     0
281
     0
  0
CLASS
  1
AEC_DISP_REP_SCHEDULE_TABLE
  2
AecDbDispRepScheduleTable
  3
AecSchedule50|Product Desc: Autodesk Architectural Desktop 2007 |Company: Autodesk,Inc. |WEB Address: www.autodesk.com
 90
      129
 91
        1
280
     0
281
     0
  0
CLASS
  1
AEC_DISP_REP_SLAB_MODEL
  2
AecDbDispRepSlabModel
  3
AecArchBase50|Product Desc: Autodesk Architectural Desktop 2007 |Company: Autodesk,Inc. |WEB Address: www.autodesk.com
 90
      129
 91
        1
280
     0
281
     0
  0
CLASS
  1
AEC_DISP_REP_SLAB_PLAN
  2
AecDbDispRepSlabPlan
  3
AecArchBase50|Product Desc: Autodesk Architectural Desktop 2007 |Company: Autodesk,Inc. |WEB Address: www.autodesk.com
 90
      129
 91
        1
280
     0
281
     0
  0
CLASS
  1
AEC_DISP_REP_SLICE
  2
AecDbDispRepSlice
  3
AecBase50|Product Desc: Autodesk Architectural Desktop 2007 |Company: Autodesk,Inc. |WEB Address: www.autodesk.com
 90
      129
 91
        1
280
     0
281
     0
  0
CLASS
  1
AEC_DISP_REP_SPACE_DECOMPOSED
  2
AecDbDispRepSpaceDecomposed
  3
AecArchBase50|Product Desc: Autodesk Architectural Desktop 2007 |Company: Autodesk,Inc. |WEB Address: www.autodesk.com
 90
      129
 91
        1
280
     0
281
     0
  0
CLASS
  1
AEC_DISP_REP_SPACE_MODEL
  2
AecDbDispRepSpaceModel
  3
AecArchBase50|Product Desc: Autodesk Architectural Desktop 2007 |Company: Autodesk,Inc. |WEB Address: www.autodesk.com
 90
      129
 91
        1
280
     0
281
     0
  0
CLASS
  1
AEC_DISP_REP_SPACE_PLAN
  2
AecDbDispRepSpacePlan
  3
AecArchBase50|Product Desc: Autodesk Architectural Desktop 2007 |Company: Autodesk,Inc. |WEB Address: www.autodesk.com
 90
      129
 91
        1
280
     0
281
     0
  0
CLASS
  1
AEC_DISP_REP_STAIR_MODEL
  2
AecDbDispRepStairModel
  3
AecArchBase50|Product Desc: Autodesk Architectural Desktop 2007 |Company: Autodesk,Inc. |WEB Address: www.autodesk.com
 90
      129
 91
        1
280
     0
281
     0
  0
CLASS
  1
AEC_DISP_REP_STAIR_PLAN
  2
AecDbDispRepStairPlan
  3
AecArchBase50|Product Desc: Autodesk Architectural Desktop 2007 |Company: Autodesk,Inc. |WEB Address: www.autodesk.com
 90
      129
 91
        1
280
     0
281
     0
  0
CLASS
  1
AEC_DISP_REP_WALL_GRAPH
  2
AecDbDispRepWallGraph
  3
AecArchBase50|Product Desc: Autodesk Architectural Desktop 2007 |Company: Autodesk,Inc. |WEB Address: www.autodesk.com
 90
      129
 91
        1
280
     0
281
     0
  0
CLASS
  1
AEC_DISP_REP_WALL_MODEL
  2
AecDbDispRepWallModel
  3
AecArchBase50|Product Desc: Autodesk Architectural Desktop 2007 |Company: Autodesk,Inc. |WEB Address: www.autodesk.com
 90
      129
 91
        1
280
     0
281
     0
  0
CLASS
  1
AEC_DISP_REP_WALL_PLAN
  2
AecDbDispRepWallPlan
  3
AecArchBase50|Product Desc: Autodesk Architectural Desktop 2007 |Company: Autodesk,Inc. |WEB Address: www.autodesk.com
 90
      129
 91
        1
280
     0
281
     0
  0
CLASS
  1
AEC_DISP_REP_WALL_SCHEM
  2
AecDbDispRepWallSchem
  3
AecArchBase50|Product Desc: Autodesk Architectural Desktop 2007 |Company: Autodesk,Inc. |WEB Address: www.autodesk.com
 90
      129
 91
        1
280
     0
281
     0
  0
CLASS
  1
AEC_DISP_REP_WINDOW_ASSEMBLY_MODEL
  2
AecDbDispRepWindowAssemblyModel
  3
AecArchBase50|Product Desc: Autodesk Architectural Desktop 2007 |Company: Autodesk,Inc. |WEB Address: www.autodesk.com
 90
      129
 91
        1
280
     0
281
     0
  0
CLASS
  1
AEC_DISP_REP_WINDOW_ASSEMBLY_PLAN
  2
AecDbDispRepWindowAssemblyPlan
  3
AecArchBase50|Product Desc: Autodesk Architectural Desktop 2007 |Company: Autodesk,Inc. |WEB Address: www.autodesk.com
 90
      129
 91
        1
280
     0
281
     0
  0
CLASS
  1
AEC_AECDBDISPREPWINDOWASSEMBLYPLAN100
  2
AecDbDispRepWindowAssemblyPlan100
  3
AecArchDACHBase50|Product Desc: Autodesk Architectural Desktop 2007 |Company: Autodesk,Inc. |WEB Address: www.autodesk.com
 90
      129
 91
        1
280
     0
281
     0
  0
CLASS
  1
AEC_DISP_REP_WINDOW_MODEL
  2
AecDbDispRepWindowModel
  3
AecArchBase50|Product Desc: Autodesk Architectural Desktop 2007 |Company: Autodesk,Inc. |WEB Address: www.autodesk.com
 90
      129
 91
        1
280
     0
281
     0
  0
CLASS
  1
AEC_DISP_REP_WINDOW_NOMINAL
  2
AecDbDispRepWindowNominal
  3
AecArchBase50|Product Desc: Autodesk Architectural Desktop 2007 |Company: Autodesk,Inc. |WEB Address: www.autodesk.com
 90
      129
 91
        1
280
     0
281
     0
  0
CLASS
  1
AEC_DISP_REP_WINDOW_PLAN
  2
AecDbDispRepWindowPlan
  3
AecArchBase50|Product Desc: Autodesk Architectural Desktop 2007 |Company: Autodesk,Inc. |WEB Address: www.autodesk.com
 90
      129
 91
        1
280
     0
281
     0
  0
CLASS
  1
AEC_DISP_REP_ZONE
  2
AecDbDispRepZone
  3
AecArchBase50|Product Desc: Autodesk Architectural Desktop 2007 |Company: Autodesk,Inc. |WEB Address: www.autodesk.com
 90
      129
 91
        1
280
     0
281
     0
  0
CLASS
  1
AECS_DISP_REP_MEMBER_LOGICAL
  2
AecsDbDispRepMemberLogical
  3
AecStructureBase50|Product Desc: Autodesk Architectural Desktop 2007 |Company: Autodesk,Inc. |WEB Address: www.autodesk.com
 90
      129
 91
        1
280
     0
281
     0
  0
CLASS
  1
AECS_DISP_REP_MEMBER_MODEL_DESIGN
  2
AecsDbDispRepMemberModelDesign
  3
AecStructureBase50|Product Desc: Autodesk Architectural Desktop 2007 |Company: Autodesk,Inc. |WEB Address: www.autodesk.com
 90
      129
 91
        1
280
     0
281
     0
  0
CLASS
  1
AECS_DISP_REP_MEMBER_PLAN_DESIGN
  2
AecsDbDispRepMemberPlanDesign
  3
AecStructureBase50|Product Desc: Autodesk Architectural Desktop 2007 |Company: Autodesk,Inc. |WEB Address: www.autodesk.com
 90
      129
 91
        1
280
     0
281
     0
  0
CLASS
  1
AEC_DISP_PROPS_ENT
  2
AecDbDispPropsEnt
  3
AecBase50|Product Desc: Autodesk Architectural Desktop 2007 |Company: Autodesk,Inc. |WEB Address: www.autodesk.com
 90
      129
 91
        7
280
     0
281
     0
  0
CLASS
  1
AEC_DISP_PROPS_ZONE
  2
AecDbDispPropsZone
  3
AecArchBase50|Product Desc: Autodesk Architectural Desktop 2007 |Company: Autodesk,Inc. |WEB Address: www.autodesk.com
 90
      129
 91
        3
280
     0
281
     0
  0
CLASS
  1
AEC_DISP_PROPS_GRID_ASSEMBLY_MODEL
  2
AecDbDispPropsGridAssemblyModel
  3
AecArchBase50|Product Desc: Autodesk Architectural Desktop 2007 |Company: Autodesk,Inc. |WEB Address: www.autodesk.com
 90
      129
 91
        3
280
     0
281
     0
  0
CLASS
  1
AEC_DISP_PROPS_2D_SECTION
  2
AecDbDispProps2dSection
  3
AecBase50|Product Desc: Autodesk Architectural Desktop 2007 |Company: Autodesk,Inc. |WEB Address: www.autodesk.com
 90
      129
 91
        1
280
     0
281
     0
  0
CLASS
  1
AEC_DISP_PROPS_OPENING
  2
AecDbDispPropsOpening
  3
AecArchBase50|Product Desc: Autodesk Architectural Desktop 2007 |Company: Autodesk,Inc. |WEB Address: www.autodesk.com
 90
      129
 91
        2
280
     0
281
     0
  0
CLASS
  1
AEC_DISP_PROPS_DOOR
  2
AecDbDispPropsDoor
  3
AecArchBase50|Product Desc: Autodesk Architectural Desktop 2007 |Company: Autodesk,Inc. |WEB Address: www.autodesk.com
 90
      129
 91
        4
280
     0
281
     0
  0
CLASS
  1
AEC_DISP_PROPS_WALL_SCHEM
  2
AecDbDispPropsWallSchem
  3
AecArchBase50|Product Desc: Autodesk Architectural Desktop 2007 |Company: Autodesk,Inc. |WEB Address: www.autodesk.com
 90
      129
 91
        1
280
     0
281
     0
  0
CLASS
  1
AEC_DISP_PROPS_MASKBLOCK
  2
AecDbDispPropsMaskBlock
  3
AecBase50|Product Desc: Autodesk Architectural Desktop 2007 |Company: Autodesk,Inc. |WEB Address: www.autodesk.com
 90
      129
 91
        2
280
     0
281
     0
  0
CLASS
  1
AEC_DISP_PROPS_SCHEDULE_TABLE
  2
AecDbDispPropsScheduleTable
  3
AecSchedule50|Product Desc: Autodesk Architectural Desktop 2007 |Company: Autodesk,Inc. |WEB Address: www.autodesk.com
 90
      129
 91
        1
280
     0
281
     0
  0
CLASS
  1
AECS_DISP_PROPS_MEMBER
  2
AecsDbDispPropsMember
  3
AecStructureBase50|Product Desc: Autodesk Architectural Desktop 2007 |Company: Autodesk,Inc. |WEB Address: www.autodesk.com
 90
      129
 91
        2
280
     0
281
     0
  0
CLASS
  1
AEC_DISP_PROPS_LAYOUT_GRID2D
  2
AecDbDispPropsLayoutGrid2d
  3
AecBase50|Product Desc: Autodesk Architectural Desktop 2007 |Company: Autodesk,Inc. |WEB Address: www.autodesk.com
 90
      129
 91
       11
280
     0
281
     0
  0
CLASS
  1
AEC_DISP_PROPS_EDITINPLACEPROFILE_MODEL
  2
AecDbDispPropsEditInPlaceProfile
  3
AecBase50|Product Desc: Autodesk Architectural Desktop 2007 |Company: Autodesk,Inc. |WEB Address: www.autodesk.com
 90
      129
 91
        1
280
     0
281
     0
  0
CLASS
  1
AEC_DISP_PROPS_ENT_REF
  2
AecDbDispPropsEntRef
  3
AecBase50|Product Desc: Autodesk Architectural Desktop 2007 |Company: Autodesk,Inc. |WEB Address: www.autodesk.com
 90
      129
 91
        1
280
     0
281
     0
  0
CLASS
  1
AEC_DISP_PROPS_ROOFSLAB
  2
AecDbDispPropsRoofSlab
  3
AecArchBase50|Product Desc: Autodesk Architectural Desktop 2007 |Company: Autodesk,Inc. |WEB Address: www.autodesk.com
 90
      129
 91
        1
280
     0
281
     0
  0
CLASS
  1
AEC_DISP_PROPS_LAYOUT_GRID3D
  2
AecDbDispPropsLayoutGrid3d
  3
AecBase50|Product Desc: Autodesk Architectural Desktop 2007 |Company: Autodesk,Inc. |WEB Address: www.autodesk.com
 90
      129
 91
        1
280
     0
281
     0
  0
CLASS
  1
AEC_DISP_PROPS_WALL_GRAPH
  2
AecDbDispPropsWallGraph
  3
AecArchBase50|Product Desc: Autodesk Architectural Desktop 2007 |Company: Autodesk,Inc. |WEB Address: www.autodesk.com
 90
      129
 91
        1
280
     0
281
     0
  0
CLASS
  1
AEC_DISP_PROPS_DIM
  2
AecDbDispPropsDimGroup
  3
AecArchDACHBase50|Product Desc: Autodesk Architectural Desktop 2007 |Company: Autodesk,Inc. |WEB Address: www.autodesk.com
 90
      129
 91
        3
280
     0
281
     0
  0
CLASS
  1
AEC_DISP_PROPS_CLIP_VOLUME
  2
AecDbDispPropsClipVol
  3
AecBase50|Product Desc: Autodesk Architectural Desktop 2007 |Company: Autodesk,Inc. |WEB Address: www.autodesk.com
 90
      129
 91
       12
280
     0
281
     0
  0
CLASS
  1
AEC_DISP_PROPS_STAIR_MODEL
  2
AecDbDispPropsStairModel
  3
AecArchBase50|Product Desc: Autodesk Architectural Desktop 2007 |Company: Autodesk,Inc. |WEB Address: www.autodesk.com
 90
      129
 91
        1
280
     0
281
     0
  0
CLASS
  1
AEC_DISP_PROPS_MASS_GROUP
  2
AecDbDispPropsMassGroup
  3
AecBaseEx50|Product Desc: Autodesk Architectural Desktop 2007 |Company: Autodesk,Inc. |WEB Address: www.autodesk.com
 90
      129
 91
        3
280
     0
281
     0
  0
CLASS
  1
AEC_DISP_PROPS_GRID_ASSEMBLY_PLAN
  2
AecDbDispPropsGridAssemblyPlan
  3
AecArchBase50|Product Desc: Autodesk Architectural Desktop 2007 |Company: Autodesk,Inc. |WEB Address: www.autodesk.com
 90
      129
 91
        9
280
     0
281
     0
  0
CLASS
  1
AEC_DISP_PROPS_SLAB_PLAN
  2
AecDbDispPropsSlabPlan
  3
AecArchBase50|Product Desc: Autodesk Architectural Desktop 2007 |Company: Autodesk,Inc. |WEB Address: www.autodesk.com
 90
      129
 91
        3
280
     0
281
     0
  0
CLASS
  1
AEC_DISP_PROPS_RAILING_MODEL
  2
AecDbDispPropsRailingModel
  3
AecArchBase50|Product Desc: Autodesk Architectural Desktop 2007 |Company: Autodesk,Inc. |WEB Address: www.autodesk.com
 90
      129
 91
        1
280
     0
281
     0
  0
CLASS
  1
AEC_DISP_PROPS_MASS_ELEM_MODEL
  2
AecDbDispPropsMassElem
  3
AecBaseEx50|Product Desc: Autodesk Architectural Desktop 2007 |Company: Autodesk,Inc. |WEB Address: www.autodesk.com
 90
      129
 91
        3
280
     0
281
     0
  0
CLASS
  1
AEC_DISP_PROPS_SPACE_PLAN
  2
AecDbDispPropsSpacePlan
  3
AecArchBase50|Product Desc: Autodesk Architectural Desktop 2007 |Company: Autodesk,Inc. |WEB Address: www.autodesk.com
 90
      129
 91
        4
280
     0
281
     0
  0
CLASS
  1
AECS_DISP_PROPS_MEMBER_PLAN
  2
AecsDbDispPropsMemberPlan
  3
AecStructureBase50|Product Desc: Autodesk Architectural Desktop 2007 |Company: Autodesk,Inc. |WEB Address: www.autodesk.com
 90
      129
 91
        2
280
     0
281
     0
  0
CLASS
  1
AEC_DISP_PROPS_ROOF
  2
AecDbDispPropsRoof
  3
AecArchBase50|Product Desc: Autodesk Architectural Desktop 2007 |Company: Autodesk,Inc. |WEB Address: www.autodesk.com
 90
      129
 91
        5
280
     0
281
     0
  0
CLASS
  1
AEC_DISP_PROPS_DISPLAYTHEME
  2
AecDbDispPropsDisplayTheme
  3
AecBase50|Product Desc: Autodesk Architectural Desktop 2007 |Company: Autodesk,Inc. |WEB Address: www.autodesk.com
 90
      129
 91
        1
280
     0
281
     0
  0
CLASS
  1
AEC_DISP_PROPS_ROOFSLAB_PLAN
  2
AecDbDispPropsRoofSlabPlan
  3
AecArchBase50|Product Desc: Autodesk Architectural Desktop 2007 |Company: Autodesk,Inc. |WEB Address: www.autodesk.com
 90
      129
 91
        3
280
     0
281
     0
  0
CLASS
  1
AEC_DISP_PROPS_WINDOW_NOMINAL
  2
AecDbDispPropsWindowNominal
  3
AecArchBase50|Product Desc: Autodesk Architectural Desktop 2007 |Company: Autodesk,Inc. |WEB Address: www.autodesk.com
 90
      129
 91
        1
280
     0
281
     0
  0
CLASS
  1
AEC_DISP_PROPS_STAIR_PLAN
  2
AecDbDispPropsStairPlan
  3
AecArchBase50|Product Desc: Autodesk Architectural Desktop 2007 |Company: Autodesk,Inc. |WEB Address: www.autodesk.com
 90
      129
 91
        2
280
     0
281
     0
  0
CLASS
  1
AECS_DISP_PROPS_MEMBER_LOGICAL
  2
AecsDbDispPropsMemberLogical
  3
AecStructureBase50|Product Desc: Autodesk Architectural Desktop 2007 |Company: Autodesk,Inc. |WEB Address: www.autodesk.com
 90
      129
 91
        1
280
     0
281
     0
  0
CLASS
  1
AEC_DISP_PROPS_POLYGON_MODEL
  2
AecDbDispPropsPolygonModel
  3
AecBaseEx50|Product Desc: Autodesk Architectural Desktop 2007 |Company: Autodesk,Inc. |WEB Address: www.autodesk.com
 90
      129
 91
        1
280
     0
281
     0
  0
CLASS
  1
AEC_DISP_PROPS_LAYOUT_CURVE
  2
AecDbDispPropsLayoutCurve
  3
AecBase50|Product Desc: Autodesk Architectural Desktop 2007 |Company: Autodesk,Inc. |WEB Address: www.autodesk.com
 90
      129
 91
        1
280
     0
281
     0
  0
CLASS
  1
AEC_DISP_PROPS_SPACE_DECOMPOSED
  2
AecDbDispPropsSpaceDecomposed
  3
AecArchBase50|Product Desc: Autodesk Architectural Desktop 2007 |Company: Autodesk,Inc. |WEB Address: www.autodesk.com
 90
      129
 91
        1
280
     0
281
     0
  0
CLASS
  1
AEC_DISP_PROPS_RAILING_PLAN
  2
AecDbDispPropsRailingPlan
  3
AecArchBase50|Product Desc: Autodesk Architectural Desktop 2007 |Company: Autodesk,Inc. |WEB Address: www.autodesk.com
 90
      129
 91
        1
280
     0
281
     0
  0
CLASS
  1
AEC_DISP_PROPS_SLICE
  2
AecDbDispPropsSlice
  3
AecBase50|Product Desc: Autodesk Architectural Desktop 2007 |Company: Autodesk,Inc. |WEB Address: www.autodesk.com
 90
      129
 91
        1
280
     0
281
     0
  0
CLASS
  1
AEC_DISP_PROPS_WINDOW
  2
AecDbDispPropsWindow
  3
AecArchBase50|Product Desc: Autodesk Architectural Desktop 2007 |Company: Autodesk,Inc. |WEB Address: www.autodesk.com
 90
      129
 91
        4
280
     0
281
     0
  0
CLASS
  1
AEC_DISP_PROPS_SPACE_MODEL
  2
AecDbDispPropsSpaceModel
  3
AecArchBase50|Product Desc: Autodesk Architectural Desktop 2007 |Company: Autodesk,Inc. |WEB Address: www.autodesk.com
 90
      129
 91
        1
280
     0
281
     0
  0
CLASS
  1
AEC_DISP_PROPS_WALL_PLAN
  2
AecDbDispPropsWallPlan
  3
AecArchBase50|Product Desc: Autodesk Architectural Desktop 2007 |Company: Autodesk,Inc. |WEB Address: www.autodesk.com
 90
      129
 91
        4
280
     0
281
     0
  0
CLASS
  1
AEC_DISP_PROPS_SLAB
  2
AecDbDispPropsSlab
  3
AecArchBase50|Product Desc: Autodesk Architectural Desktop 2007 |Company: Autodesk,Inc. |WEB Address: www.autodesk.com
 90
      129
 91
        1
280
     0
281
     0
  0
CLASS
  1
AEC_DISP_PROPS_CLIP_VOLUME_RESULT
  2
AecDbDispPropsClipVolResSubDiv
  3
AecBase50|Product Desc: Autodesk Architectural Desktop 2007 |Company: Autodesk,Inc. |WEB Address: www.autodesk.com
 90
      129
 91
        2
280
     0
281
     0
  0
CLASS
  1
AEC_DISP_PROPS_DOOR_NOMINAL
  2
AecDbDispPropsDoorNominal
  3
AecArchBase50|Product Desc: Autodesk Architectural Desktop 2007 |Company: Autodesk,Inc. |WEB Address: www.autodesk.com
 90
      129
 91
        1
280
     0
281
     0
  0
CLASS
  1
AEC_DISP_PROPS_MATERIAL
  2
AecDbDispPropsMaterial
  3
AecBase50|Product Desc: Autodesk Architectural Desktop 2007 |Company: Autodesk,Inc. |WEB Address: www.autodesk.com
 90
      129
 91
        1
280
     0
281
     0
  0
CLASS
  1
AEC_DISP_PROPS_WALL_MODEL
  2
AecDbDispPropsWallModel
  3
AecArchBase50|Product Desc: Autodesk Architectural Desktop 2007 |Company: Autodesk,Inc. |WEB Address: www.autodesk.com
 90
      129
 91
        1
280
     0
281
     0
  0
CLASS
  1
AEC_LAYERKEY_STYLE
  2
AecDbLayerKeyStyle
  3
AecBase50|Product Desc: Autodesk Architectural Desktop 2007 |Company: Autodesk,Inc. |WEB Address: www.autodesk.com
 90
      129
 91
        1
280
     0
281
     0
  0
CLASS
  1
AEC_VARS_ARCHBASE
  2
AecDbVarsArchBase
  3
AecArchBase50|Product Desc: Autodesk Architectural Desktop 2007 |Company: Autodesk,Inc. |WEB Address: www.autodesk.com
 90
      129
 91
        1
280
     0
281
     0
  0
CLASS
  1
AEC_VARS_MUNICH
  2
AecDbVarsMunich
  3
AecArchDACHBase50|Product Desc: Autodesk Architectural Desktop 2007 |Company: Autodesk,Inc. |WEB Address: www.autodesk.com
 90
      129
 91
        1
280
     0
281
     0
  0
CLASS
  1
AEC_NOTIFICATION_TRACKER
  2
AecDbNotificationTracker
  3
AecBase50|Product Desc: Autodesk Architectural Desktop 2007 |Company: Autodesk,Inc. |WEB Address: www.autodesk.com
 90
      129
 91
        0
280
     0
281
     0
  0
CLASS
  1
AEC_DISP_REP_DOOR_THRESHOLD_SYMBOL_PLAN
  2
AecDbDispRepDoorThresholdSymbolPlan
  3
AecArchDACHBase50|Product Desc: Autodesk Architectural Desktop 2007 |Company: Autodesk,Inc. |WEB Address: www.autodesk.com
 90
      129
 91
        1
280
     0
281
     0
  0
CLASS
  1
AEC_DISP_PROPS_DOOR_THRESHOLD_SYMBOL_PLAN
  2
AecDbDispPropsDoorThresholdSymbolPlan
  3
AecArchDACHBase50|Product Desc: Autodesk Architectural Desktop 2007 |Company: Autodesk,Inc. |WEB Address: www.autodesk.com
 90
      129
 91
        1
280
     0
281
     0
  0
CLASS
  1
AEC_DISP_REP_RAILING_PLAN_100
  2
AecDbDispRepRailingPlan100
  3
AecArchDACHBase50|Product Desc: Autodesk Architectural Desktop 2007 |Company: Autodesk,Inc. |WEB Address: www.autodesk.com
 90
      129
 91
        1
280
     0
281
     0
  0
CLASS
  1
AEC_DISP_ROPS_RAILING_PLAN_100
  2
AecDbDispPropsRailingPlan100
  3
AecArchDACHBase50|Product Desc: Autodesk Architectural Desktop 2007 |Company: Autodesk,Inc. |WEB Address: www.autodesk.com
 90
      129
 91
        1
280
     0
281
     0
  0
CLASS
  1
AEC_DISP_REP_STAIR_PLAN_50
  2
AecDbDispRepStairPlan50
  3
AecArchDACHBase50|Product Desc: Autodesk Architectural Desktop 2007 |Company: Autodesk,Inc. |WEB Address: www.autodesk.com
 90
      129
 91
        1
280
     0
281
     0
  0
CLASS
  1
AEC_DISP_ROPS_STAIR_PLAN_50
  2
AecDbDispPropsStairPlan50
  3
AecArchDACHBase50|Product Desc: Autodesk Architectural Desktop 2007 |Company: Autodesk,Inc. |WEB Address: www.autodesk.com
 90
      129
 91
        1
280
     0
281
     0
  0
CLASS
  1
AEC_DISP_REP_STAIR_PLAN_100
  2
AecDbDispRepStairPlan100
  3
AecArchDACHBase50|Product Desc: Autodesk Architectural Desktop 2007 |Company: Autodesk,Inc. |WEB Address: www.autodesk.com
 90
      129
 91
        1
280
     0
281
     0
  0
CLASS
  1
AEC_DISP_ROPS_STAIR_PLAN_100
  2
AecDbDispPropsStairPlan100
  3
AecArchDACHBase50|Product Desc: Autodesk Architectural Desktop 2007 |Company: Autodesk,Inc. |WEB Address: www.autodesk.com
 90
      129
 91
        1
280
     0
281
     0
  0
CLASS
  1
AEC_DISP_REP_DOOR_PLAN_HEKTO
  2
AecDbDispRepDoorPlanHekto
  3
AecArchDACHBase50|Product Desc: Autodesk Architectural Desktop 2007 |Company: Autodesk,Inc. |WEB Address: www.autodesk.com
 90
      129
 91
        1
280
     0
281
     0
  0
CLASS
  1
AEC_DISP_PROPS_DOOR_PLAN_100
  2
AecDbDispPropsDoorPlan100
  3
AecArchDACHBase50|Product Desc: Autodesk Architectural Desktop 2007 |Company: Autodesk,Inc. |WEB Address: www.autodesk.com
 90
      129
 91
        1
280
     0
281
     0
  0
CLASS
  1
AEC_DB_DISP_REP_DIM_GROUP_PLAN50
  2
AecDbDispRepDimGroupPlan50
  3
AecArchDACHBase50|Product Desc: Autodesk Architectural Desktop 2007 |Company: Autodesk,Inc. |WEB Address: www.autodesk.com
 90
      129
 91
        1
280
     0
281
     0
  0
CLASS
  1
AEC_DISPREPAECDBDISPREPMASSGROUPPLAN100
  2
AecDbDispRepMassGroupPlan100
  3
AecArchDACHBase50|Product Desc: Autodesk Architectural Desktop 2007 |Company: Autodesk,Inc. |WEB Address: www.autodesk.com
 90
      129
 91
        1
280
     0
281
     0
  0
CLASS
  1
AEC_DISPROPSMASSGROUPPLANCOMMON
  2
AecDbDispPropsMassGroupPlanCommon
  3
AecArchDACHBase50|Product Desc: Autodesk Architectural Desktop 2007 |Company: Autodesk,Inc. |WEB Address: www.autodesk.com
 90
      129
 91
        2
280
     0
281
     0
  0
CLASS
  1
AEC_DISP_REP_WINDOW_PLAN_100
  2
AecDbDispRepWindowPlan100
  3
AecArchDACHBase50|Product Desc: Autodesk Architectural Desktop 2007 |Company: Autodesk,Inc. |WEB Address: www.autodesk.com
 90
      129
 91
        1
280
     0
281
     0
  0
CLASS
  1
AEC_DISP_PROPS_WINDOW_PLAN_100
  2
AecDbDispPropsWindowPlan100
  3
AecArchDACHBase50|Product Desc: Autodesk Architectural Desktop 2007 |Company: Autodesk,Inc. |WEB Address: www.autodesk.com
 90
      129
 91
        1
280
     0
281
     0
  0
CLASS
  1
AEC_DISPREPAECDBDISPREPMASSELEMPLAN50
  2
AecDbDispRepMassElemPlan50
  3
AecArchDACHBase50|Product Desc: Autodesk Architectural Desktop 2007 |Company: Autodesk,Inc. |WEB Address: www.autodesk.com
 90
      129
 91
        1
280
     0
281
     0
  0
CLASS
  1
AEC_DISPROPSMASSELEMPLANCOMMON
  2
AecDbDispPropsMassElemPlanCommon
  3
AecArchDACHBase50|Product Desc: Autodesk Architectural Desktop 2007 |Company: Autodesk,Inc. |WEB Address: www.autodesk.com
 90
      129
 91
        2
280
     0
281
     0
  0
CLASS
  1
AEC_DB_DISP_REP_DIM_GROUP_PLAN100
  2
AecDbDispRepDimGroupPlan100
  3
AecArchDACHBase50|Product Desc: Autodesk Architectural Desktop 2007 |Company: Autodesk,Inc. |WEB Address: www.autodesk.com
 90
      129
 91
        1
280
     0
281
     0
  0
CLASS
  1
AEC_DISPREPAECDBDISPREPMASSELEMPLAN100
  2
AecDbDispRepMassElemPlan100
  3
AecArchDACHBase50|Product Desc: Autodesk Architectural Desktop 2007 |Company: Autodesk,Inc. |WEB Address: www.autodesk.com
 90
      129
 91
        1
280
     0
281
     0
  0
CLASS
  1
AEC_DISP_REP_DOOR_PLAN_50
  2
AecDbDispRepDoorPlan50
  3
AecArchDACHBase50|Product Desc: Autodesk Architectural Desktop 2007 |Company: Autodesk,Inc. |WEB Address: www.autodesk.com
 90
      129
 91
        1
280
     0
281
     0
  0
CLASS
  1
AEC_DISP_PROPS_DOOR_PLAN_50
  2
AecDbDispPropsDoorPlan50
  3
AecArchDACHBase50|Product Desc: Autodesk Architectural Desktop 2007 |Company: Autodesk,Inc. |WEB Address: www.autodesk.com
 90
      129
 91
        1
280
     0
281
     0
  0
CLASS
  1
AEC_DISPREPAECDBDISPREPOPENINGPLANREFLECTED
  2
AecDbDispRepOpeningPlanReflected
  3
AecArchDACHBase50|Product Desc: Autodesk Architectural Desktop 2007 |Company: Autodesk,Inc. |WEB Address: www.autodesk.com
 90
      129
 91
        1
280
     0
281
     0
  0
CLASS
  1
AEC_DISPROPSOPENINGPLANCOMMON
  2
AecDbDispPropsOpeningPlanCommon
  3
AecArchDACHBase50|Product Desc: Autodesk Architectural Desktop 2007 |Company: Autodesk,Inc. |WEB Address: www.autodesk.com
 90
      129
 91
        1
280
     0
281
     0
  0
CLASS
  1
AEC_DISPREPAECDBDISPREPMASSGROUPPLAN50
  2
AecDbDispRepMassGroupPlan50
  3
AecArchDACHBase50|Product Desc: Autodesk Architectural Desktop 2007 |Company: Autodesk,Inc. |WEB Address: www.autodesk.com
 90
      129
 91
        1
280
     0
281
     0
  0
CLASS
  1
AEC_DISPREPAECDBDISPREPOPENINGPLAN50
  2
AecDbDispRepOpeningPlan50
  3
AecArchDACHBase50|Product Desc: Autodesk Architectural Desktop 2007 |Company: Autodesk,Inc. |WEB Address: www.autodesk.com
 90
      129
 91
        1
280
     0
281
     0
  0
CLASS
  1
AEC_DISPROPSOPENINGPLANCOMMONHATCHED
  2
AecDbDispPropsOpeningPlanCommonHatched
  3
AecArchDACHBase50|Product Desc: Autodesk Architectural Desktop 2007 |Company: Autodesk,Inc. |WEB Address: www.autodesk.com
 90
      129
 91
        2
280
     0
281
     0
  0
CLASS
  1
AEC_DISPREPAECDBDISPREPOPENINGSILLPLAN
  2
AecDbDispRepOpeningSillPlan
  3
AecArchDACHBase50|Product Desc: Autodesk Architectural Desktop 2007 |Company: Autodesk,Inc. |WEB Address: www.autodesk.com
 90
      129
 91
        1
280
     0
281
     0
  0
CLASS
  1
AEC_DISPROPSOPENINGSILLPLAN
  2
AecDbDispPropsOpeningSillPlan
  3
AecArchDACHBase50|Product Desc: Autodesk Architectural Desktop 2007 |Company: Autodesk,Inc. |WEB Address: www.autodesk.com
 90
      129
 91
        1
280
     0
281
     0
  0
CLASS
  1
AEC_DISP_REP_WINDOW_PLAN_50
  2
AecDbDispRepWindowPlan50
  3
AecArchDACHBase50|Product Desc: Autodesk Architectural Desktop 2007 |Company: Autodesk,Inc. |WEB Address: www.autodesk.com
 90
      129
 91
        1
280
     0
281
     0
  0
CLASS
  1
AEC_DISP_PROPS_WINDOW_PLAN_50
  2
AecDbDispPropsWindowPlan50
  3
AecArchDACHBase50|Product Desc: Autodesk Architectural Desktop 2007 |Company: Autodesk,Inc. |WEB Address: www.autodesk.com
 90
      129
 91
        1
280
     0
281
     0
  0
CLASS
  1
AEC_DISP_REP_RAILING_PLAN_50
  2
AecDbDispRepRailingPlan50
  3
AecArchDACHBase50|Product Desc: Autodesk Architectural Desktop 2007 |Company: Autodesk,Inc. |WEB Address: www.autodesk.com
 90
      129
 91
        1
280
     0
281
     0
  0
CLASS
  1
AEC_DISP_ROPS_RAILING_PLAN_50
  2
AecDbDispPropsRailingPlan50
  3
AecArchDACHBase50|Product Desc: Autodesk Architectural Desktop 2007 |Company: Autodesk,Inc. |WEB Address: www.autodesk.com
 90
      129
 91
        1
280
     0
281
     0
  0
CLASS
  1
AEC_DISPREPAECDBDISPREPOPENINGPLAN100
  2
AecDbDispRepOpeningPlan100
  3
AecArchDACHBase50|Product Desc: Autodesk Architectural Desktop 2007 |Company: Autodesk,Inc. |WEB Address: www.autodesk.com
 90
      129
 91
        1
280
     0
281
     0
  0
CLASS
  1
AEC_AECDBDISPREPCURTAINWALLUNITPLAN100
  2
AecDbDispRepCurtainWallUnitPlan100
  3
AecArchDACHBase50|Product Desc: Autodesk Architectural Desktop 2007 |Company: Autodesk,Inc. |WEB Address: www.autodesk.com
 90
      129
 91
        1
280
     0
281
     0
  0
CLASS
  1
AEC_AECDBDISPREPSPACEPLAN100
  2
AecDbDispRepSpacePlan100
  3
AecArchDACHBase50|Product Desc: Autodesk Architectural Desktop 2007 |Company: Autodesk,Inc. |WEB Address: www.autodesk.com
 90
      129
 91
        1
280
     0
281
     0
  0
CLASS
  1
AEC_DISP_REP_COLUMN_GRID_RCP
  2
AecDbDispRepColumnGridRcp
  3
AecStructureBase50|Product Desc: Autodesk Architectural Desktop 2007 |Company: Autodesk,Inc. |WEB Address: www.autodesk.com
 90
      129
 91
        1
280
     0
281
     0
  0
CLASS
  1
AEC_AECDBDISPREPBDGELEVLINEPLAN100
  2
AecDbDispRepBdgElevLinePlan100
  3
AecArchDACHBase50|Product Desc: Autodesk Architectural Desktop 2007 |Company: Autodesk,Inc. |WEB Address: www.autodesk.com
 90
      129
 91
        1
280
     0
281
     0
  0
CLASS
  1
AEC_AECDBDISPREPROOFPLAN100
  2
AecDbDispRepRoofPlan100
  3
AecArchDACHBase50|Product Desc: Autodesk Architectural Desktop 2007 |Company: Autodesk,Inc. |WEB Address: www.autodesk.com
 90
      129
 91
        1
280
     0
281
     0
  0
CLASS
  1
AEC_AECDBDISPREPROOFSLABPLAN50
  2
AecDbDispRepRoofSlabPlan50
  3
AecArchDACHBase50|Product Desc: Autodesk Architectural Desktop 2007 |Company: Autodesk,Inc. |WEB Address: www.autodesk.com
 90
      129
 91
        1
280
     0
281
     0
  0
CLASS
  1
AEC_AECDBDISPREPCOLUMNGRIDPLAN50
  2
AecDbDispRepColumnGridPlan50
  3
AecArchDACHBase50|Product Desc: Autodesk Architectural Desktop 2007 |Company: Autodesk,Inc. |WEB Address: www.autodesk.com
 90
      129
 91
        1
280
     0
281
     0
  0
CLASS
  1
AEC_AECDBDISPREPZONE50
  2
AecDbDispRepZonePlan50
  3
AecArchDACHBase50|Product Desc: Autodesk Architectural Desktop 2007 |Company: Autodesk,Inc. |WEB Address: www.autodesk.com
 90
      129
 91
        1
280
     0
281
     0
  0
CLASS
  1
AEC_AECDBDISPREPCURTAINWALLLAYOUTPLAN50
  2
AecDbDispRepCurtainWallLayoutPlan50
  3
AecArchDACHBase50|Product Desc: Autodesk Architectural Desktop 2007 |Company: Autodesk,Inc. |WEB Address: www.autodesk.com
 90
      129
 91
        1
280
     0
281
     0
  0
CLASS
  1
AEC_AECDBDISPREPZONE100
  2
AecDbDispRepZonePlan100
  3
AecArchDACHBase50|Product Desc: Autodesk Architectural Desktop 2007 |Company: Autodesk,Inc. |WEB Address: www.autodesk.com
 90
      129
 91
        1
280
     0
281
     0
  0
CLASS
  1
AEC_AECDBDISPREPMVBLOCKREFPLAN100
  2
AecDbDispRepMvBlockRefPlan100
  3
AecArchDACHBase50|Product Desc: Autodesk Architectural Desktop 2007 |Company: Autodesk,Inc. |WEB Address: www.autodesk.com
 90
      129
 91
        1
280
     0
281
     0
  0
CLASS
  1
AECS_DISP_REP_MEMBER_PLAN_SKETCH
  2
AecsDbDispRepMemberPlanSketch
  3
AecStructureBase50|Product Desc: Autodesk Architectural Desktop 2007 |Company: Autodesk,Inc. |WEB Address: www.autodesk.com
 90
      129
 91
        1
280
     0
281
     0
  0
CLASS
  1
AECS_DISP_PROPS_MEMBER_PLAN_SKETCH
  2
AecsDbDispPropsMemberPlanSketch
  3
AecStructureBase50|Product Desc: Autodesk Architectural Desktop 2007 |Company: Autodesk,Inc. |WEB Address: www.autodesk.com
 90
      129
 91
        1
280
     0
281
     0
  0
CLASS
  1
AECS_DISP_REP_MEMBER_PLAN_DETAIL
  2
AecsDbDispRepMemberPlanDetail
  3
AecStructureBase50|Product Desc: Autodesk Architectural Desktop 2007 |Company: Autodesk,Inc. |WEB Address: www.autodesk.com
 90
      129
 91
        1
280
     0
281
     0
  0
CLASS
  1
AEC_AECDBDISPREPBDGSECTIONLINEPLAN50
  2
AecDbDispRepBdgSectionLinePlan50
  3
AecArchDACHBase50|Product Desc: Autodesk Architectural Desktop 2007 |Company: Autodesk,Inc. |WEB Address: www.autodesk.com
 90
      129
 91
        1
280
     0
281
     0
  0
CLASS
  1
AEC_AECDBDISPREPCEILINGGRIDPLAN50
  2
AecDbDispRepCeilingGridPlan50
  3
AecArchDACHBase50|Product Desc: Autodesk Architectural Desktop 2007 |Company: Autodesk,Inc. |WEB Address: www.autodesk.com
 90
      129
 91
        1
280
     0
281
     0
  0
CLASS
  1
AECS_DISP_REP_MEMBER_ELEVATION_DESIGN
  2
AecsDbDispRepMemberElevationDesign
  3
AecStructureBase50|Product Desc: Autodesk Architectural Desktop 2007 |Company: Autodesk,Inc. |WEB Address: www.autodesk.com
 90
      129
 91
        1
280
     0
281
     0
  0
CLASS
  1
AECS_DISP_PROPS_MEMBER_PROJECTED
  2
AecsDbDispPropsMemberProjected
  3
AecStructureBase50|Product Desc: Autodesk Architectural Desktop 2007 |Company: Autodesk,Inc. |WEB Address: www.autodesk.com
 90
      129
 91
        2
280
     0
281
     0
  0
CLASS
  1
AEC_AECDBDISPREPWALLPLAN50
  2
AecDbDispRepWallPlan50
  3
AecArchDACHBase50|Product Desc: Autodesk Architectural Desktop 2007 |Company: Autodesk,Inc. |WEB Address: www.autodesk.com
 90
      129
 91
        1
280
     0
281
     0
  0
CLASS
  1
AEC_AECDBDISPREPSPACEPLAN50
  2
AecDbDispRepSpacePlan50
  3
AecArchDACHBase50|Product Desc: Autodesk Architectural Desktop 2007 |Company: Autodesk,Inc. |WEB Address: www.autodesk.com
 90
      129
 91
        1
280
     0
281
     0
  0
CLASS
  1
AEC_AECDBDISPREPWALLPLAN100
  2
AecDbDispRepWallPlan100
  3
AecArchDACHBase50|Product Desc: Autodesk Architectural Desktop 2007 |Company: Autodesk,Inc. |WEB Address: www.autodesk.com
 90
      129
 91
        1
280
     0
281
     0
  0
CLASS
  1
AEC_AECDBDISPREPCURTAINWALLUNITPLAN50
  2
AecDbDispRepCurtainWallUnitPlan50
  3
AecArchDACHBase50|Product Desc: Autodesk Architectural Desktop 2007 |Company: Autodesk,Inc. |WEB Address: www.autodesk.com
 90
      129
 91
        1
280
     0
281
     0
  0
CLASS
  1
AECS_DISP_REP_MEMBER_ELEVATION_DETAIL
  2
AecsDbDispRepMemberElevationDetail
  3
AecStructureBase50|Product Desc: Autodesk Architectural Desktop 2007 |Company: Autodesk,Inc. |WEB Address: www.autodesk.com
 90
      129
 91
        1
280
     0
281
     0
  0
CLASS
  1
AECS_DISP_REP_MEMBER_MODEL_DETAIL
  2
AecsDbDispRepMemberModelDetail
  3
AecStructureBase50|Product Desc: Autodesk Architectural Desktop 2007 |Company: Autodesk,Inc. |WEB Address: www.autodesk.com
 90
      129
 91
        1
280
     0
281
     0
  0
CLASS
  1
AEC_AECDBDISPREPCEILINGGRIDPLAN100
  2
AecDbDispRepCeilingGridPlan100
  3
AecArchDACHBase50|Product Desc: Autodesk Architectural Desktop 2007 |Company: Autodesk,Inc. |WEB Address: www.autodesk.com
 90
      129
 91
        1
280
     0
281
     0
  0
CLASS
  1
AEC_AECDBDISPREPBDGSECTIONLINEPLAN100
  2
AecDbDispRepBdgSectionLinePlan100
  3
AecArchDACHBase50|Product Desc: Autodesk Architectural Desktop 2007 |Company: Autodesk,Inc. |WEB Address: www.autodesk.com
 90
      129
 91
        1
280
     0
281
     0
  0
CLASS
  1
AEC_DISP_REP_ANCHOR_BUB_TO_GRID_RCP
  2
AecDbDispRepAnchorBubToGridRcp
  3
AecStructureBase50|Product Desc: Autodesk Architectural Desktop 2007 |Company: Autodesk,Inc. |WEB Address: www.autodesk.com
 90
      129
 91
        1
280
     0
281
     0
  0
CLASS
  1
AEC_AECDBDISPREPBDGELEVLINEPLAN50
  2
AecDbDispRepBdgElevLinePlan50
  3
AecArchDACHBase50|Product Desc: Autodesk Architectural Desktop 2007 |Company: Autodesk,Inc. |WEB Address: www.autodesk.com
 90
      129
 91
        1
280
     0
281
     0
  0
CLASS
  1
AEC_AECDBDISPREPWINDOWASSEMBLYPLAN50
  2
AecDbDispRepWindowAssemblyPlan50
  3
AecArchDACHBase50|Product Desc: Autodesk Architectural Desktop 2007 |Company: Autodesk,Inc. |WEB Address: www.autodesk.com
 90
      129
 91
        1
280
     0
281
     0
  0
CLASS
  1
AEC_AECDBDISPREPROOFSLABPLAN100
  2
AecDbDispRepRoofSlabPlan100
  3
AecArchDACHBase50|Product Desc: Autodesk Architectural Desktop 2007 |Company: Autodesk,Inc. |WEB Address: www.autodesk.com
 90
      129
 91
        1
280
     0
281
     0
  0
CLASS
  1
AEC_AECDBDISPREPROOFPLAN50
  2
AecDbDispRepRoofPlan50
  3
AecArchDACHBase50|Product Desc: Autodesk Architectural Desktop 2007 |Company: Autodesk,Inc. |WEB Address: www.autodesk.com
 90
      129
 91
        1
280
     0
281
     0
  0
CLASS
  1
AEC_AECDBDISPREPCOLUMNGRIDPLAN100
  2
AecDbDispRepColumnGridPlan100
  3
AecArchDACHBase50|Product Desc: Autodesk Architectural Desktop 2007 |Company: Autodesk,Inc. |WEB Address: www.autodesk.com
 90
      129
 91
        1
280
     0
281
     0
  0
CLASS
  1
AEC_AECDBDISPREPSLABPLAN50
  2
AecDbDispRepSlabPlan50
  3
AecArchDACHBase50|Product Desc: Autodesk Architectural Desktop 2007 |Company: Autodesk,Inc. |WEB Address: www.autodesk.com
 90
      129
 91
        1
280
     0
281
     0
  0
CLASS
  1
AEC_AECDBDISPREPSLABPLAN100
  2
AecDbDispRepSlabPlan100
  3
AecArchDACHBase50|Product Desc: Autodesk Architectural Desktop 2007 |Company: Autodesk,Inc. |WEB Address: www.autodesk.com
 90
      129
 91
        1
280
     0
281
     0
  0
CLASS
  1
AEC_AECDBDISPREPCURTAINWALLLAYOUTPLAN100
  2
AecDbDispRepCurtainWallLayoutPlan100
  3
AecArchDACHBase50|Product Desc: Autodesk Architectural Desktop 2007 |Company: Autodesk,Inc. |WEB Address: www.autodesk.com
 90
      129
 91
        1
280
     0
281
     0
  0
CLASS
  1
AEC_AECDBDISPREPMVBLOCKREFPLAN50
  2
AecDbDispRepMvBlockRefPlan50
  3
AecArchDACHBase50|Product Desc: Autodesk Architectural Desktop 2007 |Company: Autodesk,Inc. |WEB Address: www.autodesk.com
 90
      129
 91
        1
280
     0
281
     0
  0
CLASS
  1
AEC_DISP_REP_WINDOW_ELEV
  2
AecDbDispRepWindowElev
  3
AecArchBase50|Product Desc: Autodesk Architectural Desktop 2007 |Company: Autodesk,Inc. |WEB Address: www.autodesk.com
 90
      129
 91
        1
280
     0
281
     0
  0
CLASS
  1
AEC_DISP_REP_WINDOW_SILL_PLAN
  2
AecDbDispRepWindowSillPlan
  3
AecArchBase50|Product Desc: Autodesk Architectural Desktop 2007 |Company: Autodesk,Inc. |WEB Address: www.autodesk.com
 90
      129
 91
        1
280
     0
281
     0
  0
CLASS
  1
AEC_DISP_PROPS_WINDOW_SILL_PLAN
  2
AecDbDispPropsWindowSillPlan
  3
AecArchBase50|Product Desc: Autodesk Architectural Desktop 2007 |Company: Autodesk,Inc. |WEB Address: www.autodesk.com
 90
      129
 91
        1
280
     0
281
     0
  0
CLASS
  1
AEC_DISP_REP_WINDOW_RCP
  2
AecDbDispRepWindowRcp
  3
AecArchBase50|Product Desc: Autodesk Architectural Desktop 2007 |Company: Autodesk,Inc. |WEB Address: www.autodesk.com
 90
      129
 91
        1
280
     0
281
     0
  0
CLASS
  1
AEC_DISP_REP_WINDOWASSEMBLY_SILL_PLAN
  2
AecDbDispRepWindowAssemblySillPlan
  3
AecArchBase50|Product Desc: Autodesk Architectural Desktop 2007 |Company: Autodesk,Inc. |WEB Address: www.autodesk.com
 90
      129
 91
        1
280
     0
281
     0
  0
CLASS
  1
AEC_DISP_PROPS_WINDOW_ASSEMBLY_SILL_PLAN
  2
AecDbDispPropsWindowAssemblySillPlan
  3
AecArchBase50|Product Desc: Autodesk Architectural Desktop 2007 |Company: Autodesk,Inc. |WEB Address: www.autodesk.com
 90
      129
 91
        1
280
     0
281
     0
  0
CLASS
  1
AEC_DISP_REP_MASS_ELEM_RCP
  2
AecDbDispRepMassElemRcp
  3
AecArchBase50|Product Desc: Autodesk Architectural Desktop 2007 |Company: Autodesk,Inc. |WEB Address: www.autodesk.com
 90
      129
 91
        1
280
     0
281
     0
  0
CLASS
  1
AEC_DISP_REP_MVBLOCK_REF_RCP
  2
AecDbDispRepMvBlockRefRcp
  3
AecArchBase50|Product Desc: Autodesk Architectural Desktop 2007 |Company: Autodesk,Inc. |WEB Address: www.autodesk.com
 90
      129
 91
        1
280
     0
281
     0
  0
CLASS
  1
AEC_DISP_REP_DOOR_THRESHOLD_PLAN
  2
AecDbDispRepDoorThresholdPlan
  3
AecArchBase50|Product Desc: Autodesk Architectural Desktop 2007 |Company: Autodesk,Inc. |WEB Address: www.autodesk.com
 90
      129
 91
        1
280
     0
281
     0
  0
CLASS
  1
AEC_DISP_PROPS_DOOR_THRESHOLD_PLAN
  2
AecDbDispPropsDoorThresholdPlan
  3
AecArchBase50|Product Desc: Autodesk Architectural Desktop 2007 |Company: Autodesk,Inc. |WEB Address: www.autodesk.com
 90
      129
 91
        1
280
     0
281
     0
  0
CLASS
  1
AEC_DISP_REP_BDG_SECTIONLINE_RCP
  2
AecDbDispRepBdgSectionLineRcp
  3
AecArchBase50|Product Desc: Autodesk Architectural Desktop 2007 |Company: Autodesk,Inc. |WEB Address: www.autodesk.com
 90
      129
 91
        1
280
     0
281
     0
  0
CLASS
  1
AEC_DISP_REP_BDG_SECTION_MODEL
  2
AecDbDispRepBdgSectionModel
  3
AecArchBase50|Product Desc: Autodesk Architectural Desktop 2007 |Company: Autodesk,Inc. |WEB Address: www.autodesk.com
 90
      129
 91
        1
280
     0
281
     0
  0
CLASS
  1
AEC_DISP_REP_MASS_GROUP_RCP
  2
AecDbDispRepMassGroupRcp
  3
AecArchBase50|Product Desc: Autodesk Architectural Desktop 2007 |Company: Autodesk,Inc. |WEB Address: www.autodesk.com
 90
      129
 91
        1
280
     0
281
     0
  0
CLASS
  1
AEC_DISP_REP_DOOR_RCP
  2
AecDbDispRepDoorRcp
  3
AecArchBase50|Product Desc: Autodesk Architectural Desktop 2007 |Company: Autodesk,Inc. |WEB Address: www.autodesk.com
 90
      129
 91
        1
280
     0
281
     0
  0
CLASS
  1
AEC_DISP_REP_ROOF_RCP
  2
AecDbDispRepRoofRcp
  3
AecArchBase50|Product Desc: Autodesk Architectural Desktop 2007 |Company: Autodesk,Inc. |WEB Address: www.autodesk.com
 90
      129
 91
        1
280
     0
281
     0
  0
CLASS
  1
AEC_DISP_REP_BDG_ELEVLINE_RCP
  2
AecDbDispRepBdgElevLineRcp
  3
AecArchBase50|Product Desc: Autodesk Architectural Desktop 2007 |Company: Autodesk,Inc. |WEB Address: www.autodesk.com
 90
      129
 91
        1
280
     0
281
     0
  0
CLASS
  1
AEC_DISP_REP_WALL_RCP
  2
AecDbDispRepWallRcp
  3
AecArchBase50|Product Desc: Autodesk Architectural Desktop 2007 |Company: Autodesk,Inc. |WEB Address: www.autodesk.com
 90
      129
 91
        1
280
     0
281
     0
  0
CLASS
  1
AEC_DISP_REP_STAIR_RCP
  2
AecDbDispRepStairRcp
  3
AecArchBase50|Product Desc: Autodesk Architectural Desktop 2007 |Company: Autodesk,Inc. |WEB Address: www.autodesk.com
 90
      129
 91
        1
280
     0
281
     0
  0
CLASS
  1
AEC_DISP_REP_STAIR_PLAN_OVERLAPPING
  2
AecDbDispRepStairPlanOverlapping
  3
AecArchBase50|Product Desc: Autodesk Architectural Desktop 2007 |Company: Autodesk,Inc. |WEB Address: www.autodesk.com
 90
      129
 91
        1
280
     0
281
     0
  0
CLASS
  1
AEC_DISP_PROPS_STAIR_PLAN_OVERLAPPING
  2
AecDbDispPropsStairPlanOverlapping
  3
AecArchBase50|Product Desc: Autodesk Architectural Desktop 2007 |Company: Autodesk,Inc. |WEB Address: www.autodesk.com
 90
      129
 91
        1
280
     0
281
     0
  0
CLASS
  1
AEC_DISP_REP_SPACE_RCP
  2
AecDbDispRepSpaceRcp
  3
AecArchBase50|Product Desc: Autodesk Architectural Desktop 2007 |Company: Autodesk,Inc. |WEB Address: www.autodesk.com
 90
      129
 91
        1
280
     0
281
     0
  0
CLASS
  1
AEC_DISP_REP_SPACE_VOLUME
  2
AecDbDispRepSpaceVolume
  3
AecArchBase50|Product Desc: Autodesk Architectural Desktop 2007 |Company: Autodesk,Inc. |WEB Address: www.autodesk.com
 90
      129
 91
        1
280
     0
281
     0
  0
CLASS
  1
AEC_DISP_REP_DOOR_ELEV
  2
AecDbDispRepDoorElev
  3
AecArchBase50|Product Desc: Autodesk Architectural Desktop 2007 |Company: Autodesk,Inc. |WEB Address: www.autodesk.com
 90
      129
 91
        1
280
     0
281
     0
  0
CLASS
  1
AEC_DISP_REP_ANCHOR_EXT_TAG_TO_ENT
  2
AecDbDispRepAnchorExtendedTagToEnt
  3
AecScheduleData50|Product Desc: Autodesk Architectural Desktop 2007 |Company: Autodesk,Inc. |WEB Address: www.autodesk.com
 90
      129
 91
        1
280
     0
281
     0
  0
CLASS
  1
AEC_DISP_REP_ANCHOR
  2
AecDbDispRepAnchor
  3
AecBase50|Product Desc: Autodesk Architectural Desktop 2007 |Company: Autodesk,Inc. |WEB Address: www.autodesk.com
 90
      129
 91
        1
280
     0
281
     0
  0
CLASS
  1
AEC_DISP_REP_POLYGON_TRUECOLOUR
  2
AecDbDispRepPolygonTrueColour
  3
AecBaseEx50|Product Desc: Autodesk Architectural Desktop 2007 |Company: Autodesk,Inc. |WEB Address: www.autodesk.com
 90
      129
 91
        1
280
     0
281
     0
  0
CLASS
  1
AEC_DISP_PROPS_POLYGON_TRUECOLOUR
  2
AecDbDispPropsPolygonTrueColour
  3
AecBaseEx50|Product Desc: Autodesk Architectural Desktop 2007 |Company: Autodesk,Inc. |WEB Address: www.autodesk.com
 90
      129
 91
        1
280
     0
281
     0
  0
CLASS
  1
BINRECORD
  2
AcAecBinRecord
  3
AecBase50|Product Desc: Autodesk Architectural Desktop 2007 |Company: Autodesk,Inc. |WEB Address: www.autodesk.com
 90
      129
 91
        1
280
     0
281
     0
  0
CLASS
  1
ACSH_SPHERE_CLASS
  2
AcDbShSphere
  3
ObjectDBX Classes
 90
     1153
 91
        0
280
     0
281
     0
  0
CLASS
  1
ACSH_HISTORY_CLASS
  2
AcDbShHistory
  3
ObjectDBX Classes
 90
     1153
 91
        0
280
     0
281
     0
  0
CLASS
  1
SOLID_BACKGROUND
  2
AcDbSolidBackground
  3
SCENEOE
 90
     4095
 91
        0
280
     0
281
     0
  0
CLASS
  1
ACSH_BOX_CLASS
  2
AcDbShBox
  3
ObjectDBX Classes
 90
     1153
 91
        0
280
     0
281
     0
  0
CLASS
  1
ACSH_CONE_CLASS
  2
AcDbShCone
  3
ObjectDBX Classes
 90
     1153
 91
        0
280
     0
281
     0
  0
CLASS
  1
ACSH_TORUS_CLASS
  2
AcDbShTorus
  3
ObjectDBX Classes
 90
     1153
 91
        0
280
     0
281
     0
  0
CLASS
  1
HELIX
  2
AcDbHelix
  3
ObjectDBX Classes
 90
     4095
 91
        0
280
     0
281
     1
  0
CLASS
  1
ACSH_SWEEP_CLASS
  2
AcDbShSweep
  3
ObjectDBX Classes
 90
     1153
 91
        0
280
     0
281
     0
  0
CLASS
  1
EXACXREFPANELOBJECT
  2
ExAcXREFPanelObject
  3
EXAC_ESW
 90
     1025
 91
        1
280
     0
281
     0
  0
CLASS
  1
FIELD
  2
AcDbField
  3
ObjectDBX Classes
 90
     1152
 91
        0
280
     0
281
     0
  0
CLASS
  1
IMAGE
  2
AcDbRasterImage
  3
ISM
 90
     2175
 91
        0
280
     0
281
     1
  0
CLASS
  1
IMAGEDEF_REACTOR
  2
AcDbRasterImageDefReactor
  3
ISM
 90
        1
 91
        0
280
     0
281
     0
  0
CLASS
  1
IMAGEDEF
  2
AcDbRasterImageDef
  3
ISM
 90
        0
 91
        0
280
     0
281
     0
  0
CLASS
  1
FIELDLIST
  2
AcDbFieldList
  3
ObjectDBX Classes
 90
     1152
 91
        1
280
     0
281
     0
  0
CLASS
  1
RASTERVARIABLES
  2
AcDbRasterVariables
  3
ISM
 90
        0
 91
        1
280
     0
281
     0
  0
CLASS
  1
EXACTERMXREFMAP
  2
ExAcTermXrefMap
  3
EXAC_SERVICE
 90
     1025
 91
        0
280
     0
281
     0
  0
CLASS
  1
DWFDEFINITION
  2
AcDbDwfDefinition
  3
ObjectDBX Classes
 90
     1153
 91
        0
280
     0
281
     0
  0
CLASS
  1
DWFUNDERLAY
  2
AcDbDwfReference
  3
ObjectDBX Classes
 90
     1153
 91
        0
280
     0
281
     1
  0
CLASS
  1
ACAECUSTOBJ
  2
AcAeEditorObj
  3
AcAeEditorObj
 90
     1024
 91
        0
280
     0
281
     0
  0
CLASS
  1
ACDB_MTEXTOBJECTCONTEXTDATA_CLASS
  2
AcDbMTextObjectContextData
  3
ObjectDBX Classes
 90
     1153
 91
        2
280
     0
281
     0
  0
CLASS
  1
ACDB_HATCHVIEWCONTEXTDATA_CLASS
  2
AcDbHatchViewContextData
  3
ObjectDBX Classes
 90
     1153
 91
      114
280
     0
281
     0
  0
CLASS
  1
ACDB_HATCHSCALECONTEXTDATA_CLASS
  2
AcDbHatchScaleContextData
  3
ObjectDBX Classes
 90
     1153
 91
       76
280
     0
281
     0
  0
ENDSEC
  0
SECTION
  2
TABLES
  0
TABLE
  2
VPORT
  5
8
330
0
100
AcDbSymbolTable
 70
     1
  0
VPORT
  5
215
330
8
100
AcDbSymbolTableRecord
100
AcDbViewportTableRecord
  2
*Active
 70
     0
 10
0.0
 20
0.0
 11
1.0
 21
1.0
 12
-792.9019892153806
 22
67.07518332581662
 13
0.0
 23
0.0
 14
0.5
 24
0.5
 15
0.5
 25
0.5
 16
0.0
 26
0.0
 36
1736.523449255554
 17
575.4799205165254
 27
202.4030064071585
 37
-142.8182665861146
 40
2840.760321411236
 41
2.116022099447513
 42
50.0
 43
0.0
 44
0.0
 50
0.0
 51
0.0
 71
     0
 72
  1000
 73
     1
 74
     3
 75
     0
 76
     0
 77
     0
 78
     0
281
     0
 65
     0
110
0.0
120
0.0
130
0.0
111
1.0
121
0.0
131
0.0
112
0.0
122
1.0
132
0.0
 79
     0
146
0.0
348
220
 60
     3
 61
     5
292
     1
282
     1
141
0.0
142
0.0
 63
   250
421
  3355443
  0
ENDTAB
  0
TABLE
  2
LTYPE
  5
5
330
0
100
AcDbSymbolTable
 70
     9
  0
LTYPE
  5
14
330
5
100
AcDbSymbolTableRecord
100
AcDbLinetypeTableRecord
  2
ByBlock
 70
     0
  3

 72
    65
 73
     0
 40
0.0
  0
LTYPE
  5
15
330
5
100
AcDbSymbolTableRecord
100
AcDbLinetypeTableRecord
  2
ByLayer
 70
     0
  3

 72
    65
 73
     0
 40
0.0
  0
LTYPE
  5
16
330
5
100
AcDbSymbolTableRecord
100
AcDbLinetypeTableRecord
  2
Continuous
 70
     0
  3
Solid line
 72
    65
 73
     0
 40
0.0
  0
LTYPE
  5
FD70
330
5
100
AcDbSymbolTableRecord
100
AcDbLinetypeTableRecord
  2
DASHED
 70
     0
  3
Dashed __ __ __ __ __ __ __ __ __ __ __ __ __ _
 72
    65
 73
     2
 40
0.75
 49
0.5
 74
     0
 49
-0.25
 74
     0
  0
LTYPE
  5
FD71
330
5
100
AcDbSymbolTableRecord
100
AcDbLinetypeTableRecord
  2
CENTER
 70
     0
  3
Center ____ _ ____ _ ____ _ ____ _ ____ _ ____
 72
    65
 73
     4
 40
2.0
 49
1.25
 74
     0
 49
-0.25
 74
     0
 49
0.25
 74
     0
 49
-0.25
 74
     0
  0
LTYPE
  5
FD72
330
5
100
AcDbSymbolTableRecord
100
AcDbLinetypeTableRecord
  2
HIDDEN
 70
     0
  3
Hidden __ __ __ __ __ __ __ __ __ __ __ __ __ _
 72
    65
 73
     2
 40
0.375
 49
0.25
 74
     0
 49
-0.125
 74
     0
  0
LTYPE
  5
FD73
330
5
100
AcDbSymbolTableRecord
100
AcDbLinetypeTableRecord
  2
DIVIDE2
 70
     0
  3
Divide (.5x) __..__..__..__..__..__..__..__.._
 72
    65
 73
     6
 40
0.625
 49
0.25
 74
     0
 49
-0.125
 74
     0
 49
0.0
 74
     0
 49
-0.125
 74
     0
 49
0.0
 74
     0
 49
-0.125
 74
     0
  0
LTYPE
  5
FF47
330
5
100
AcDbSymbolTableRecord
100
AcDbLinetypeTableRecord
  2
mp000096$0$DASHED
 70
     0
  3
Dashed __ __ __ __ __ __ __ __ __ __ __ __ __ _
 72
    65
 73
     2
 40
0.75
 49
0.5
 74
     0
 49
-0.25
 74
     0
  0
LTYPE
  5
FF48
330
5
100
AcDbSymbolTableRecord
100
AcDbLinetypeTableRecord
  2
mp000096$0$CENTER
 70
     0
  3
Center ____ _ ____ _ ____ _ ____ _ ____ _ ____
 72
    65
 73
     4
 40
2.0
 49
1.25
 74
     0
 49
-0.25
 74
     0
 49
0.25
 74
     0
 49
-0.25
 74
     0
  0
LTYPE
  5
FF49
330
5
100
AcDbSymbolTableRecord
100
AcDbLinetypeTableRecord
  2
mp000096$0$HIDDEN
 70
     0
  3
Hidden __ __ __ __ __ __ __ __ __ __ __ __ __ _
 72
    65
 73
     2
 40
0.375
 49
0.25
 74
     0
 49
-0.125
 74
     0
  0
LTYPE
  5
FF4A
330
5
100
AcDbSymbolTableRecord
100
AcDbLinetypeTableRecord
  2
mp000096$0$DIVIDE2
 70
     0
  3
Divide (.5x) __..__..__..__..__..__..__..__.._
 72
    65
 73
     6
 40
0.625
 49
0.25
 74
     0
 49
-0.125
 74
     0
 49
0.0
 74
     0
 49
-0.125
 74
     0
 49
0.0
 74
     0
 49
-0.125
 74
     0
  0
ENDTAB
  0
TABLE
  2
LAYER
  5
2
102
{ACAD_XDICTIONARY
360
28F
102
}
330
0
100
AcDbSymbolTable
 70
    21
  0
LAYER
  5
10
102
{ACAD_XDICTIONARY
360
308
102
}
330
2
100
AcDbSymbolTableRecord
100
AcDbLayerTableRecord
  2
0
 70
     0
 62
     7
  6
Continuous
370
    -3
390
F
347
219
  0
LAYER
  5
37D
102
{ACAD_XDICTIONARY
360
37E
102
}
330
2
100
AcDbSymbolTableRecord
100
AcDbLayerTableRecord
  2
defpoints
 70
     0
 62
     7
  6
Continuous
290
     0
370
    -3
390
F
347
219
  0
LAYER
  5
E494
330
2
100
AcDbSymbolTableRecord
100
AcDbLayerTableRecord
  2
MP Steel Framing Perimeter (00134159)
 70
     0
 62
     9
420
 11131584
  6
Continuous
370
     5
390
F
347
219
  0
LAYER
  5
E6AE
330
2
100
AcDbSymbolTableRecord
100
AcDbLayerTableRecord
  2
MP Annotation (00134142)
 70
     0
 62
     7
  6
Continuous
370
     0
390
F
347
219
  0
LAYER
  5
E6B7
330
2
100
AcDbSymbolTableRecord
100
AcDbLayerTableRecord
  2
MP Panel Hatch (00134149)
 70
     0
 62
   161
420
  6263292
  6
Continuous
370
     0
390
F
347
219
  0
LAYER
  5
EC0F
330
2
100
AcDbSymbolTableRecord
100
AcDbLayerTableRecord
  2
MP Barricade Building Wrap Perimeter Isometric (00134183)
 70
     0
 62
   142
420
   434907
  6
Continuous
370
    20
390
F
347
219
  0
LAYER
  5
EC10
330
2
100
AcDbSymbolTableRecord
100
AcDbLayerTableRecord
  2
MP Timber Perimeter (00134144)
 70
     0
 62
    33
420
 11965012
  6
Continuous
370
    15
390
F
347
219
  0
LAYER
  5
EC11
330
2
100
AcDbSymbolTableRecord
100
AcDbLayerTableRecord
  2
MP Timber Inner (00134145)
 70
     0
 62
    36
420
  7163415
  6
Continuous
370
     9
390
F
347
219
  0
LAYER
  5
EC12
330
2
100
AcDbSymbolTableRecord
100
AcDbLayerTableRecord
  2
MP Panel Perimeter Isometric(00134194)
 70
     0
 62
   162
420
   279240
  6
Continuous
370
    15
390
F
347
219
  0
LAYER
  5
EC13
330
2
100
AcDbSymbolTableRecord
100
AcDbLayerTableRecord
  2
MP Barricade Building Wrap Hatch (00134140
 70
     0
 62
   146
420
   218482
  6
Continuous
370
     5
390
F
347
219
  0
LAYER
  5
ECC5
330
2
100
AcDbSymbolTableRecord
100
AcDbLayerTableRecord
  2
MP Thermal Break Hatch (00134161)
 70
     0
 62
   138
420
    23621
  6
Continuous
370
     0
390
F
347
219
  0
LAYER
  5
ECD7
330
2
100
AcDbSymbolTableRecord
100
AcDbLayerTableRecord
  2
MP Dryfix DPC Hatch (00134182)
 70
     0
 62
    18
420
  6356992
  6
Continuous
370
    -3
390
F
347
219
  0
LAYER
  5
ECE1
330
2
100
AcDbSymbolTableRecord
100
AcDbLayerTableRecord
  2
MP Thermal Break Perimeter Isometric (00134193)
 70
     0
 62
   126
420
    34147
  6
Continuous
370
    15
390
F
347
219
  0
LAYER
  5
EDB5
330
2
100
AcDbSymbolTableRecord
100
AcDbLayerTableRecord
  2
MP Dryfix DPC Perimeter Isometric (00134196)
 70
     0
 62
    16
420
  8716288
  6
Continuous
370
    15
390
F
347
219
  0
LAYER
  5
EFB5
330
2
100
AcDbSymbolTableRecord
100
AcDbLayerTableRecord
  2
MP Flashings Perimeter Isometric (00134197)
 70
     0
 62
   143
420
  7847616
  6
Continuous
370
    -3
390
F
347
219
  0
LAYER
  5
100FD
102
{ACAD_XDICTIONARY
360
100FE
102
}
330
2
100
AcDbSymbolTableRecord
100
AcDbLayerTableRecord
  2
MP Annotation (00134142) @ 10
 70
     0
 62
     7
  6
Continuous
370
     0
390
F
347
219
1001
AcadAnnotativeDecomposition
1000
AnnotativeData
1002
{
1070
     1
1070
     1
1002
}
  0
LAYER
  5
10112
102
{ACAD_XDICTIONARY
360
10113
102
}
330
2
100
AcDbSymbolTableRecord
100
AcDbLayerTableRecord
  2
MP Thermal Break Hatch (00134161) @ 10
 70
     0
 62
   138
420
    23621
  6
Continuous
370
     0
390
F
347
219
1001
AcadAnnotativeDecomposition
1000
AnnotativeData
1002
{
1070
     1
1070
     1
1002
}
  0
LAYER
  5
1011F
102
{ACAD_XDICTIONARY
360
10120
102
}
330
2
100
AcDbSymbolTableRecord
100
AcDbLayerTableRecord
  2
MP Thermal Break Hatch (00134161) @ 1
 70
     0
 62
   138
420
    23621
  6
Continuous
370
     0
390
F
347
219
1001
AcadAnnotativeDecomposition
1000
AnnotativeData
1002
{
1070
     1
1070
     1
1002
}
  0
ENDTAB
  0
TABLE
  2
STYLE
  5
3
330
0
100
AcDbSymbolTable
 70
     6
  0
STYLE
  5
11
330
3
100
AcDbSymbolTableRecord
100
AcDbTextStyleTableRecord
  2
Standard
 70
     0
 40
0.0
 41
1.0
 50
0.0
 71
     0
 42
19.36617472281852
  3
ARIAL.TTF
  4

1001
ACAD
1000
Arial
1071
       34
  0
STYLE
  5
37F
330
3
100
AcDbSymbolTableRecord
100
AcDbTextStyleTableRecord
  2
x01
 70
     0
 40
2.0
 41
1.0
 50
0.0
 71
     0
 42
2.0
  3
ARIAL.TTF
  4

1001
AcadAnnotative
1000
AnnotativeData
1002
{
1070
     1
1070
     1
1002
}
1001
ACAD
1000
Arial
1071
       34
  0
STYLE
  5
380
330
3
100
AcDbSymbolTableRecord
100
AcDbTextStyleTableRecord
  2
2mm
 70
     0
 40
2.0
 41
1.0
 50
0.0
 71
     0
 42
2.0
  3
ARIAL.TTF
  4

1001
AcadAnnotative
1000
AnnotativeData
1002
{
1070
     1
1070
     1
1002
}
1001
ACAD
1000
Arial
1071
       34
  0
STYLE
  5
FF3A
330
3
100
AcDbSymbolTableRecord
100
AcDbTextStyleTableRecord
  2
mp000096$0$Standard
 70
     0
 40
0.0
 41
1.0
 50
0.0
 71
     0
 42
19.36617472281852
  3
txt
  4

  0
STYLE
  5
FF44
330
3
100
AcDbSymbolTableRecord
100
AcDbTextStyleTableRecord
  2
mp000096$0$x01
 70
     0
 40
2.0
 41
1.0
 50
0.0
 71
     0
 42
2.0
  3
txt.shx
  4

1001
AcadAnnotative
1000
AnnotativeData
1002
{
1070
     1
1070
     1
1002
}
  0
STYLE
  5
FF31
330
3
100
AcDbSymbolTableRecord
100
AcDbTextStyleTableRecord
  2
mp000096$0$2mm
 70
     0
 40
2.0
 41
1.0
 50
0.0
 71
     0
 42
2.0
  3
ARIAL.TTF
  4

1001
AcadAnnotative
1000
AnnotativeData
1002
{
1070
     1
1070
     1
1002
}
1001
ACAD
1000
Arial
1071
       34
  0
ENDTAB
  0
TABLE
  2
VIEW
  5
6
330
0
100
AcDbSymbolTable
 70
     0
  0
ENDTAB
  0
TABLE
  2
UCS
  5
7
330
0
100
AcDbSymbolTable
 70
     0
  0
ENDTAB
  0
TABLE
  2
APPID
  5
9
330
0
100
AcDbSymbolTable
 70
    26
  0
APPID
  5
12
330
9
100
AcDbSymbolTableRecord
100
AcDbRegAppTableRecord
  2
ACAD
 70
     0
  0
APPID
  5
2C5
330
9
100
AcDbSymbolTableRecord
100
AcDbRegAppTableRecord
  2
ACAD_MLEADERVER
 70
     0
  0
APPID
  5
30C
330
9
100
AcDbSymbolTableRecord
100
AcDbRegAppTableRecord
  2
DCO15
 70
     0
  0
APPID
  5
347
330
9
100
AcDbSymbolTableRecord
100
AcDbRegAppTableRecord
  2
ACAD_EXEMPT_FROM_CAD_STANDARDS
 70
     0
  0
APPID
  5
384
330
9
100
AcDbSymbolTableRecord
100
AcDbRegAppTableRecord
  2
ACAD_PSEXT
 70
     0
  0
APPID
  5
385
330
9
100
AcDbSymbolTableRecord
100
AcDbRegAppTableRecord
  2
AcadAnnotative
 70
     0
  0
APPID
  5
386
330
9
100
AcDbSymbolTableRecord
100
AcDbRegAppTableRecord
  2
ACAD_DSTYLE_DIMJAG
 70
     0
  0
APPID
  5
387
330
9
100
AcDbSymbolTableRecord
100
AcDbRegAppTableRecord
  2
ACAD_DSTYLE_DIMTALN
 70
     0
  0
APPID
  5
388
330
9
100
AcDbSymbolTableRecord
100
AcDbRegAppTableRecord
  2
ACAD_DSTYLE_DIMBREAK
 70
     0
  0
APPID
  5
4EF
330
9
100
AcDbSymbolTableRecord
100
AcDbRegAppTableRecord
  2
AcDbBlockRepETag
 70
     0
  0
APPID
  5
4F0
330
9
100
AcDbSymbolTableRecord
100
AcDbRegAppTableRecord
  2
AcAecLayerStandard
 70
     0
  0
APPID
  5
4F1
330
9
100
AcDbSymbolTableRecord
100
AcDbRegAppTableRecord
  2
AcDbDynamicBlockGUID
 70
     0
  0
APPID
  5
4F2
330
9
100
AcDbSymbolTableRecord
100
AcDbRegAppTableRecord
  2
AcDbDynamicBlockTrueName
 70
     0
  0
APPID
  5
4F3
330
9
100
AcDbSymbolTableRecord
100
AcDbRegAppTableRecord
  2
AcDbBlockRepBTag
 70
     0
  0
APPID
  5
4F4
330
9
100
AcDbSymbolTableRecord
100
AcDbRegAppTableRecord
  2
AEC_XDATA_BOUND_SPACE
 70
     0
  0
APPID
  5
A0D
330
9
100
AcDbSymbolTableRecord
100
AcDbRegAppTableRecord
  2
AECBASE
 70
     0
  0
APPID
  5
A0E
330
9
100
AcDbSymbolTableRecord
100
AcDbRegAppTableRecord
  2
AEC_OBJVER_INFO
 70
     0
  0
APPID
  5
A0F
330
9
100
AcDbSymbolTableRecord
100
AcDbRegAppTableRecord
  2
AcadAnnoAV
 70
     0
  0
APPID
  5
A6C
330
9
100
AcDbSymbolTableRecord
100
AcDbRegAppTableRecord
  2
AcLayerTools
 70
     0
  0
APPID
  5
A6D
330
9
100
AcDbSymbolTableRecord
100
AcDbRegAppTableRecord
  2
AcadAnnotativeDecomposition
 70
     0
  0
APPID
  5
13E1
330
9
100
AcDbSymbolTableRecord
100
AcDbRegAppTableRecord
  2
ACAUTHENVIRON
 70
     0
  0
APPID
  5
13E2
330
9
100
AcDbSymbolTableRecord
100
AcDbRegAppTableRecord
  2
AcadAnnoPO
 70
     0
  0
APPID
  5
2C78
330
9
100
AcDbSymbolTableRecord
100
AcDbRegAppTableRecord
  2
PE_URL
 70
     0
  0
APPID
  5
4530
330
9
100
AcDbSymbolTableRecord
100
AcDbRegAppTableRecord
  2
AcadNonAnnoHatchDecomposition
 70
     0
  0
APPID
  5
70A1
330
9
100
AcDbSymbolTableRecord
100
AcDbRegAppTableRecord
  2
ACAD_MATERIAL_MAPPER
 70
     0
  0
APPID
  5
70A2
330
9
100
AcDbSymbolTableRecord
100
AcDbRegAppTableRecord
  2
ACAD_MATERIAL_MAPPER_2
 70
     0
  0
ENDTAB
  0
TABLE
  2
DIMSTYLE
  5
A
330
0
100
AcDbSymbolTable
 70
     4
100
AcDbDimStyleTable
 71
     2
340
383
340
27
  0
DIMSTYLE
105
27
330
A
100
AcDbSymbolTableRecord
100
AcDbDimStyleTableRecord
  2
Standard
 70
     0
340
11
  0
DIMSTYLE
105
383
330
A
100
AcDbSymbolTableRecord
100
AcDbDimStyleTableRecord
  2
2mm
 70
     0
  4
M
 41
3.0
 42
3.0
 43
400.0
 44
1.0
 73
     0
 74
     0
140
2.0
141
2.0
143
0.001
147
0.0
176
   256
177
   256
178
   256
179
     2
271
     0
272
     0
279
     2
285
     8
340
380
341
352
342
352
345
15
346
15
347
15
371
     9
372
     9
1001
ACAD_DSTYLE_DIMBREAK
1070
   391
1040
0.0
1001
AcadAnnotative
1000
AnnotativeData
1002
{
1070
     1
1070
     1
1002
}
1001
ACAD_DSTYLE_DIMJAG
1070
   388
1040
4.0
1001
ACAD_DSTYLE_DIMTALN
1070
   392
1070
     0
  0
DIMSTYLE
105
FF4B
330
A
100
AcDbSymbolTableRecord
100
AcDbDimStyleTableRecord
  2
mp000096$0$Standard
 70
     0
340
FF3A
  0
DIMSTYLE
105
FF4C
330
A
100
AcDbSymbolTableRecord
100
AcDbDimStyleTableRecord
  2
mp000096$0$2mm
 70
     0
  4
M
 41
3.0
 42
3.0
 43
400.0
 44
1.0
 73
     0
 74
     0
140
2.0
141
2.0
143
0.001
147
0.0
176
   256
177
   256
178
   256
179
     2
271
     0
272
     0
279
     2
285
     8
340
FF31
341
FF3B
342
FF3B
345
15
346
15
347
15
371
     9
372
     9
1001
ACAD_DSTYLE_DIMBREAK
1070
   391
1040
0.0
1001
AcadAnnotative
1000
AnnotativeData
1002
{
1070
     1
1070
     1
1002
}
1001
ACAD_DSTYLE_DIMJAG
1070
   388
1040
4.0
1001
ACAD_DSTYLE_DIMTALN
1070
   392
1070
     0
  0
ENDTAB
  0
TABLE
  2
BLOCK_RECORD
  5
1
330
0
100
AcDbSymbolTable
 70
    10
  0
BLOCK_RECORD
  5
1F
102
{ACAD_XDICTIONARY
360
102E
102
}
330
1
100
AcDbSymbolTableRecord
100
AcDbBlockTableRecord
  2
*Model_Space
340
22
 70
     0
280
     1
281
     0
  0
BLOCK_RECORD
  5
16B9
330
1
100
AcDbSymbolTableRecord
100
AcDbBlockTableRecord
  2
*Paper_Space
340
16BA
 70
     0
280
     1
281
     0
  0
BLOCK_RECORD
  5
352
330
1
100
AcDbSymbolTableRecord
100
AcDbBlockTableRecord
  2
_OBLIQUE
340
0
310
2800000020000000200000000100080000000000000400000000000000000000000000000000000000000000000080000080000000808000800000008000800080800000C0C0C000C0DCC000F0CAA6000020400000206000002080000020A0000020C0000020E00000400000004020000040400000406000004080000040A0
310
000040C0000040E00000600000006020000060400000606000006080000060A0000060C0000060E00000800000008020000080400000806000008080000080A0000080C0000080E00000A0000000A0200000A0400000A0600000A0800000A0A00000A0C00000A0E00000C0000000C0200000C0400000C0600000C0800000C0
310
A00000C0C00000C0E00000E0000000E0200000E0400000E0600000E0800000E0A00000E0C00000E0E00040000000400020004000400040006000400080004000A0004000C0004000E00040200000402020004020400040206000402080004020A0004020C0004020E000404000004040200040404000404060004040800040
310
40A0004040C0004040E00040600000406020004060400040606000406080004060A0004060C0004060E00040800000408020004080400040806000408080004080A0004080C0004080E00040A0000040A0200040A0400040A0600040A0800040A0A00040A0C00040A0E00040C0000040C0200040C0400040C0600040C08000
310
40C0A00040C0C00040C0E00040E0000040E0200040E0400040E0600040E0800040E0A00040E0C00040E0E00080000000800020008000400080006000800080008000A0008000C0008000E00080200000802020008020400080206000802080008020A0008020C0008020E00080400000804020008040400080406000804080
310
008040A0008040C0008040E00080600000806020008060400080606000806080008060A0008060C0008060E00080800000808020008080400080806000808080008080A0008080C0008080E00080A0000080A0200080A0400080A0600080A0800080A0A00080A0C00080A0E00080C0000080C0200080C0400080C0600080C0
310
800080C0A00080C0C00080C0E00080E0000080E0200080E0400080E0600080E0800080E0A00080E0C00080E0E000C0000000C0002000C0004000C0006000C0008000C000A000C000C000C000E000C0200000C0202000C0204000C0206000C0208000C020A000C020C000C020E000C0400000C0402000C0404000C0406000C0
310
408000C040A000C040C000C040E000C0600000C0602000C0604000C0606000C0608000C060A000C060C000C060E000C0800000C0802000C0804000C0806000C0808000C080A000C080C000C080E000C0A00000C0A02000C0A04000C0A06000C0A08000C0A0A000C0A0C000C0A0E000C0C00000C0C02000C0C04000C0C06000
310
C0C08000C0C0A000F0FBFF00A4A0A000808080000000FF0000FF000000FFFF00FF000000FF00FF00FFFF0000FFFFFF00000000000000000000000000000000000000000000000000000000000000000000FF0000000000000000000000000000000000000000000000000000000000000000FF000000000000000000000000
310
0000000000000000000000000000000000000000FF0000000000000000000000000000000000000000000000000000000000000000FF0000000000000000000000000000000000000000000000000000000000000000FF0000000000000000000000000000000000000000000000000000000000000000FF00000000000000
310
00000000000000000000000000000000000000000000000000FF0000000000000000000000000000000000000000000000000000000000000000FF0000000000000000000000000000000000000000000000000000000000000000FF0000000000000000000000000000000000000000000000000000000000000000FF0000
310
000000000000000000000000000000000000000000000000000000000000FF0000000000000000000000000000000000000000000000000000000000000000FF0000000000000000000000000000000000000000000000000000000000000000FF000000000000000000000000000000000000000000000000000000000000
310
0000FF0000000000000000000000000000000000000000000000000000000000000000FF0000000000000000000000000000000000000000000000000000000000000000FF0000000000000000000000000000000000000000000000000000000000000000FF00000000000000000000000000000000000000000000000000
310
00000000000000FF0000000000000000000000000000000000000000000000000000000000000000FF0000000000000000000000000000000000000000000000000000000000000000FF0000000000000000000000000000000000000000000000000000000000000000FF0000000000000000000000000000000000000000
310
000000000000000000000000FF0000000000000000000000000000000000000000000000000000000000000000FF0000000000000000000000000000000000000000000000000000000000000000FF0000000000000000000000000000000000000000000000000000000000000000FF000000000000000000000000000000
310
0000000000000000000000000000000000FF0000000000000000000000000000000000000000000000000000000000000000FF0000000000000000000000000000000000000000000000000000000000000000FF0000000000000000000000000000000000000000000000000000000000000000FF00000000000000000000
310
00000000000000000000000000000000000000000000FF000000000000000000000000000000000000000000000000000000000000000000
 70
     0
280
     1
281
     0
  0
BLOCK_RECORD
  5
356
330
1
100
AcDbSymbolTableRecord
100
AcDbBlockTableRecord
  2
_DetailCallout
340
0
310
2800000020000000200000000100080000000000000400000000000000000000000000000000000000000000000080000080000000808000800000008000800080800000C0C0C000C0DCC000F0CAA6000020400000206000002080000020A0000020C0000020E00000400000004020000040400000406000004080000040A0
310
000040C0000040E00000600000006020000060400000606000006080000060A0000060C0000060E00000800000008020000080400000806000008080000080A0000080C0000080E00000A0000000A0200000A0400000A0600000A0800000A0A00000A0C00000A0E00000C0000000C0200000C0400000C0600000C0800000C0
310
A00000C0C00000C0E00000E0000000E0200000E0400000E0600000E0800000E0A00000E0C00000E0E00040000000400020004000400040006000400080004000A0004000C0004000E00040200000402020004020400040206000402080004020A0004020C0004020E000404000004040200040404000404060004040800040
310
40A0004040C0004040E00040600000406020004060400040606000406080004060A0004060C0004060E00040800000408020004080400040806000408080004080A0004080C0004080E00040A0000040A0200040A0400040A0600040A0800040A0A00040A0C00040A0E00040C0000040C0200040C0400040C0600040C08000
310
40C0A00040C0C00040C0E00040E0000040E0200040E0400040E0600040E0800040E0A00040E0C00040E0E00080000000800020008000400080006000800080008000A0008000C0008000E00080200000802020008020400080206000802080008020A0008020C0008020E00080400000804020008040400080406000804080
310
008040A0008040C0008040E00080600000806020008060400080606000806080008060A0008060C0008060E00080800000808020008080400080806000808080008080A0008080C0008080E00080A0000080A0200080A0400080A0600080A0800080A0A00080A0C00080A0E00080C0000080C0200080C0400080C0600080C0
310
800080C0A00080C0C00080C0E00080E0000080E0200080E0400080E0600080E0800080E0A00080E0C00080E0E000C0000000C0002000C0004000C0006000C0008000C000A000C000C000C000E000C0200000C0202000C0204000C0206000C0208000C020A000C020C000C020E000C0400000C0402000C0404000C0406000C0
310
408000C040A000C040C000C040E000C0600000C0602000C0604000C0606000C0608000C060A000C060C000C060E000C0800000C0802000C0804000C0806000C0808000C080A000C080C000C080E000C0A00000C0A02000C0A04000C0A06000C0A08000C0A0A000C0A0C000C0A0E000C0C00000C0C02000C0C04000C0C06000
310
C0C08000C0C0A000F0FBFF00A4A0A000808080000000FF0000FF000000FFFF00FF000000FF00FF00FFFF0000FFFFFF00000000000000000000000000000000000000000000000000000000000000000000000000000000000000000000FFFFFFFFFFFF0000000000000000000000000000000000000000000000FFFFFF0000
310
00000000FFFFFF000000000000000000000000000000000000FFFF000000000000000000000000FFFF000000000000000000000000000000FF00000000000000000000000000000000FF00000000000000FFFF00FFFFFFFFFF0000FF000000FF0000FF0000FFFFFF00FFFF0000FF00FFFF000000FF00FF00000000FF000000
310
FF00FFFF00FF000000FFFF00FF00FF00FF00000000FFFF0000000000FF000000FF00FFFF00FF000000FFFF00FFFFFF00FF00FF0000FFFFFF00000000FF000000FFFF00FF00FF000000FFFFFF00FFFF00FFFF000000FF000000000000FF000000FFFF00FF00FF000000FFFFFF00FFFF00FF00FFFF00FFFFFFFFFFFFFFFFFFFF
310
00FF0000FF00FF000000FFFF000000FF00FFFF000000FF000000000000000000000000000000000000000000000000FF0000000000FF0000000000000000000000000000000000000000000000000000FF00000000FF0000000000000000000000000000000000000000000000000000FF00000000FF000000000000000000
310
0000000000000000000000000000000000FF000000FF00000000000000000000000000000000000000000000000000000000FF0000FFFFFFFFFFFFFFFFFFFFFFFFFFFFFFFFFFFFFFFFFFFFFFFFFFFFFFFFFFFF00FFFFFFFF000000FFFF000000FF000000FF00FFFFFF0000FF0000FF00FFFFFF00FF00FF00000000FFFF0000
310
00FF0000FFFFFF000000FF00FF0000FF0000FF00FFFF00FF000000FF00FFFF0000FF0000FFFFFF000000FF00FFFF00FF0000FF00FFFFFF00FF0000FF00FFFF0000FF00FF00FFFF000000FF00FFFFFFFF00FFFFFF00FF0000FF0000FF0000FF0000FFFF0000FFFF000000FF00FFFFFFFF00FFFF00FFFF0000FF00FF00000000
310
FF00FFFF0000FFFF000000FF00FF0000FF00FFFF00FFFFFFFFFFFFFF00000000FF00FF000000FFFF000000FF00FF0000FFFFFFFFFF0000000000FF00000000000000000000000000000000000000000000FF000000000000000000FF0000000000000000000000000000000000000000FF0000000000000000000000FF0000
310
00000000000000000000000000000000FF00000000000000000000000000FF00000000000000000000000000000000FF000000000000000000000000000000FFFF000000000000000000000000FFFF000000000000000000000000000000000000FFFFFF000000000000FFFFFF000000000000000000000000000000000000
310
0000000000FFFFFFFFFFFF000000000000000000000000000000000000000000000000000000000000000000000000000000000000000000
 70
     4
280
     1
281
     0
  0
BLOCK_RECORD
  5
7098
102
{ACAD_XDICTIONARY
360
FF35
102
}
330
1
100
AcDbSymbolTableRecord
100
AcDbBlockTableRecord
  2
mp000096
340
0
 70
     0
280
     1
281
     0
  0
BLOCK_RECORD
  5
D0DE
102
{ACAD_XDICTIONARY
360
FB8A
102
}
330
1
100
AcDbSymbolTableRecord
100
AcDbBlockTableRecord
  2
A$C076F0716
340
0
102
{BLKREFS
331
D24C
102
}
 70
     4
280
     1
281
     0
1001
AcDbDynamicBlockGUID
1000
{2B37ED73-9520-4F9B-971E-D74DC1340CF3}
1001
AcDbBlockRepETag
1070
     1
1071
      121
  0
BLOCK_RECORD
  5
D846
102
{ACAD_XDICTIONARY
360
FC48
102
}
330
1
100
AcDbSymbolTableRecord
100
AcDbBlockTableRecord
  2
A$C3BA61CEA
340
0
102
{BLKREFS
331
D86D
102
}
 70
     4
280
     1
281
     0
1001
AcDbDynamicBlockGUID
1000
{B9375FFC-1303-4B2C-8082-92B0FF101399}
1001
AcDbBlockRepETag
1070
     1
1071
       22
  0
BLOCK_RECORD
  5
E90C
102
{ACAD_XDICTIONARY
360
EB57
102
}
330
1
100
AcDbSymbolTableRecord
100
AcDbBlockTableRecord
  2
steel
340
0
 70
     4
280
     1
281
     1
1001
AcDbDynamicBlockGUID
1000
{12A49C44-36F3-4968-B258-0BCAE68C2059}
1001
AcDbBlockRepETag
1070
     1
1071
       28
  0
BLOCK_RECORD
  5
FF3B
330
1
100
AcDbSymbolTableRecord
100
AcDbBlockTableRecord
  2
mp000096$0$_OBLIQUE
340
0
310
2800000020000000200000000100080000000000000400000000000000000000000000000000000000000000000080000080000000808000800000008000800080800000C0C0C000C0DCC000F0CAA6000020400000206000002080000020A0000020C0000020E00000400000004020000040400000406000004080000040A0
310
000040C0000040E00000600000006020000060400000606000006080000060A0000060C0000060E00000800000008020000080400000806000008080000080A0000080C0000080E00000A0000000A0200000A0400000A0600000A0800000A0A00000A0C00000A0E00000C0000000C0200000C0400000C0600000C0800000C0
310
A00000C0C00000C0E00000E0000000E0200000E0400000E0600000E0800000E0A00000E0C00000E0E00040000000400020004000400040006000400080004000A0004000C0004000E00040200000402020004020400040206000402080004020A0004020C0004020E000404000004040200040404000404060004040800040
310
40A0004040C0004040E00040600000406020004060400040606000406080004060A0004060C0004060E00040800000408020004080400040806000408080004080A0004080C0004080E00040A0000040A0200040A0400040A0600040A0800040A0A00040A0C00040A0E00040C0000040C0200040C0400040C0600040C08000
310
40C0A00040C0C00040C0E00040E0000040E0200040E0400040E0600040E0800040E0A00040E0C00040E0E00080000000800020008000400080006000800080008000A0008000C0008000E00080200000802020008020400080206000802080008020A0008020C0008020E00080400000804020008040400080406000804080
310
008040A0008040C0008040E00080600000806020008060400080606000806080008060A0008060C0008060E00080800000808020008080400080806000808080008080A0008080C0008080E00080A0000080A0200080A0400080A0600080A0800080A0A00080A0C00080A0E00080C0000080C0200080C0400080C0600080C0
310
800080C0A00080C0C00080C0E00080E0000080E0200080E0400080E0600080E0800080E0A00080E0C00080E0E000C0000000C0002000C0004000C0006000C0008000C000A000C000C000C000E000C0200000C0202000C0204000C0206000C0208000C020A000C020C000C020E000C0400000C0402000C0404000C0406000C0
310
408000C040A000C040C000C040E000C0600000C0602000C0604000C0606000C0608000C060A000C060C000C060E000C0800000C0802000C0804000C0806000C0808000C080A000C080C000C080E000C0A00000C0A02000C0A04000C0A06000C0A08000C0A0A000C0A0C000C0A0E000C0C00000C0C02000C0C04000C0C06000
310
C0C08000C0C0A000F0FBFF00A4A0A000808080000000FF0000FF000000FFFF00FF000000FF00FF00FFFF0000FFFFFF00000000000000000000000000000000000000000000000000000000000000000000FF0000000000000000000000000000000000000000000000000000000000000000FF000000000000000000000000
310
0000000000000000000000000000000000000000FF0000000000000000000000000000000000000000000000000000000000000000FF0000000000000000000000000000000000000000000000000000000000000000FF0000000000000000000000000000000000000000000000000000000000000000FF00000000000000
310
00000000000000000000000000000000000000000000000000FF0000000000000000000000000000000000000000000000000000000000000000FF0000000000000000000000000000000000000000000000000000000000000000FF0000000000000000000000000000000000000000000000000000000000000000FF0000
310
000000000000000000000000000000000000000000000000000000000000FF0000000000000000000000000000000000000000000000000000000000000000FF0000000000000000000000000000000000000000000000000000000000000000FF000000000000000000000000000000000000000000000000000000000000
310
0000FF0000000000000000000000000000000000000000000000000000000000000000FF0000000000000000000000000000000000000000000000000000000000000000FF0000000000000000000000000000000000000000000000000000000000000000FF00000000000000000000000000000000000000000000000000
310
00000000000000FF0000000000000000000000000000000000000000000000000000000000000000FF0000000000000000000000000000000000000000000000000000000000000000FF0000000000000000000000000000000000000000000000000000000000000000FF0000000000000000000000000000000000000000
310
000000000000000000000000FF0000000000000000000000000000000000000000000000000000000000000000FF0000000000000000000000000000000000000000000000000000000000000000FF0000000000000000000000000000000000000000000000000000000000000000FF000000000000000000000000000000
310
0000000000000000000000000000000000FF0000000000000000000000000000000000000000000000000000000000000000FF0000000000000000000000000000000000000000000000000000000000000000FF0000000000000000000000000000000000000000000000000000000000000000FF00000000000000000000
310
00000000000000000000000000000000000000000000FF000000000000000000000000000000000000000000000000000000000000000000
 70
     0
280
     1
281
     0
  0
BLOCK_RECORD
  5
FF3F
330
1
100
AcDbSymbolTableRecord
100
AcDbBlockTableRecord
  2
mp000096$0$_DetailCallout
340
0
310
2800000020000000200000000100080000000000000400000000000000000000000000000000000000000000000080000080000000808000800000008000800080800000C0C0C000C0DCC000F0CAA6000020400000206000002080000020A0000020C0000020E00000400000004020000040400000406000004080000040A0
310
000040C0000040E00000600000006020000060400000606000006080000060A0000060C0000060E00000800000008020000080400000806000008080000080A0000080C0000080E00000A0000000A0200000A0400000A0600000A0800000A0A00000A0C00000A0E00000C0000000C0200000C0400000C0600000C0800000C0
310
A00000C0C00000C0E00000E0000000E0200000E0400000E0600000E0800000E0A00000E0C00000E0E00040000000400020004000400040006000400080004000A0004000C0004000E00040200000402020004020400040206000402080004020A0004020C0004020E000404000004040200040404000404060004040800040
310
40A0004040C0004040E00040600000406020004060400040606000406080004060A0004060C0004060E00040800000408020004080400040806000408080004080A0004080C0004080E00040A0000040A0200040A0400040A0600040A0800040A0A00040A0C00040A0E00040C0000040C0200040C0400040C0600040C08000
310
40C0A00040C0C00040C0E00040E0000040E0200040E0400040E0600040E0800040E0A00040E0C00040E0E00080000000800020008000400080006000800080008000A0008000C0008000E00080200000802020008020400080206000802080008020A0008020C0008020E00080400000804020008040400080406000804080
310
008040A0008040C0008040E00080600000806020008060400080606000806080008060A0008060C0008060E00080800000808020008080400080806000808080008080A0008080C0008080E00080A0000080A0200080A0400080A0600080A0800080A0A00080A0C00080A0E00080C0000080C0200080C0400080C0600080C0
310
800080C0A00080C0C00080C0E00080E0000080E0200080E0400080E0600080E0800080E0A00080E0C00080E0E000C0000000C0002000C0004000C0006000C0008000C000A000C000C000C000E000C0200000C0202000C0204000C0206000C0208000C020A000C020C000C020E000C0400000C0402000C0404000C0406000C0
310
408000C040A000C040C000C040E000C0600000C0602000C0604000C0606000C0608000C060A000C060C000C060E000C0800000C0802000C0804000C0806000C0808000C080A000C080C000C080E000C0A00000C0A02000C0A04000C0A06000C0A08000C0A0A000C0A0C000C0A0E000C0C00000C0C02000C0C04000C0C06000
310
C0C08000C0C0A000F0FBFF00A4A0A000808080000000FF0000FF000000FFFF00FF000000FF00FF00FFFF0000FFFFFF00000000000000000000000000000000000000000000000000000000000000000000000000000000000000000000FFFFFFFFFFFF0000000000000000000000000000000000000000000000FFFFFF0000
310
00000000FFFFFF000000000000000000000000000000000000FFFF000000000000000000000000FFFF000000000000000000000000000000FF00000000000000000000000000000000FF00000000000000FFFF00FFFFFFFFFF0000FF000000FF0000FF0000FFFFFF00FFFF0000FF00FFFF000000FF00FF00000000FF000000
310
FF00FFFF00FF000000FFFF00FF00FF00FF00000000FFFF0000000000FF000000FF00FFFF00FF000000FFFF00FFFFFF00FF00FF0000FFFFFF00000000FF000000FFFF00FF00FF000000FFFFFF00FFFF00FFFF000000FF000000000000FF000000FFFF00FF00FF000000FFFFFF00FFFF00FF00FFFF00FFFFFFFFFFFFFFFFFFFF
310
00FF0000FF00FF000000FFFF000000FF00FFFF000000FF000000000000000000000000000000000000000000000000FF0000000000FF0000000000000000000000000000000000000000000000000000FF00000000FF0000000000000000000000000000000000000000000000000000FF00000000FF000000000000000000
310
0000000000000000000000000000000000FF000000FF00000000000000000000000000000000000000000000000000000000FF0000FFFFFFFFFFFFFFFFFFFFFFFFFFFFFFFFFFFFFFFFFFFFFFFFFFFFFFFFFFFF00FFFFFFFF000000FFFF000000FF000000FF00FFFFFF0000FF0000FF00FFFFFF00FF00FF00000000FFFF0000
310
00FF0000FFFFFF000000FF00FF0000FF0000FF00FFFF00FF000000FF00FFFF0000FF0000FFFFFF000000FF00FFFF00FF0000FF00FFFFFF00FF0000FF00FFFF0000FF00FF00FFFF000000FF00FFFFFFFF00FFFFFF00FF0000FF0000FF0000FF0000FFFF0000FFFF000000FF00FFFFFFFF00FFFF00FFFF0000FF00FF00000000
310
FF00FFFF0000FFFF000000FF00FF0000FF00FFFF00FFFFFFFFFFFFFF00000000FF00FF000000FFFF000000FF00FF0000FFFFFFFFFF0000000000FF00000000000000000000000000000000000000000000FF000000000000000000FF0000000000000000000000000000000000000000FF0000000000000000000000FF0000
310
00000000000000000000000000000000FF00000000000000000000000000FF00000000000000000000000000000000FF000000000000000000000000000000FFFF000000000000000000000000FFFF000000000000000000000000000000000000FFFFFF000000000000FFFFFF000000000000000000000000000000000000
310
0000000000FFFFFFFFFFFF000000000000000000000000000000000000000000000000000000000000000000000000000000000000000000
 70
     4
280
     1
281
     0
  0
BLOCK_RECORD
  5
10105
330
1
100
AcDbSymbolTableRecord
100
AcDbBlockTableRecord
  2
*U9
340
0
102
{BLKREFS
331
10122
102
}
 70
     0
280
     1
281
     1
  0
ENDTAB
  0
ENDSEC
  0
SECTION
  2
BLOCKS
  0
BLOCK
  5
20
330
1F
100
AcDbEntity
  8
0
100
AcDbBlockBegin
  2
*Model_Space
 70
     0
 10
0.0
 20
0.0
 30
0.0
  3
*Model_Space
  1

  0
ENDBLK
  5
21
330
1F
100
AcDbEntity
  8
0
100
AcDbBlockEnd
  0
BLOCK
  5
16BB
330
16B9
100
AcDbEntity
 67
     1
  8
0
100
AcDbBlockBegin
  2
*Paper_Space
 70
     0
 10
0.0
 20
0.0
 30
0.0
  3
*Paper_Space
  1

  0
ENDBLK
  5
16BC
330
16B9
100
AcDbEntity
 67
     1
  8
0
100
AcDbBlockEnd
  0
BLOCK
  5
353
330
352
100
AcDbEntity
  8
0
100
AcDbBlockBegin
  2
_OBLIQUE
 70
     0
 10
0.0
 20
0.0
 30
0.0
  3
_OBLIQUE
  1

  0
LINE
  5
354
330
352
100
AcDbEntity
  8
0
  6
ByBlock
 62
     0
100
AcDbLine
 10
-0.5
 20
-0.5
 30
0.0
 11
0.5
 21
0.5
 31
0.0
  0
ENDBLK
  5
355
330
352
100
AcDbEntity
  8
0
100
AcDbBlockEnd
  0
BLOCK
  5
357
330
356
100
AcDbEntity
  8
0
100
AcDbBlockBegin
  2
_DetailCallout
 70
     2
 10
0.0
 20
0.0
 30
0.0
  3
_DetailCallout
  1

  0
CIRCLE
  5
358
330
356
100
AcDbEntity
  8
0
  6
ByBlock
 62
     0
370
    -2
100
AcDbCircle
 10
0.0
 20
0.0
 30
0.0
 40
8.0
  0
LINE
  5
359
330
356
100
AcDbEntity
  8
0
  6
ByBlock
 62
     0
370
    -2
100
AcDbLine
 10
8.0
 20
0.0
 30
0.0
 11
-8.0
 21
0.0
 31
0.0
  0
ATTDEF
  5
35A
330
356
100
AcDbEntity
  8
0
 62
     0
100
AcDbText
 10
-15.0
 20
1.0
 30
0.0
 40
3.0
  1
VIEWNUMBER
  7
x01
 72
     1
 11
0.0
 21
1.0
 31
0.0
100
AcDbAttributeDefinition
  3
Enter view number
  2
VIEWNUMBER
 70
     0
280
     0
  0
ATTDEF
  5
35B
330
356
100
AcDbEntity
  8
0
 62
     0
100
AcDbText
 10
-16.0
 20
-6.0
 30
0.0
 40
3.0
  1
SHEETNUMBER
  7
x01
 72
     1
 11
0.0
 21
-6.0
 31
0.0
100
AcDbAttributeDefinition
  3
Enter sheet number
  2
SHEETNUMBER
 70
     0
280
     0
  0
ENDBLK
  5
35C
330
356
100
AcDbEntity
  8
0
100
AcDbBlockEnd
  0
BLOCK
  5
7099
330
7098
100
AcDbEntity
  8
0
100
AcDbBlockBegin
  2
mp000096
 70
     0
 10
0.0
 20
0.0
 30
0.0
  3
mp000096
  1
V:\mpcaddb\mp000000\mp000096.dwg
  0
MTEXT
  5
FF30
102
{ACAD_XDICTIONARY
360
10100
102
}
330
7098
100
AcDbEntity
  8
defpoints
 62
   253
370
     0
100
AcDbMText
 10
0.0
 20
-15.07001755932378
 30
0.0
 40
20.0
 41
1024.436706887209
 46
0.0
 71
     5
 72
     5
  3
The information provided is for guide only and must be used along side professional architectural/structural design. Professional architectural/structural design takes preference with any conflicting areas of the building design.\PAll documents or da
  3
ta downloaded from www.mpb.co.nz or emailed from MASONS Plastabrick Limited is the intellectual property of MASONS Plastabrick Limited. MASONS Plastabrick Limited takes no responsibility for any of the documents or data being used for any other purpo
  1
se than for professional architectural/structural design.
  7
mp000096$0$2mm
 73
     1
 44
1.0
1001
ACAD_MLEADERVER
1070
     2
  0
LWPOLYLINE
  5
FF32
330
7098
100
AcDbEntity
  8
defpoints
 62
   253
100
AcDbPolyline
 90
        5
 70
     0
 43
0.0
 10
531.1521450536488
 20
-172.9993298591076
 10
531.1521450536488
 20
205.6618318460798
 10
-530.9433261265999
 20
205.6618318460798
 10
-530.9433261265999
 20
-172.9993298591076
 10
531.1521450536488
 20
-172.9993298591076
  0
MTEXT
  5
FF33
330
7098
100
AcDbEntity
  8
defpoints
 62
   253
370
     0
100
AcDbMText
 10
0.0
 20
159.8871316540671
 30
0.0
 40
30.0
 41
1026.407338423251
 46
0.0
 71
     5
 72
     5
  1
DISCLOSURE NOTE:
  7
mp000096$0$2mm
 73
     1
 44
1.0
1001
ACAD_MLEADERVER
1070
     2
  0
LWPOLYLINE
  5
FF34
330
7098
100
AcDbEntity
  8
defpoints
 62
   253
100
AcDbPolyline
 90
        4
 70
     1
 43
0.0
 10
536.1521450536488
 20
-177.9993298591076
 10
536.1521450536488
 20
210.6618318460799
 10
-535.9433261265999
 20
210.6618318460798
 10
-535.9433261265999
 20
-177.9993298591077
  0
ENDBLK
  5
709A
330
7098
100
AcDbEntity
  8
0
100
AcDbBlockEnd
  0
BLOCK
  5
D0E1
330
D0DE
100
AcDbEntity
  8
0
100
AcDbBlockBegin
  2
A$C076F0716
 70
     0
 10
0.0
 20
0.0
 30
0.0
  3
A$C076F0716
  1

  0
LINE
  5
FB13
330
D0DE
100
AcDbEntity
  8
0
100
AcDbLine
 10
-22.85510970550786
 20
-39.70180990211185
 30
-0.0000000000000107
 11
-22.85510970550786
 21
-39.75651655833144
 31
-0.0000000000000089
210
0.0000000000000003
220
0.816496580927726
230
0.5773502691896258
1001
AcDbBlockRepETag
1070
     1
1071
        0
1005
FB13
  0
LINE
  5
FB14
330
D0DE
100
AcDbEntity
  8
0
100
AcDbLine
 10
341.8298554905468
 20
125.5828861230231
 30
0.0000000000000681
 11
-10.90500881340904
 21
-78.06868273543182
 31
-0.000000000000032
210
0.0000000000000003
220
0.816496580927726
230
0.5773502691896258
1001
AcDbBlockRepETag
1070
     1
1071
        1
1005
FB14
  0
LINE
  5
FB15
330
D0DE
100
AcDbEntity
  8
0
100
AcDbLine
 10
341.8298554905468
 20
128.0100254264074
 30
0.0000000000000646
 11
-11.96566898412857
 21
-76.25391586713124
 31
-0.0000000000000284
210
0.0000000000000003
220
0.816496580927726
230
0.5773502691896258
1001
AcDbBlockRepETag
1070
     1
1071
        2
1005
FB15
  0
LINE
  5
FB16
330
D0DE
100
AcDbEntity
  8
0
100
AcDbLine
 10
68.35922093651061
 20
-3.42382982676591
 30
0.0000000000000117
 11
-48.16953618087973
 21
-70.70173911682286
 31
-0.0000000000000213
210
0.0000000000000003
220
0.816496580927726
230
0.5773502691896258
1001
AcDbBlockRepETag
1070
     1
1071
        3
1005
FB16
  0
LINE
  5
FB17
330
D0DE
100
AcDbEntity
  8
0
100
AcDbLine
 10
68.35828841632156
 20
12.90556340100767
 30
0.0000000000000058
 11
-49.01806431830391
 21
-54.86170544682477
 31
-0.0000000000000142
210
0.0000000000000003
220
0.816496580927726
230
0.5773502691896258
1001
AcDbBlockRepETag
1070
     1
1071
        4
1005
FB17
  0
LINE
  5
FB18
330
D0DE
100
AcDbEntity
  8
0
100
AcDbLine
 10
-49.01806431830391
 20
-57.25648425072757
 30
-0.0000000000000284
 11
-51.13938095296998
 21
-56.0317415206664
 31
-0.0000000000000213
210
0.0000000000000003
220
0.816496580927726
230
0.5773502691896258
1001
AcDbBlockRepETag
1070
     1
1071
        7
1005
FB18
  0
LINE
  5
FB19
330
D0DE
100
AcDbEntity
  8
0
100
AcDbLine
 10
-22.85510970550786
 20
-39.70180990211185
 30
-0.0000000000000107
 11
-22.80773235146626
 21
-39.72916323022167
 31
-0.0000000000000089
210
0.0000000000000003
220
0.816496580927726
230
0.5773502691896258
1001
AcDbBlockRepETag
1070
     1
1071
        8
1005
FB19
  0
LINE
  5
FB1A
330
D0DE
100
AcDbEntity
  8
0
100
AcDbLine
 10
-51.13938095296998
 20
-56.0317415206664
 30
-0.0000000000000213
 11
-22.85510970550786
 21
-39.70180990211185
 31
-0.0000000000000142
210
0.0000000000000003
220
0.816496580927726
230
0.5773502691896258
1001
AcDbBlockRepETag
1070
     1
1071
        9
1005
FB1A
  0
LINE
  5
FB1B
330
D0DE
100
AcDbEntity
  8
0
100
AcDbLine
 10
68.35801280081795
 20
17.73187596613917
 30
-0.000000000000005
 11
-59.40432414529732
 21
-56.03174366199681
 31
-0.0000000000000249
210
0.0000000000000003
220
0.816496580927726
230
0.5773502691896258
1001
AcDbBlockRepETag
1070
     1
1071
       10
1005
FB1B
  0
LINE
  5
FB1C
330
D0DE
100
AcDbEntity
  8
0
100
AcDbLine
 10
68.35800992816803
 20
17.78217906232049
 30
0.0000000000000068
 11
-59.7307320532791
 21
-56.16989060082858
 31
-0.0000000000000071
210
0.0000000000000003
220
0.816496580927726
230
0.5773502691896258
1001
AcDbBlockRepETag
1070
     1
1071
       11
1005
FB1C
  0
LINE
  5
FB1D
330
D0DE
100
AcDbEntity
  8
0
100
AcDbLine
 10
68.35798374251044
 20
18.24071698919112
 30
0.0000000000000141
 11
-59.84500792690505
 21
-55.77731476206185
 31
-0.0000000000000178
210
0.0000000000000003
220
0.816496580927726
230
0.5773502691896258
1001
AcDbBlockRepETag
1070
     1
1071
       12
1005
FB1D
  0
LINE
  5
FB1E
330
D0DE
100
AcDbEntity
  8
0
100
AcDbLine
 10
-33.25985204136123
 20
-36.85474275032993
 30
-0.0000000000000057
 11
-62.93985805123066
 21
-53.99050220967751
 31
-0.0000000000000071
210
0.0000000000000003
220
0.816496580927726
230
0.5773502691896258
1001
AcDbBlockRepETag
1070
     1
1071
       13
1005
FB1E
  0
LINE
  5
FB1F
330
D0DE
100
AcDbEntity
  8
0
100
AcDbLine
 10
-33.30819664778664
 20
-36.83234976715605
 30
-0.0000000000000086
 11
-63.26626595921243
 21
-54.12864914850928
 31
-0.0000000000000142
210
0.0000000000000003
220
0.816496580927726
230
0.5773502691896258
1001
AcDbBlockRepETag
1070
     1
1071
       14
1005
FB1F
  0
LINE
  5
FB20
330
D0DE
100
AcDbEntity
  8
0
100
AcDbLine
 10
-33.7488819591963
 20
-36.62822650516029
 30
-0.0000000000000034
 11
-63.38054183283748
 21
-53.73607330974255
 31
-0.0000000000000071
210
0.0000000000000003
220
0.816496580927726
230
0.5773502691896258
1001
AcDbBlockRepETag
1070
     1
1071
       15
1005
FB20
  0
LINE
  5
FB21
330
D0DE
100
AcDbEntity
  8
0
100
AcDbLine
 10
-45.03007319104017
 20
-31.40283438560263
 30
-0.0000000000000049
 11
-73.54645976902884
 21
-47.86677785271956
 31
-0.0000000000000107
210
0.0000000000000003
220
0.816496580927726
230
0.5773502691896258
1001
AcDbBlockRepETag
1070
     1
1071
       16
1005
FB21
  0
LINE
  5
FB22
330
D0DE
100
AcDbEntity
  8
0
100
AcDbLine
 10
-45.07841779746468
 20
-31.38044140242869
 30
-0.0000000000000093
 11
-73.87286767701062
 21
-48.00492479155133
 31
-0.0000000000000142
210
0.0000000000000003
220
0.816496580927726
230
0.5773502691896258
1001
AcDbBlockRepETag
1070
     1
1071
       17
1005
FB22
  0
LINE
  5
FB23
330
D0DE
100
AcDbEntity
  8
0
100
AcDbLine
 10
-45.51910310887524
 20
-31.1763181404327
 30
-0.0000000000000116
 11
-73.98714355063567
 21
-47.61234895278465
 31
-0.0000000000000178
210
0.0000000000000003
220
0.816496580927726
230
0.5773502691896258
1001
AcDbBlockRepETag
1070
     1
1071
       18
1005
FB23
  0
LINE
  5
FB24
330
D0DE
100
AcDbEntity
  8
0
100
AcDbLine
 10
-52.2381497240367
 20
-27.14502460305482
 30
-0.0000000000000089
 11
-80.83786947169846
 21
-43.65708049811479
 31
-0.0000000000000178
210
0.0000000000000003
220
0.816496580927726
230
0.5773502691896258
1001
AcDbBlockRepETag
1070
     1
1071
       19
1005
FB24
  0
LINE
  5
FB25
330
D0DE
100
AcDbEntity
  8
0
100
AcDbLine
 10
-73.70430083816154
 20
-48.42884553370834
 30
-0.0000000000000142
 11
-73.98714355063657
 21
-48.59214484989388
 31
-0.0000000000000178
210
0.0000000000000003
220
0.816496580927726
230
0.5773502691896258
1001
AcDbBlockRepETag
1070
     1
1071
       20
1005
FB25
  0
LINE
  5
FB26
330
D0DE
100
AcDbEntity
  8
0
100
AcDbLine
 10
-63.09769912036336
 20
-54.55256989066629
 30
-0.0000000000000249
 11
-63.38054183283839
 21
-54.71586920685183
 31
-0.0000000000000178
210
0.0000000000000003
220
0.816496580927726
230
0.5773502691896258
1001
AcDbBlockRepETag
1070
     1
1071
       21
1005
FB26
  0
LINE
  5
FB27
330
D0DE
100
AcDbEntity
  8
0
100
AcDbLine
 10
-59.56216521443093
 20
-56.59381134298559
 30
-0.0000000000000213
 11
-59.84500792690505
 21
-56.75711065917119
 31
-0.0000000000000178
210
0.0000000000000003
220
0.816496580927726
230
0.5773502691896258
1001
AcDbBlockRepETag
1070
     1
1071
       22
1005
FB27
  0
LINE
  5
FB28
330
D0DE
100
AcDbEntity
  8
0
100
AcDbLine
 10
-49.01806431830391
 20
-55.78679468772191
 30
-0.0000000000000213
 11
-50.29085281554308
 21
-56.52163946922474
 31
-0.0000000000000249
210
0.0000000000000003
220
0.816496580927726
230
0.5773502691896258
1001
AcDbBlockRepETag
1070
     1
1071
       23
1005
FB28
  0
LINE
  5
FB29
330
D0DE
100
AcDbEntity
  8
0
100
AcDbLine
 10
341.8298554905468
 20
101.6556122029746
 30
0.0000000000000831
 11
-10.3582889320478
 21
-101.680307784805
 31
0.0
210
0.0000000000000003
220
0.816496580927726
230
0.5773502691896258
1001
AcDbBlockRepETag
1070
     1
1071
       24
1005
FB29
  0
LINE
  5
FB2A
330
D0DE
100
AcDbEntity
  8
0
100
AcDbLine
 10
341.8298554905468
 20
102.6509548435166
 30
0.0000000000000831
 11
-10.3582889320478
 21
-100.6849651442633
 31
0.0
210
0.0000000000000003
220
0.816496580927726
230
0.5773502691896258
1001
AcDbBlockRepETag
1070
     1
1071
       25
1005
FB2A
  0
LINE
  5
FB2B
330
D0DE
100
AcDbEntity
  8
0
100
AcDbLine
 10
-11.26370321519698
 20
-99.01971512672174
 30
-0.0000000000000355
 11
-11.96566898412857
 21
-99.42499525237622
 31
-0.0000000000000355
210
0.0000000000000003
220
0.816496580927726
230
0.5773502691896258
1001
AcDbBlockRepETag
1070
     1
1071
       26
1005
FB2B
  0
LINE
  5
FB2C
330
D0DE
100
AcDbEntity
  8
0
100
AcDbLine
 10
341.8298554905468
 20
103.9490859326503
 30
0.0000000000000858
 11
-10.90500881340904
 21
-99.70248292580459
 31
-0.0000000000000284
210
0.0000000000000003
220
0.816496580927726
230
0.5773502691896258
1001
AcDbBlockRepETag
1070
     1
1071
       27
1005
FB2C
  0
LINE
  5
FB2D
330
D0DE
100
AcDbEntity
  8
0
100
AcDbLine
 10
-45.09225820012761
 20
-73.45820228449446
 30
-0.0000000000000178
 11
-41.52273243772561
 21
-75.51906894429629
 31
-0.0000000000000249
210
0.0000000000000003
220
0.816496580927726
230
0.5773502691896258
1001
AcDbBlockRepETag
1070
     1
1071
       28
1005
FB2D
  0
LINE
  5
FB2E
330
D0DE
100
AcDbEntity
  8
0
100
AcDbLine
 10
-12.81419712155184
 20
-98.75986325438368
 30
-0.0000000000000213
 11
-45.09225820012761
 21
-73.45820228449446
 31
-0.0000000000000178
210
0.0000000000000003
220
0.816496580927726
230
0.5773502691896258
1001
AcDbBlockRepETag
1070
     1
1071
       29
1005
FB2E
  0
LINE
  5
FB2F
330
D0DE
100
AcDbEntity
  8
0
100
AcDbLine
 10
-12.81419712155184
 20
-92.0939495371291
 30
-0.0000000000000284
 11
-12.81419712155184
 21
-98.75986325438368
 31
-0.0000000000000142
210
0.0000000000000003
220
0.816496580927726
230
0.5773502691896258
1001
AcDbBlockRepETag
1070
     1
1071
       30
1005
FB2F
  0
LINE
  5
FB30
330
D0DE
100
AcDbEntity
  8
0
100
AcDbLine
 10
-19.46098059700671
 20
-88.25642730833038
 30
-0.0000000000000284
 11
-12.81419712155184
 21
-92.0939495371291
 31
-0.0000000000000213
210
0.0000000000000003
220
0.816496580927726
230
0.5773502691896258
1001
AcDbBlockRepETag
1070
     1
1071
       31
1005
FB30
  0
ELLIPSE
  5
FB31
330
D0DE
100
AcDbEntity
  8
0
100
AcDbEllipse
 10
-19.46098059700671
 20
-87.76652935977381
 30
-0.0000000000000142
 11
0.3000000000000109
 21
-0.5196152422706831
 31
0.0
210
0.0
220
0.0
230
1.0
 40
0.5773502691896257
 41
2.356194490018025
 42
5.497787143782149
1001
AcDbBlockRepETag
1070
     1
1071
       32
1005
FB31
  0
LINE
  5
FB32
330
D0DE
100
AcDbEntity
  8
0
100
AcDbLine
 10
-12.81419712155184
 20
-91.11415364001601
 30
-0.0000000000000213
 11
-19.46098059693304
 21
-87.27663141125992
 31
-0.0000000000000284
210
0.0000000000000003
220
0.816496580927726
230
0.5773502691896258
1001
AcDbBlockRepETag
1070
     1
1071
       33
1005
FB32
  0
LINE
  5
FB33
330
D0DE
100
AcDbEntity
  8
0
100
AcDbLine
 10
-12.81419712155184
 20
-76.7438138156881
 30
-0.0000000000000249
 11
-12.81419712155184
 21
-91.11415364001601
 31
-0.0000000000000213
210
0.0000000000000003
220
0.816496580927726
230
0.5773502691896258
1001
AcDbBlockRepETag
1070
     1
1071
       34
1005
FB33
  0
ELLIPSE
  5
FB34
330
D0DE
100
AcDbEntity
  8
0
100
AcDbEllipse
 10
-12.81419712155184
 20
-76.25391586713135
 30
0.0000000000000036
 11
0.3000000000000109
 21
-0.5196152422706831
 31
0.0
210
0.0
220
0.0
230
1.0
 40
0.5773502691896257
 41
2.356194490192356
 42
5.497787143782126
1001
AcDbBlockRepETag
1070
     1
1071
       35
1005
FB34
  0
LINE
  5
FB35
330
D0DE
100
AcDbEntity
  8
0
100
AcDbLine
 10
-11.96566898412857
 20
-76.25391586713124
 30
-0.0000000000000284
 11
-12.81419712155184
 21
-75.76401791857461
 31
-0.0000000000000142
210
0.0000000000000003
220
0.816496580927726
230
0.5773502691896258
1001
AcDbBlockRepETag
1070
     1
1071
       36
1005
FB35
  0
LINE
  5
FB36
330
D0DE
100
AcDbEntity
  8
0
100
AcDbLine
 10
-11.96566898412857
 20
-78.86288381682465
 30
-0.0000000000000355
 11
-11.96566898412857
 21
-76.25391586713124
 31
-0.0000000000000426
210
0.0000000000000003
220
0.816496580927726
230
0.5773502691896258
1001
AcDbBlockRepETag
1070
     1
1071
       37
1005
FB36
  0
LINE
  5
FB37
330
D0DE
100
AcDbEntity
  8
0
100
AcDbLine
 10
-10.90500881340904
 20
-78.06868273543199
 30
-0.000000000000032
 11
-11.96566898412857
 21
-78.86288381682465
 31
-0.0000000000000426
210
0.0000000000000003
220
0.816496580927726
230
0.5773502691896258
1001
AcDbBlockRepETag
1070
     1
1071
       38
1005
FB37
  0
LINE
  5
FB38
330
D0DE
100
AcDbEntity
  8
0
100
AcDbLine
 10
-10.90500881340904
 20
-78.76758309875282
 30
-0.0000000000000426
 11
-10.90500881340904
 21
-78.06868273543182
 31
-0.000000000000032
210
0.0000000000000003
220
0.816496580927726
230
0.5773502691896258
1001
AcDbBlockRepETag
1070
     1
1071
       39
1005
FB38
  0
LINE
  5
FB39
330
D0DE
100
AcDbEntity
  8
0
100
AcDbLine
 10
-11.70745936342882
 20
-79.36088037187767
 30
-0.0000000000000284
 11
-10.90500881340904
 21
-78.76758309875288
 31
-0.0000000000000355
210
0.0000000000000003
220
0.816496580927726
230
0.5773502691896258
1001
AcDbBlockRepETag
1070
     1
1071
       40
1005
FB39
  0
LINE
  5
FB3A
330
D0DE
100
AcDbEntity
  8
0
100
AcDbLine
 10
-10.90500881340904
 20
-80.88076772713248
 30
-0.0000000000000213
 11
-11.70745936342882
 21
-79.36088037187767
 31
-0.0000000000000213
210
0.0000000000000003
220
0.816496580927726
230
0.5773502691896258
1001
AcDbBlockRepETag
1070
     1
1071
       41
1005
FB3A
  0
LINE
  5
FB3B
330
D0DE
100
AcDbEntity
  8
0
100
AcDbLine
 10
-10.90500881340904
 20
-81.57966809045353
 30
-0.0000000000000213
 11
-10.90500881340904
 21
-80.88076772713248
 31
-0.0000000000000213
210
0.0000000000000003
220
0.816496580927726
230
0.5773502691896258
1001
AcDbBlockRepETag
1070
     1
1071
       42
1005
FB3B
  0
LINE
  5
FB3C
330
D0DE
100
AcDbEntity
  8
0
100
AcDbLine
 10
-11.96566898412857
 20
-79.56072213889405
 30
-0.0000000000000284
 11
-10.90500881340904
 21
-81.57966809045353
 31
-0.0000000000000213
210
0.0000000000000003
220
0.816496580927726
230
0.5773502691896258
1001
AcDbBlockRepETag
1070
     1
1071
       43
1005
FB3C
  0
LINE
  5
FB3D
330
D0DE
100
AcDbEntity
  8
0
100
AcDbLine
 10
-11.96566898412857
 20
-82.48744678389483
 30
-0.0000000000000213
 11
-11.96566898412857
 21
-79.56072213889405
 31
-0.0000000000000355
210
0.0000000000000003
220
0.816496580927726
230
0.5773502691896258
1001
AcDbBlockRepETag
1070
     1
1071
       44
1005
FB3D
  0
LINE
  5
FB3E
330
D0DE
100
AcDbEntity
  8
0
100
AcDbLine
 10
-10.90500881340904
 20
-81.693245702502
 30
-0.0000000000000284
 11
-11.96566898412857
 21
-82.48744678389471
 31
-0.0000000000000142
210
0.0000000000000003
220
0.816496580927726
230
0.5773502691896258
1001
AcDbBlockRepETag
1070
     1
1071
       45
1005
FB3E
  0
LINE
  5
FB3F
330
D0DE
100
AcDbEntity
  8
0
100
AcDbLine
 10
-10.90500881340904
 20
-82.39214606582299
 30
-0.0000000000000213
 11
-10.90500881340904
 21
-81.69324570250205
 31
-0.0000000000000213
210
0.0000000000000003
220
0.816496580927726
230
0.5773502691896258
1001
AcDbBlockRepETag
1070
     1
1071
       46
1005
FB3F
  0
LINE
  5
FB40
330
D0DE
100
AcDbEntity
  8
0
100
AcDbLine
 10
-11.70745936342882
 20
-82.98544333894779
 30
-0.0000000000000355
 11
-10.90500881340904
 21
-82.39214606582299
 31
-0.0000000000000284
210
0.0000000000000003
220
0.816496580927726
230
0.5773502691896258
1001
AcDbBlockRepETag
1070
     1
1071
       47
1005
FB40
  0
LINE
  5
FB41
330
D0DE
100
AcDbEntity
  8
0
100
AcDbLine
 10
-10.90500881340904
 20
-84.50533069420272
 30
-0.0000000000000213
 11
-11.70745936342882
 21
-82.98544333894785
 31
-0.0000000000000213
210
0.0000000000000003
220
0.816496580927726
230
0.5773502691896258
1001
AcDbBlockRepETag
1070
     1
1071
       48
1005
FB41
  0
LINE
  5
FB42
330
D0DE
100
AcDbEntity
  8
0
100
AcDbLine
 10
-10.90500881340904
 20
-85.20423105752366
 30
-0.0000000000000142
 11
-10.90500881340904
 21
-84.50533069420272
 31
-0.0000000000000213
210
0.0000000000000003
220
0.816496580927726
230
0.5773502691896258
1001
AcDbBlockRepETag
1070
     1
1071
       49
1005
FB42
  0
LINE
  5
FB43
330
D0DE
100
AcDbEntity
  8
0
100
AcDbLine
 10
-11.96566898412857
 20
-83.18528510596422
 30
-0.0000000000000213
 11
-10.90500881340904
 21
-85.20423105752366
 31
-0.0000000000000284
210
0.0000000000000003
220
0.816496580927726
230
0.5773502691896258
1001
AcDbBlockRepETag
1070
     1
1071
       50
1005
FB43
  0
LINE
  5
FB44
330
D0DE
100
AcDbEntity
  8
0
100
AcDbLine
 10
-11.96566898412766
 20
-86.11200975096494
 30
-0.0000000000000213
 11
-11.96566898412857
 21
-83.18528510596422
 31
-0.0000000000000284
210
0.0000000000000003
220
0.816496580927726
230
0.5773502691896258
1001
AcDbBlockRepETag
1070
     1
1071
       51
1005
FB44
  0
LINE
  5
FB45
330
D0DE
100
AcDbEntity
  8
0
100
AcDbLine
 10
-10.90500881340904
 20
-85.31780866957234
 30
-0.0000000000000071
 11
-11.96566898412857
 21
-86.11200975096489
 31
-0.0000000000000142
210
0.0000000000000003
220
0.816496580927726
230
0.5773502691896258
1001
AcDbBlockRepETag
1070
     1
1071
       52
1005
FB45
  0
LINE
  5
FB46
330
D0DE
100
AcDbEntity
  8
0
100
AcDbLine
 10
-10.90500881340904
 20
-86.01670903289322
 30
-0.0000000000000213
 11
-10.90500881340904
 21
-85.31780866957218
 31
-0.0000000000000213
210
0.0000000000000003
220
0.816496580927726
230
0.5773502691896258
1001
AcDbBlockRepETag
1070
     1
1071
       53
1005
FB46
  0
LINE
  5
FB47
330
D0DE
100
AcDbEntity
  8
0
100
AcDbLine
 10
-11.70745936342882
 20
-86.61000630601803
 30
-0.0000000000000213
 11
-10.90500881340904
 21
-86.01670903289322
 31
-0.0000000000000213
210
0.0000000000000003
220
0.816496580927726
230
0.5773502691896258
1001
AcDbBlockRepETag
1070
     1
1071
       54
1005
FB47
  0
LINE
  5
FB48
330
D0DE
100
AcDbEntity
  8
0
100
AcDbLine
 10
-10.90500881340904
 20
-88.12989366127283
 30
-0.0000000000000284
 11
-11.70745936342882
 21
-86.61000630601803
 31
-0.0000000000000284
210
0.0000000000000003
220
0.816496580927726
230
0.5773502691896258
1001
AcDbBlockRepETag
1070
     1
1071
       55
1005
FB48
  0
LINE
  5
FB49
330
D0DE
100
AcDbEntity
  8
0
100
AcDbLine
 10
-10.90500881340904
 20
-88.82879402459389
 30
-0.0000000000000284
 11
-10.90500881340904
 21
-88.12989366127283
 31
-0.0000000000000213
210
0.0000000000000003
220
0.816496580927726
230
0.5773502691896258
1001
AcDbBlockRepETag
1070
     1
1071
       56
1005
FB49
  0
LINE
  5
FB4A
330
D0DE
100
AcDbEntity
  8
0
100
AcDbLine
 10
-11.96566898412857
 20
-86.8098480730344
 30
-0.0000000000000284
 11
-10.90500881340904
 21
-88.82879402459389
 31
-0.0000000000000355
210
0.0000000000000003
220
0.816496580927726
230
0.5773502691896258
1001
AcDbBlockRepETag
1070
     1
1071
       57
1005
FB4A
  0
LINE
  5
FB4B
330
D0DE
100
AcDbEntity
  8
0
100
AcDbLine
 10
-11.96566898412857
 20
-89.73657271803507
 30
-0.0000000000000213
 11
-11.96566898412857
 21
-86.8098480730344
 31
-0.0000000000000284
210
0.0000000000000003
220
0.816496580927726
230
0.5773502691896258
1001
AcDbBlockRepETag
1070
     1
1071
       58
1005
FB4B
  0
LINE
  5
FB4C
330
D0DE
100
AcDbEntity
  8
0
100
AcDbLine
 10
-10.90500881340904
 20
-88.94237163664252
 30
-0.0000000000000284
 11
-11.96566898412857
 21
-89.73657271803517
 31
-0.0000000000000284
210
0.0000000000000003
220
0.816496580927726
230
0.5773502691896258
1001
AcDbBlockRepETag
1070
     1
1071
       59
1005
FB4C
  0
LINE
  5
FB4D
330
D0DE
100
AcDbEntity
  8
0
100
AcDbLine
 10
-10.90500881340904
 20
-89.64127199996358
 30
-0.0000000000000284
 11
-10.90500881340904
 21
-88.94237163664257
 31
-0.0000000000000213
210
0.0000000000000003
220
0.816496580927726
230
0.5773502691896258
1001
AcDbBlockRepETag
1070
     1
1071
       60
1005
FB4D
  0
LINE
  5
FB4E
330
D0DE
100
AcDbEntity
  8
0
100
AcDbLine
 10
-11.70745936342882
 20
-90.23456927308837
 30
-0.0000000000000213
 11
-10.90500881340904
 21
-89.64127199996358
 31
-0.0000000000000355
210
0.0000000000000003
220
0.816496580927726
230
0.5773502691896258
1001
AcDbBlockRepETag
1070
     1
1071
       61
1005
FB4E
  0
LINE
  5
FB4F
330
D0DE
100
AcDbEntity
  8
0
100
AcDbLine
 10
-10.90500881340904
 20
-91.75445662834318
 30
-0.0000000000000355
 11
-11.70745936342882
 21
-90.23456927308837
 31
-0.0000000000000213
210
0.0000000000000003
220
0.816496580927726
230
0.5773502691896258
1001
AcDbBlockRepETag
1070
     1
1071
       62
1005
FB4F
  0
LINE
  5
FB50
330
D0DE
100
AcDbEntity
  8
0
100
AcDbLine
 10
-10.90500881340904
 20
-92.45335699166423
 30
-0.0000000000000213
 11
-10.90500881340904
 21
-91.75445662834324
 31
-0.0000000000000213
210
0.0000000000000003
220
0.816496580927726
230
0.5773502691896258
1001
AcDbBlockRepETag
1070
     1
1071
       63
1005
FB50
  0
LINE
  5
FB51
330
D0DE
100
AcDbEntity
  8
0
100
AcDbLine
 10
-11.96566898412857
 20
-90.43441104010474
 30
-0.0000000000000284
 11
-10.90500881340904
 21
-92.45335699166423
 31
-0.0000000000000213
210
0.0000000000000003
220
0.816496580927726
230
0.5773502691896258
1001
AcDbBlockRepETag
1070
     1
1071
       64
1005
FB51
  0
LINE
  5
FB52
330
D0DE
100
AcDbEntity
  8
0
100
AcDbLine
 10
-11.96566898412857
 20
-93.36113568510524
 30
-0.0000000000000071
 11
-11.96566898412857
 21
-90.43441104010474
 31
-0.0000000000000284
210
0.0000000000000003
220
0.816496580927726
230
0.5773502691896258
1001
AcDbBlockRepETag
1070
     1
1071
       65
1005
FB52
  0
LINE
  5
FB53
330
D0DE
100
AcDbEntity
  8
0
100
AcDbLine
 10
-10.90500881340904
 20
-92.56693460371275
 30
-0.0000000000000142
 11
-11.96566898412857
 21
-93.36113568510524
 31
-0.0000000000000071
210
0.0000000000000003
220
0.816496580927726
230
0.5773502691896258
1001
AcDbBlockRepETag
1070
     1
1071
       66
1005
FB53
  0
LINE
  5
FB54
330
D0DE
100
AcDbEntity
  8
0
100
AcDbLine
 10
-10.90500881340904
 20
-93.26583496703369
 30
-0.0000000000000213
 11
-10.90500881340904
 21
-92.56693460371275
 31
-0.0000000000000213
210
0.0000000000000003
220
0.816496580927726
230
0.5773502691896258
1001
AcDbBlockRepETag
1070
     1
1071
       67
1005
FB54
  0
LINE
  5
FB55
330
D0DE
100
AcDbEntity
  8
0
100
AcDbLine
 10
-11.70745936342882
 20
-93.85913224015855
 30
-0.0000000000000213
 11
-10.90500881340904
 21
-93.26583496703376
 31
-0.0000000000000284
210
0.0000000000000003
220
0.816496580927726
230
0.5773502691896258
1001
AcDbBlockRepETag
1070
     1
1071
       68
1005
FB55
  0
LINE
  5
FB56
330
D0DE
100
AcDbEntity
  8
0
100
AcDbLine
 10
-10.90500881340904
 20
-95.37901959541342
 30
-0.0000000000000142
 11
-11.70745936342882
 21
-93.85913224015855
 31
-0.0000000000000142
210
0.0000000000000003
220
0.816496580927726
230
0.5773502691896258
1001
AcDbBlockRepETag
1070
     1
1071
       69
1005
FB56
  0
LINE
  5
FB57
330
D0DE
100
AcDbEntity
  8
0
100
AcDbLine
 10
-10.90500881340904
 20
-96.07791995873441
 30
-0.0000000000000284
 11
-10.90500881340904
 21
-95.37901959541342
 31
-0.0000000000000142
210
0.0000000000000003
220
0.816496580927726
230
0.5773502691896258
1001
AcDbBlockRepETag
1070
     1
1071
       70
1005
FB57
  0
LINE
  5
FB58
330
D0DE
100
AcDbEntity
  8
0
100
AcDbLine
 10
-11.96566898412857
 20
-94.05897400717492
 30
-0.0000000000000284
 11
-10.90500881340904
 21
-96.07791995873441
 31
-0.0000000000000355
210
0.0000000000000003
220
0.816496580927726
230
0.5773502691896258
1001
AcDbBlockRepETag
1070
     1
1071
       71
1005
FB58
  0
LINE
  5
FB59
330
D0DE
100
AcDbEntity
  8
0
100
AcDbLine
 10
-11.96566898412857
 20
-96.98569865217553
 30
-0.0000000000000355
 11
-11.96566898412857
 21
-94.05897400717492
 31
-0.0000000000000142
210
0.0000000000000003
220
0.816496580927726
230
0.5773502691896258
1001
AcDbBlockRepETag
1070
     1
1071
       72
1005
FB59
  0
LINE
  5
FB5A
330
D0DE
100
AcDbEntity
  8
0
100
AcDbLine
 10
-10.90500881340904
 20
-96.19149757078304
 30
0.0
 11
-11.96566898412857
 21
-96.98569865217558
 31
-0.0000000000000071
210
0.0000000000000003
220
0.816496580927726
230
0.5773502691896258
1001
AcDbBlockRepETag
1070
     1
1071
       73
1005
FB5A
  0
LINE
  5
FB5B
330
D0DE
100
AcDbEntity
  8
0
100
AcDbLine
 10
-10.90500881340904
 20
-96.89039793410394
 30
-0.0000000000000284
 11
-10.90500881340904
 21
-96.19149757078293
 31
-0.0000000000000142
210
0.0000000000000003
220
0.816496580927726
230
0.5773502691896258
1001
AcDbBlockRepETag
1070
     1
1071
       74
1005
FB5B
  0
LINE
  5
FB5C
330
D0DE
100
AcDbEntity
  8
0
100
AcDbLine
 10
-11.70745936342882
 20
-97.48369520722873
 30
-0.0000000000000142
 11
-10.90500881340904
 21
-96.89039793410394
 31
-0.0000000000000355
210
0.0000000000000003
220
0.816496580927726
230
0.5773502691896258
1001
AcDbBlockRepETag
1070
     1
1071
       75
1005
FB5C
  0
LINE
  5
FB5D
330
D0DE
100
AcDbEntity
  8
0
100
AcDbLine
 10
-10.90500881340904
 20
-99.00358256248352
 30
-0.0000000000000355
 11
-11.70745936342882
 21
-97.48369520722873
 31
-0.0000000000000213
210
0.0000000000000003
220
0.816496580927726
230
0.5773502691896258
1001
AcDbBlockRepETag
1070
     1
1071
       76
1005
FB5D
  0
LINE
  5
FB5E
330
D0DE
100
AcDbEntity
  8
0
100
AcDbLine
 10
-10.90500881340904
 20
-99.70248292580459
 30
-0.0000000000000213
 11
-10.90500881340904
 21
-99.00358256248352
 31
-0.0000000000000284
210
0.0000000000000003
220
0.816496580927726
230
0.5773502691896258
1001
AcDbBlockRepETag
1070
     1
1071
       77
1005
FB5E
  0
LINE
  5
FB5F
330
D0DE
100
AcDbEntity
  8
0
100
AcDbLine
 10
-11.96566898412857
 20
-97.6835369742451
 30
-0.0000000000000355
 11
-10.90500881340904
 21
-99.70248292580459
 31
-0.0000000000000284
210
0.0000000000000003
220
0.816496580927726
230
0.5773502691896258
1001
AcDbBlockRepETag
1070
     1
1071
       78
1005
FB5F
  0
LINE
  5
FB60
330
D0DE
100
AcDbEntity
  8
0
100
AcDbLine
 10
-11.96566898412857
 20
-99.42499525237611
 30
-0.0000000000000142
 11
-11.96566898412857
 21
-97.6835369742451
 31
-0.0000000000000284
210
0.0000000000000003
220
0.816496580927726
230
0.5773502691896258
1001
AcDbBlockRepETag
1070
     1
1071
       79
1005
FB60
  0
LINE
  5
FB61
330
D0DE
100
AcDbEntity
  8
0
100
AcDbLine
 10
-10.3582889320478
 20
-100.6849651442635
 30
-0.0000000000000284
 11
-11.96566898412857
 21
-99.42499525237622
 31
-0.0000000000000355
210
0.0000000000000003
220
0.816496580927726
230
0.5773502691896258
1001
AcDbBlockRepETag
1070
     1
1071
       80
1005
FB61
  0
LINE
  5
FB62
330
D0DE
100
AcDbEntity
  8
0
100
AcDbLine
 10
-10.3582889320478
 20
-101.680307784805
 30
-0.0000000000000142
 11
-10.3582889320478
 21
-100.6849651442633
 31
-0.0000000000000142
210
0.0000000000000003
220
0.816496580927726
230
0.5773502691896258
1001
AcDbBlockRepETag
1070
     1
1071
       81
1005
FB62
  0
LINE
  5
FB63
330
D0DE
100
AcDbEntity
  8
0
100
AcDbLine
 10
-49.018064318303
 20
-71.37624064725509
 30
-0.0000000000000213
 11
-10.3582889320478
 21
-101.680307784805
 31
0.0
210
0.0000000000000003
220
0.816496580927726
230
0.5773502691896258
1001
AcDbBlockRepETag
1070
     1
1071
       82
1005
FB63
  0
LINE
  5
FB64
330
D0DE
100
AcDbEntity
  8
0
100
AcDbLine
 10
-49.018064318303
 20
-63.00804946610213
 30
-0.0000000000000071
 11
-49.018064318303
 21
-71.37624064725509
 31
-0.0000000000000036
210
0.0000000000000003
220
0.816496580927726
230
0.5773502691896258
1001
AcDbBlockRepETag
1070
     1
1071
       83
1005
FB64
  0
LINE
  5
FB65
330
D0DE
100
AcDbEntity
  8
0
100
AcDbLine
 10
-59.40432414529642
 20
-57.01153955911445
 30
-0.0000000000000036
 11
-49.018064318303
 21
-63.00804946610213
 31
-0.0000000000000071
210
0.0000000000000003
220
0.816496580927726
230
0.5773502691896258
1001
AcDbBlockRepETag
1070
     1
1071
       84
1005
FB65
  0
LINE
  5
FB66
330
D0DE
100
AcDbEntity
  8
0
100
AcDbLine
 10
-59.51860001892328
 20
-56.61896372033891
 30
-0.0000000000000178
 11
-59.40432414529642
 21
-57.01153955911445
 31
-0.0000000000000036
210
0.0000000000000003
220
0.816496580927726
230
0.5773502691896258
1001
AcDbBlockRepETag
1070
     1
1071
       85
1005
FB66
  0
LINE
  5
FB67
330
D0DE
100
AcDbEntity
  8
0
100
AcDbLine
 10
-59.73073205328001
 20
-56.49648923319978
 30
-0.0000000000000107
 11
-59.51860001892328
 21
-56.61896372033891
 31
-0.0000000000000036
210
0.0000000000000003
220
0.816496580927726
230
0.5773502691896258
1001
AcDbBlockRepETag
1070
     1
1071
       86
1005
FB67
  0
LINE
  5
FB68
330
D0DE
100
AcDbEntity
  8
0
100
AcDbLine
 10
-59.84500792690505
 20
-56.75711065917119
 30
-0.0000000000000142
 11
-59.7307320532791
 21
-56.49648923319978
 31
-0.0000000000000071
210
0.0000000000000003
220
0.816496580927726
230
0.5773502691896258
1001
AcDbBlockRepETag
1070
     1
1071
       87
1005
FB68
  0
LINE
  5
FB69
330
D0DE
100
AcDbEntity
  8
0
100
AcDbLine
 10
-62.93985805122884
 20
-54.97029810679146
 30
-0.0000000000000142
 11
-59.84500792690505
 21
-56.75711065917119
 31
-0.0000000000000178
210
0.0000000000000003
220
0.816496580927726
230
0.5773502691896258
1001
AcDbBlockRepETag
1070
     1
1071
       88
1005
FB69
  0
LINE
  5
FB6A
330
D0DE
100
AcDbEntity
  8
0
100
AcDbLine
 10
-63.05413392485661
 20
-54.57772226801956
 30
-0.0000000000000178
 11
-62.93985805122884
 21
-54.97029810679499
 31
-0.0000000000000142
210
0.0000000000000003
220
0.816496580927726
230
0.5773502691896258
1001
AcDbBlockRepETag
1070
     1
1071
       89
1005
FB6A
  0
LINE
  5
FB6B
330
D0DE
100
AcDbEntity
  8
0
100
AcDbLine
 10
-63.26626595921243
 20
-54.45524778088042
 30
-0.0000000000000071
 11
-63.05413392485661
 21
-54.57772226801956
 31
-0.0000000000000107
210
0.0000000000000003
220
0.816496580927726
230
0.5773502691896258
1001
AcDbBlockRepETag
1070
     1
1071
       90
1005
FB6B
  0
LINE
  5
FB6C
330
D0DE
100
AcDbEntity
  8
0
100
AcDbLine
 10
-63.38054183283839
 20
-54.71586920685183
 30
-0.0000000000000036
 11
-63.26626595921243
 21
-54.45524778088042
 31
-0.0000000000000071
210
0.0000000000000003
220
0.816496580927726
230
0.5773502691896258
1001
AcDbBlockRepETag
1070
     1
1071
       91
1005
FB6C
  0
LINE
  5
FB6D
330
D0DE
100
AcDbEntity
  8
0
100
AcDbLine
 10
-73.54645976902702
 20
-48.84657374983368
 30
-0.0000000000000107
 11
-63.38054183283839
 21
-54.71586920685183
 31
-0.0000000000000071
210
0.0000000000000003
220
0.816496580927726
230
0.5773502691896258
1001
AcDbBlockRepETag
1070
     1
1071
       92
1005
FB6D
  0
LINE
  5
FB6E
330
D0DE
100
AcDbEntity
  8
0
100
AcDbLine
 10
-73.66073564265389
 20
-48.45399791106166
 30
-0.0000000000000142
 11
-73.54645976902702
 21
-48.84657374983738
 31
-0.0000000000000071
210
0.0000000000000003
220
0.816496580927726
230
0.5773502691896258
1001
AcDbBlockRepETag
1070
     1
1071
       93
1005
FB6E
  0
LINE
  5
FB6F
330
D0DE
100
AcDbEntity
  8
0
100
AcDbLine
 10
-73.87286767701062
 20
-48.33152342392248
 30
-0.0000000000000071
 11
-73.6607356426548
 21
-48.4539979110616
 31
-0.0000000000000142
210
0.0000000000000003
220
0.816496580927726
230
0.5773502691896258
1001
AcDbBlockRepETag
1070
     1
1071
       94
1005
FB6F
  0
LINE
  5
FB70
330
D0DE
100
AcDbEntity
  8
0
100
AcDbLine
 10
-73.98714355063657
 20
-48.59214484989388
 30
-0.0000000000000178
 11
-73.87286767701062
 21
-48.33152342392248
 31
-0.0000000000000071
210
0.0000000000000003
220
0.816496580927726
230
0.5773502691896258
1001
AcDbBlockRepETag
1070
     1
1071
       95
1005
FB70
  0
LINE
  5
FB71
330
D0DE
100
AcDbEntity
  8
0
100
AcDbLine
 10
-80.83786947169846
 20
-44.63687639522453
 30
-0.0000000000000142
 11
-73.98714355063657
 21
-48.59214484989388
 31
-0.0000000000000178
210
0.0000000000000003
220
0.816496580927726
230
0.5773502691896258
1001
AcDbBlockRepETag
1070
     1
1071
       96
1005
FB71
  0
LINE
  5
FB72
330
D0DE
100
AcDbEntity
  8
0
100
AcDbLine
 10
-80.83786947169846
 20
-43.65708049811479
 30
-0.0000000000000178
 11
-80.83786947169846
 21
-44.63687639522828
 31
-0.0000000000000071
210
0.0000000000000003
220
0.816496580927726
230
0.5773502691896258
1001
AcDbBlockRepETag
1070
     1
1071
       97
1005
FB72
  0
LINE
  5
FB73
330
D0DE
100
AcDbEntity
  8
0
100
AcDbLine
 10
-73.98714355063567
 20
-47.61234895278465
 30
-0.0000000000000142
 11
-80.83786947169846
 21
-43.65708049811479
 31
-0.0000000000000178
210
0.0000000000000003
220
0.816496580927726
230
0.5773502691896258
1001
AcDbBlockRepETag
1070
     1
1071
       98
1005
FB73
  0
LINE
  5
FB74
330
D0DE
100
AcDbEntity
  8
0
100
AcDbLine
 10
-73.87286767701062
 20
-48.00492479155133
 30
-0.0000000000000142
 11
-73.98714355063567
 21
-47.61234895278465
 31
-0.0000000000000142
210
0.0000000000000003
220
0.816496580927726
230
0.5773502691896258
1001
AcDbBlockRepETag
1070
     1
1071
       99
1005
FB74
  0
LINE
  5
FB75
330
D0DE
100
AcDbEntity
  8
0
100
AcDbLine
 10
-73.6607356426548
 20
-48.12739927869057
 30
-0.0000000000000142
 11
-73.87286767701062
 21
-48.00492479155133
 31
-0.0000000000000142
210
0.0000000000000003
220
0.816496580927726
230
0.5773502691896258
1001
AcDbBlockRepETag
1070
     1
1071
      100
1005
FB75
  0
LINE
  5
FB76
330
D0DE
100
AcDbEntity
  8
0
100
AcDbLine
 10
-73.54645976902884
 20
-47.86677785271956
 30
-0.0000000000000107
 11
-73.6607356426548
 21
-48.12739927869057
 31
-0.0000000000000142
210
0.0000000000000003
220
0.816496580927726
230
0.5773502691896258
1001
AcDbBlockRepETag
1070
     1
1071
      101
1005
FB76
  0
LINE
  5
FB77
330
D0DE
100
AcDbEntity
  8
0
100
AcDbLine
 10
-63.38054183283748
 20
-53.7360733097392
 30
-0.0000000000000107
 11
-73.54645976902884
 21
-47.86677785271956
 31
-0.0000000000000107
210
0.0000000000000003
220
0.816496580927726
230
0.5773502691896258
1001
AcDbBlockRepETag
1070
     1
1071
      102
1005
FB77
  0
LINE
  5
FB78
330
D0DE
100
AcDbEntity
  8
0
100
AcDbLine
 10
-63.26626595921243
 20
-54.12864914850928
 30
-0.0000000000000107
 11
-63.38054183283748
 21
-53.73607330974255
 31
-0.0000000000000071
210
0.0000000000000003
220
0.816496580927726
230
0.5773502691896258
1001
AcDbBlockRepETag
1070
     1
1071
      103
1005
FB78
  0
LINE
  5
FB79
330
D0DE
100
AcDbEntity
  8
0
100
AcDbLine
 10
-63.05413392485661
 20
-54.25112363564853
 30
-0.0000000000000142
 11
-63.26626595921243
 21
-54.12864914850928
 31
-0.0000000000000178
210
0.0000000000000003
220
0.816496580927726
230
0.5773502691896258
1001
AcDbBlockRepETag
1070
     1
1071
      104
1005
FB79
  0
LINE
  5
FB7A
330
D0DE
100
AcDbEntity
  8
0
100
AcDbLine
 10
-62.93985805123066
 20
-53.99050220967751
 30
-0.0000000000000071
 11
-63.05413392485661
 21
-54.25112363564853
 31
-0.0000000000000142
210
0.0000000000000003
220
0.816496580927726
230
0.5773502691896258
1001
AcDbBlockRepETag
1070
     1
1071
      105
1005
FB7A
  0
LINE
  5
FB7B
330
D0DE
100
AcDbEntity
  8
0
100
AcDbLine
 10
-59.84500792690505
 20
-55.77731476205849
 30
-0.0000000000000178
 11
-62.93985805123066
 21
-53.99050220967751
 31
-0.0000000000000107
210
0.0000000000000003
220
0.816496580927726
230
0.5773502691896258
1001
AcDbBlockRepETag
1070
     1
1071
      106
1005
FB7B
  0
LINE
  5
FB7C
330
D0DE
100
AcDbEntity
  8
0
100
AcDbLine
 10
-59.73073205328001
 20
-56.16989060082858
 30
-0.0000000000000249
 11
-59.84500792690505
 21
-55.77731476206185
 31
-0.0000000000000213
210
0.0000000000000003
220
0.816496580927726
230
0.5773502691896258
1001
AcDbBlockRepETag
1070
     1
1071
      107
1005
FB7C
  0
LINE
  5
FB7D
330
D0DE
100
AcDbEntity
  8
0
100
AcDbLine
 10
-59.51860001892328
 20
-56.29236508796783
 30
-0.0000000000000213
 11
-59.73073205328001
 21
-56.16989060082858
 31
-0.0000000000000107
210
0.0000000000000003
220
0.816496580927726
230
0.5773502691896258
1001
AcDbBlockRepETag
1070
     1
1071
      108
1005
FB7D
  0
LINE
  5
FB7E
330
D0DE
100
AcDbEntity
  8
0
100
AcDbLine
 10
-59.40432414529732
 20
-56.03174366199681
 30
-0.0000000000000249
 11
-59.51860001892328
 21
-56.29236508796783
 31
-0.0000000000000178
210
0.0000000000000003
220
0.816496580927726
230
0.5773502691896258
1001
AcDbBlockRepETag
1070
     1
1071
      109
1005
FB7E
  0
LINE
  5
FB7F
330
D0DE
100
AcDbEntity
  8
0
100
AcDbLine
 10
-49.01806431830391
 20
-62.0282535689854
 30
-0.0000000000000071
 11
-59.40432414529732
 21
-56.03174366199681
 31
-0.0000000000000178
210
0.0000000000000003
220
0.816496580927726
230
0.5773502691896258
1001
AcDbBlockRepETag
1070
     1
1071
      110
1005
FB7F
  0
LINE
  5
FB80
330
D0DE
100
AcDbEntity
  8
0
100
AcDbLine
 10
-49.01806431830391
 20
-54.86170544682477
 30
-0.0000000000000142
 11
-49.01806431830391
 21
-62.0282535689887
 31
-0.0000000000000142
210
0.0000000000000003
220
0.816496580927726
230
0.5773502691896258
1001
AcDbBlockRepETag
1070
     1
1071
      111
1005
FB80
  0
LINE
  5
FB81
330
D0DE
100
AcDbEntity
  8
0
100
AcDbLine
 10
-48.16953618087973
 20
-55.35160339538141
 30
-0.0000000000000142
 11
-49.01806431830391
 21
-54.86170544682477
 31
-0.0000000000000142
210
0.0000000000000003
220
0.816496580927726
230
0.5773502691896258
1001
AcDbBlockRepETag
1070
     1
1071
      112
1005
FB81
  0
ELLIPSE
  5
FB82
330
D0DE
100
AcDbEntity
  8
0
100
AcDbEllipse
 10
-48.16953618087973
 20
-55.84150134393815
 30
-0.0000000000000142
 11
0.3000000000000109
 21
-0.5196152422706831
 31
0.0
210
0.0
220
0.0
230
1.0
 40
0.5773502691896257
 41
5.497787143782126
 42
8.639379797371942
1001
AcDbBlockRepETag
1070
     1
1071
      113
1005
FB82
  0
LINE
  5
FB83
330
D0DE
100
AcDbEntity
  8
0
100
AcDbLine
 10
-48.16953618087973
 20
-70.70173911682286
 30
-0.0000000000000213
 11
-48.16953618087973
 21
-56.33139929249495
 31
-0.0000000000000178
210
0.0000000000000003
220
0.816496580927726
230
0.5773502691896258
1001
AcDbBlockRepETag
1070
     1
1071
      114
1005
FB83
  0
LINE
  5
FB84
330
D0DE
100
AcDbEntity
  8
0
100
AcDbLine
 10
-41.52273243780018
 20
-74.53927304714046
 30
-0.0000000000000142
 11
-48.16953618087973
 21
-70.70173911682286
 31
-0.0000000000000213
210
0.0000000000000003
220
0.816496580927726
230
0.5773502691896258
1001
AcDbBlockRepETag
1070
     1
1071
      115
1005
FB84
  0
ELLIPSE
  5
FB85
330
D0DE
100
AcDbEntity
  8
0
100
AcDbEllipse
 10
-41.52273243772561
 20
-75.02917099573972
 30
-0.0000000000000036
 11
0.3000000000000109
 21
-0.5196152422706831
 31
0.0
210
0.0
220
0.0
230
1.0
 40
0.5773502691896257
 41
5.497787143782149
 42
8.63937979754624
1001
AcDbBlockRepETag
1070
     1
1071
      116
1005
FB85
  0
LINE
  5
FB86
330
D0DE
100
AcDbEntity
  8
0
100
AcDbLine
 10
341.8298554905468
 20
129.1927436979916
 30
0.0000000000000687
 11
-13.11419712155202
 21
-75.73430062486067
 31
-0.000000000000032
210
0.0000000000000003
220
0.816496580927726
230
0.5773502691896258
1001
AcDbBlockRepETag
1070
     1
1071
      117
1005
FB86
  0
LINE
  5
FB87
330
D0DE
100
AcDbEntity
  8
0
100
AcDbLine
 10
-12.81419712155184
 20
-83.2361868079475
 30
-0.0000000000000213
 11
-19.76098059700689
 21
-87.24691411750313
 31
-0.0000000000000142
210
0.0000000000000003
220
0.816496580927726
230
0.5773502691896258
1001
AcDbBlockRepETag
1070
     1
1071
      118
1005
FB87
  0
LINE
  5
FB88
330
D0DE
100
AcDbEntity
  8
0
100
AcDbLine
 10
76.11939302856717
 20
-7.801278512762564
 30
0.0000000000000227
 11
-41.22273243772633
 21
-75.54878623801039
 31
-0.0000000000000036
210
0.0000000000000003
220
0.816496580927726
230
0.5773502691896258
1001
AcDbBlockRepETag
1070
     1
1071
      119
1005
FB88
  0
LINE
  5
FB89
330
D0DE
100
AcDbEntity
  8
0
100
AcDbLine
 10
68.35841190661904
 20
10.74312052946595
 30
0.0000000000000038
 11
-47.86953618087955
 21
-56.36111658620888
 31
-0.0000000000000107
210
0.0000000000000003
220
0.816496580927726
230
0.5773502691896258
1001
AcDbBlockRepETag
1070
     1
1071
      120
1005
FB89
  0
ENDBLK
  5
D15B
330
D0DE
100
AcDbEntity
  8
0
100
AcDbBlockEnd
  0
BLOCK
  5
D847
330
D846
100
AcDbEntity
  8
0
100
AcDbBlockBegin
  2
A$C3BA61CEA
 70
     0
 10
0.0
 20
0.0
 30
0.0
  3
A$C3BA61CEA
  1

  0
LINE
  5
FC32
330
D846
100
AcDbEntity
  8
0
100
AcDbLine
 10
34.51365185755094
 20
19.3331604544106
 30
0.0000000000000036
 11
34.51365185755094
 21
96.23843759281776
 31
0.0
210
-0.0000000000000001
220
0.816496580927726
230
0.5773502691896259
1001
AcDbBlockRepETag
1070
     1
1071
        0
1005
FC32
  0
LINE
  5
FC33
330
D846
100
AcDbEntity
  8
0
100
AcDbLine
 10
21.04108609251944
 20
10.02929666758856
 30
0.0000000000000044
 11
34.51365185755094
 21
19.3331604544106
 31
0.0000000000000036
210
-0.0000000000000001
220
0.816496580927726
230
0.5773502691896259
1001
AcDbBlockRepETag
1070
     1
1071
        1
1005
FC33
  0
LINE
  5
FC34
330
D846
100
AcDbEntity
  8
0
100
AcDbLine
 10
16.1664124691888
 20
7.21490253894683
 30
0.0000000000000044
 11
21.04108609251944
 21
10.02929666758856
 31
0.0000000000000044
210
-0.0000000000000001
220
0.816496580927726
230
0.5773502691896259
1001
AcDbBlockRepETag
1070
     1
1071
        2
1005
FC34
  0
LINE
  5
FC35
330
D846
100
AcDbEntity
  8
0
100
AcDbLine
 10
3.542374841580567
 20
1.367510594193845
 30
0.000000000000001
 11
16.1664124691888
 21
7.21490253894683
 31
0.0000000000000044
210
-0.0000000000000001
220
0.816496580927726
230
0.5773502691896259
1001
AcDbBlockRepETag
1070
     1
1071
        3
1005
FC35
  0
LINE
  5
FC36
330
D846
100
AcDbEntity
  8
0
100
AcDbLine
 10
3.542374841580567
 20
0.2470962733542592
 30
0.0000000000000005
 11
3.542374841580567
 21
1.367510594193845
 31
0.0000000000000006
210
-0.0000000000000001
220
0.816496580927726
230
0.5773502691896259
1001
AcDbBlockRepETag
1070
     1
1071
        4
1005
FC36
  0
LINE
  5
FC37
330
D846
100
AcDbEntity
  8
0
100
AcDbLine
 10
2.693846704156385
 20
-0.2428016752023154
 30
0.000000000000001
 11
3.542374841580567
 21
0.2470962733542592
 31
0.0000000000000012
210
-0.0000000000000001
220
0.816496580927726
230
0.5773502691896259
1001
AcDbBlockRepETag
1070
     1
1071
        5
1005
FC37
  0
LINE
  5
FC38
330
D846
100
AcDbEntity
  8
0
100
AcDbLine
 10
2.693846704156385
 20
12.06599341583055
 30
0.0000000000000009
 11
2.693846704156385
 21
-0.2428016752023154
 31
0.0000000000000006
210
-0.0000000000000001
220
0.816496580927726
230
0.5773502691896259
1001
AcDbBlockRepETag
1070
     1
1071
        6
1005
FC38
  0
LINE
  5
FC39
330
D846
100
AcDbEntity
  8
0
100
AcDbLine
 10
2.693846704156385
 20
-0.2428016752023154
 30
0.000000000000001
 11
-97.9603288597873
 21
57.86991368170006
 31
0.0000000000000051
210
-0.0000000000000001
220
0.816496580927726
230
0.5773502691896259
1001
AcDbBlockRepETag
1070
     1
1071
        7
1005
FC39
  0
LINE
  5
FC3A
330
D846
100
AcDbEntity
  8
0
100
AcDbLine
 10
3.542374841580567
 20
12.55589136438735
 30
0.0000000000000018
 11
2.693846704156385
 21
12.06599341583055
 31
0.0000000000000009
210
-0.0000000000000001
220
0.816496580927726
230
0.5773502691896259
1001
AcDbBlockRepETag
1070
     1
1071
        8
1005
FC3A
  0
LINE
  5
FC3B
330
D846
100
AcDbEntity
  8
0
100
AcDbLine
 10
2.693846704156385
 20
12.06599341583055
 30
0.0000000000000009
 11
-97.95962596646223
 21
70.17830295708254
 31
-0.0000000000000005
210
-0.0000000000000001
220
0.816496580927726
230
0.5773502691896259
1001
AcDbBlockRepETag
1070
     1
1071
        9
1005
FC3B
  0
LINE
  5
FC3C
330
D846
100
AcDbEntity
  8
0
100
AcDbLine
 10
3.542374841580567
 20
2.350932729594717
 30
0.0000000000000013
 11
3.542374841580567
 21
12.55589136438735
 31
0.0000000000000018
210
-0.0000000000000001
220
0.816496580927726
230
0.5773502691896259
1001
AcDbBlockRepETag
1070
     1
1071
       10
1005
FC3C
  0
LINE
  5
FC3D
330
D846
100
AcDbEntity
  8
0
100
AcDbLine
 10
3.542374841580567
 20
12.55589136438735
 30
0.0000000000000018
 11
-97.95957001525131
 21
71.15806655074928
 31
0.0000000000000104
210
-0.0000000000000001
220
0.816496580927726
230
0.5773502691896259
1001
AcDbBlockRepETag
1070
     1
1071
       11
1005
FC3D
  0
LINE
  5
FC3E
330
D846
100
AcDbEntity
  8
0
100
AcDbLine
 10
16.20288031840846
 20
8.215753158623755
 30
0.0000000000000036
 11
3.542374841580567
 21
2.350932729594717
 31
0.0000000000000016
210
-0.0000000000000001
220
0.816496580927726
230
0.5773502691896259
1001
AcDbBlockRepETag
1070
     1
1071
       12
1005
FC3E
  0
LINE
  5
FC3F
330
D846
100
AcDbEntity
  8
0
100
AcDbLine
 10
21.00461824329977
 20
10.98803784213768
 30
0.0000000000000053
 11
16.20288031840846
 21
8.215753158623755
 31
0.0000000000000036
210
-0.0000000000000001
220
0.816496580927726
230
0.5773502691896259
1001
AcDbBlockRepETag
1070
     1
1071
       13
1005
FC3F
  0
LINE
  5
FC40
330
D846
100
AcDbEntity
  8
0
100
AcDbLine
 10
16.20288031840846
 20
8.215753158623755
 30
0.0000000000000036
 11
-97.95940044730651
 21
74.12737669000993
 31
-0.0000000000000029
210
-0.0000000000000001
220
0.816496580927726
230
0.5773502691896259
1001
AcDbBlockRepETag
1070
     1
1071
       14
1005
FC40
  0
LINE
  5
FC41
330
D846
100
AcDbEntity
  8
0
100
AcDbLine
 10
33.66512372012767
 20
19.74230990335525
 30
0.0000000000000089
 11
21.00461824329977
 21
10.98803784213768
 31
0.0000000000000044
210
-0.0000000000000001
220
0.816496580927726
230
0.5773502691896259
1001
AcDbBlockRepETag
1070
     1
1071
       15
1005
FC41
  0
LINE
  5
FC42
330
D846
100
AcDbEntity
  8
0
100
AcDbLine
 10
21.00461824329977
 20
10.98803784213768
 30
0.0000000000000053
 11
-97.9590838248605
 21
79.6717632549846
 31
0.0000000000000154
210
-0.0000000000000001
220
0.816496580927726
230
0.5773502691896259
1001
AcDbBlockRepETag
1070
     1
1071
       16
1005
FC42
  0
LINE
  5
FC43
330
D846
100
AcDbEntity
  8
0
100
AcDbLine
 10
33.66512372012767
 20
95.748539644261
 30
0.0
 11
33.66512372012767
 21
19.74230990335525
 31
0.0000000000000089
210
-0.0000000000000001
220
0.816496580927726
230
0.5773502691896259
1001
AcDbBlockRepETag
1070
     1
1071
       17
1005
FC43
  0
LINE
  5
FC44
330
D846
100
AcDbEntity
  8
0
100
AcDbLine
 10
33.66512372012767
 20
19.74230990335525
 30
0.0000000000000089
 11
-97.95816650106372
 21
95.73505194418359
 31
0.0000000000000201
210
-0.0000000000000001
220
0.816496580927726
230
0.5773502691896259
1001
AcDbBlockRepETag
1070
     1
1071
       18
1005
FC44
  0
LINE
  5
FC45
330
D846
100
AcDbEntity
  8
0
100
AcDbLine
 10
34.51365185755094
 20
96.23843759281776
 30
0.0
 11
-94.10240065060225
 21
170.4949501305075
 31
0.0000000000000292
210
-0.0000000000000001
220
0.816496580927726
230
0.5773502691896259
1001
AcDbBlockRepETag
1070
     1
1071
       19
1005
FC45
  0
LINE
  5
FC46
330
D846
100
AcDbEntity
  8
0
100
AcDbLine
 10
34.51365185755094
 20
96.23843759281776
 30
0.0
 11
33.66512372012767
 21
95.748539644261
 31
0.0
210
-0.0000000000000001
220
0.816496580927726
230
0.5773502691896259
1001
AcDbBlockRepETag
1070
     1
1071
       20
1005
FC46
  0
LINE
  5
FC47
330
D846
100
AcDbEntity
  8
0
100
AcDbLine
 10
33.66512372012767
 20
95.748539644261
 30
0.0
 11
-94.95092878802552
 21
170.0050521819501
 31
0.0000000000000292
210
-0.0000000000000001
220
0.816496580927726
230
0.5773502691896259
1001
AcDbBlockRepETag
1070
     1
1071
       21
1005
FC47
  0
ENDBLK
  5
D865
330
D846
100
AcDbEntity
  8
0
100
AcDbBlockEnd
  0
BLOCK
  5
E90D
330
E90C
100
AcDbEntity
  8
0
100
AcDbBlockBegin
  2
steel
 70
     0
 10
0.0
 20
0.0
 30
0.0
  3
steel
  1

  0
LINE
  5
EB3B
330
E90C
100
AcDbEntity
  8
MP Steel Framing Perimeter (00134159)
100
AcDbLine
 10
210.3041157030302
 20
270.4624487988464
 30
0.0
 11
210.3041157030293
 21
175.5855552058482
 31
0.0
1001
AcDbBlockRepETag
1070
     1
1071
        0
1005
EB3B
  0
LINE
  5
EB3C
330
E90C
100
AcDbEntity
  8
MP Steel Framing Perimeter (00134159)
100
AcDbLine
 10
125.2472387218176
 20
101.2065237828444
 30
0.0
 11
8.660254037844424
 21
33.89499679154824
 31
0.0
1001
AcDbBlockRepETag
1070
     1
1071
        1
1005
EB3C
  0
LINE
  5
EB3D
330
E90C
100
AcDbEntity
  8
MP Steel Framing Perimeter (00134159)
100
AcDbLine
 10
76.94228634060164
 20
-5.52765293926086
 30
0.0
 11
76.94228634060073
 21
-43.26794919243184
 31
0.0
1001
AcDbBlockRepETag
1070
     1
1071
        2
1005
EB3D
  0
LINE
  5
EB3E
330
E90C
100
AcDbEntity
  8
MP Steel Framing Perimeter (00134159)
100
AcDbLine
 10
76.94228634059891
 20
-5.52765293926086
 30
0.0
 11
69.28203230275539
 21
-1.105003208450625
 31
0.0
1001
AcDbBlockRepETag
1070
     1
1071
        3
1005
EB3E
  0
LWPOLYLINE
  5
EB3F
330
E90C
100
AcDbEntity
  8
MP Steel Framing Perimeter (00134159)
100
AcDbPolyline
 90
        3
 70
     0
 43
0.0
 10
166.9940635967605
 20
56.46376490058492
 10
69.28203230275539
 20
0.049697329927767
 10
69.28203230275631
 20
-1.105003208451762
1001
AcDbBlockRepETag
1070
     1
1071
        4
1005
EB3F
  0
LINE
  5
EB40
330
E90C
100
AcDbEntity
  8
MP Steel Framing Perimeter (00134159)
100
AcDbLine
 10
69.28203230275539
 20
0.0559485804978976
 30
0.0
 11
77.91651106734661
 21
-4.929170058551335
 31
0.0
1001
AcDbBlockRepETag
1070
     1
1071
        5
1005
EB40
  0
LINE
  5
EB41
330
E90C
100
AcDbEntity
  8
MP Steel Framing Perimeter (00134159)
100
AcDbLine
 10
0.0
 20
0.0
 30
0.0
 11
77.94228634059891
 21
-45.0
 31
0.0
1001
AcDbBlockRepETag
1070
     1
1071
        6
1005
EB41
  0
LWPOLYLINE
  5
EB42
330
E90C
100
AcDbEntity
  8
MP Steel Framing Perimeter (00134159)
100
AcDbPolyline
 90
        5
 70
     0
 43
0.0
 10
1.000000000001818
 20
0.577350269187491
 10
1.000000000000909
 20
38.31764652235961
 10
8.660254037844424
 20
33.89499679154937
 10
8.660254037845334
 20
35.04969732993231
 10
-0.0000000000009095
 20
40.04969732993004
1001
AcDbBlockRepETag
1070
     1
1071
        7
1005
EB42
  0
LINE
  5
EB43
330
E90C
100
AcDbEntity
  8
MP Steel Framing Perimeter (00134159)
100
AcDbLine
 10
0.0
 20
0.0
 30
0.0
 11
0.000000000001819
 21
40.04969732992947
 31
0.0
1001
AcDbBlockRepETag
1070
     1
1071
        8
1005
EB43
  0
LINE
  5
EB44
330
E90C
100
AcDbEntity
  8
MP Steel Framing Perimeter (00134159)
100
AcDbLine
 10
0.9999999999990905
 20
0.5836015197598954
 30
0.0
 11
76.94228634059891
 21
-43.26169794186057
 31
0.0
1001
AcDbBlockRepETag
1070
     1
1071
        9
1005
EB44
  0
LINE
  5
EB45
330
E90C
100
AcDbEntity
  8
MP Steel Framing Perimeter (00134159)
100
AcDbLine
 10
77.94228634059891
 20
-4.950302670071096
 30
0.0
 11
77.94228634059982
 21
-45.00000000000227
 31
0.0
1001
AcDbBlockRepETag
1070
     1
1071
       10
1005
EB45
  0
LINE
  5
EB46
330
E90C
100
AcDbEntity
  8
MP Steel Framing Perimeter (00134159)
100
AcDbLine
 10
125.2472387218185
 20
102.3612243212292
 30
0.0
 11
8.660254037845334
 21
35.04969732993254
 31
0.0
1001
AcDbBlockRepETag
1070
     1
1071
       11
1005
EB46
  0
LINE
  5
EB47
330
E90C
100
AcDbEntity
  8
MP Steel Framing Perimeter (00134159)
100
AcDbLine
 10
132.4087969638867
 20
76.45250582074243
 30
0.0
 11
0.9999999999990905
 21
0.5836015197598954
 31
0.0
1001
AcDbBlockRepETag
1070
     1
1071
       12
1005
EB47
  0
LINE
  5
EB48
330
E90C
100
AcDbEntity
  8
MP Steel Framing Perimeter (00134159)
100
AcDbLine
 10
0.0
 20
40.04969732993117
 30
0.0
 11
132.4087969638867
 21
116.4959519001045
 31
0.0
1001
AcDbBlockRepETag
1070
     1
1071
       13
1005
EB48
  0
LWPOLYLINE
  5
EB49
330
E90C
100
AcDbEntity
  8
MP Steel Framing Perimeter (00134159)
100
AcDbPolyline
 90
        4
 70
     0
 43
0.0
 10
167.0731624613017
 20
296.6436466504123
 10
167.1125108730475
 20
334.3776711370856
 10
134.4087958764885
 20
315.5416156396907
 10
142.0644338865577
 20
311.1109803325859
1001
AcDbBlockRepETag
1070
     1
1071
       14
1005
EB49
  0
LINE
  5
EB4A
330
E90C
100
AcDbEntity
  8
MP Steel Framing Perimeter (00134159)
100
AcDbLine
 10
167.1125108730484
 20
334.3776711370836
 30
0.0
 11
174.7681488831167
 21
329.9470358299808
 31
0.0
1001
AcDbBlockRepETag
1070
     1
1071
       15
1005
EB4A
  0
LWPOLYLINE
  5
EB4B
330
E90C
100
AcDbEntity
  8
MP Steel Framing Perimeter (00134159)
100
AcDbPolyline
 90
        4
 70
     0
 43
0.0
 10
175.7281978767623
 20
291.63461860526
 10
175.7687503903271
 20
330.5233430025018
 10
174.7681488831149
 20
329.9470358299812
 10
174.7288004713691
 20
292.2130113433107
1001
AcDbBlockRepETag
1070
     1
1071
       16
1005
EB4B
  0
LINE
  5
EB4C
330
E90C
100
AcDbEntity
  8
MP Steel Framing Perimeter (00134159)
100
AcDbLine
 10
175.7741673885312
 20
330.5264629807308
 30
0.0
 11
167.1448917142825
 21
335.5205827950127
 31
0.0
1001
AcDbBlockRepETag
1070
     1
1071
       17
1005
EB4C
  0
LINE
  5
EB4D
330
E90C
100
AcDbEntity
  8
MP Steel Framing Perimeter (00134159)
100
AcDbLine
 10
210.3041157030302
 20
270.4624487988464
 30
0.0
 11
132.4087969638858
 21
315.5437012052179
 31
0.0
1001
AcDbBlockRepETag
1070
     1
1071
       18
1005
EB4D
  0
LWPOLYLINE
  5
EB4E
330
E90C
100
AcDbEntity
  8
MP Steel Framing Perimeter (00134159)
100
AcDbPolyline
 90
        2
 70
     0
 43
0.0
 10
210.3053198048474
 20
271.6171487094173
 10
218.0628149889535
 20
276.0851612830335
1001
AcDbBlockRepETag
1070
     1
1071
       19
1005
EB4E
  0
LINE
  5
EB4F
330
E90C
100
AcDbEntity
  8
MP Steel Framing Perimeter (00134159)
100
AcDbLine
 10
210.3041157030302
 20
270.4624487988464
 30
0.0
 11
218.0628149889535
 21
274.9311548878222
 31
0.0
1001
AcDbBlockRepETag
1070
     1
1071
       20
1005
EB4F
  0
LINE
  5
EB50
330
E90C
100
AcDbEntity
  8
MP Steel Framing Perimeter (00134159)
100
AcDbLine
 10
210.3107368030542
 20
271.6202686876455
 30
0.0
 11
134.4142128746944
 21
315.5447356179187
 31
0.0
1001
AcDbBlockRepETag
1070
     1
1071
       21
1005
EB50
  0
LINE
  5
EB51
330
E90C
100
AcDbEntity
  8
MP Steel Framing Perimeter (00134159)
100
AcDbLine
 10
167.1137149748674
 20
335.5323710476546
 30
0.0
 11
132.408796963884
 21
315.5437012052173
 31
0.0
1001
AcDbBlockRepETag
1070
     1
1071
       22
1005
EB51
  0
LINE
  5
EB52
330
E90C
100
AcDbEntity
  8
MP Steel Framing Perimeter (00134159)
100
AcDbLine
 10
77.94228634059891
 20
-4.950302670068822
 30
0.0
 11
166.3426069074912
 21
46.0876462056745
 31
0.0
1001
AcDbBlockRepETag
1070
     1
1071
       23
1005
EB52
  0
LINE
  5
EB53
330
E90C
100
AcDbEntity
  8
MP Steel Framing Perimeter (00134159)
100
AcDbLine
 10
132.4087969638803
 20
315.5437012052179
 30
0.0
 11
132.4087969638876
 21
76.45250582074186
 31
0.0
1001
AcDbBlockRepETag
1070
     1
1071
       24
1005
EB53
  0
LINE
  5
EB54
330
E90C
100
AcDbEntity
  8
MP Steel Framing Perimeter (00134159)
100
AcDbLine
 10
132.4087969638876
 20
76.45250582074186
 30
0.0
 11
166.9995414587974
 21
56.55929465429392
 31
0.0
1001
AcDbBlockRepETag
1070
     1
1071
       25
1005
EB54
  0
SPLINE
  5
EB55
330
E90C
100
AcDbEntity
  8
MP Steel Framing Perimeter (00134159)
100
AcDbSpline
210
0.0
220
0.0
230
1.0
 70
     8
 71
     3
 72
     9
 73
     5
 74
     3
 42
0.0000000001
 43
0.0000000001
 44
0.00001
 12
-0.8660254037844435
 22
-0.4999999999999917
 32
0.0
 13
-0.8660254037844488
 23
-0.4999999999999825
 33
0.0
 40
0.0
 40
0.0
 40
0.0
 40
0.0
 40
6.517627704059722
 40
15.85781450498114
 40
15.85781450498114
 40
15.85781450498114
 40
15.85781450498114
 10
132.4087969638885
 20
116.495951900104
 30
0.0
 10
130.5273199091802
 20
115.4096806160941
 30
0.0
 10
129.8049099763435
 20
109.3803565409506
 30
0.0
 10
127.9435184037144
 20
103.9179221213809
 30
0.0
 10
125.2472387218176
 20
102.3612243212274
 30
0.0
 11
132.4087969638885
 21
116.495951900104
 31
0.0
 11
129.7410911254756
 21
110.5492875873633
 31
0.0
 11
125.2472387218176
 21
102.3612243212274
 31
0.0
1001
AcDbBlockRepETag
1070
     1
1071
       26
1005
EB55
  0
SPLINE
  5
EB56
330
E90C
100
AcDbEntity
  8
MP Steel Framing Perimeter (00134159)
100
AcDbSpline
210
0.0
220
0.0
230
1.0
 70
     8
 71
     3
 72
     9
 73
     5
 74
     3
 42
0.0000000001
 43
0.0000000001
 44
0.00001
 12
-0.8660254037844435
 22
-0.4999999999999917
 32
0.0
 13
-0.8660254037844488
 23
-0.4999999999999825
 33
0.0
 40
0.0
 40
0.0
 40
0.0
 40
0.0
 40
6.517627704059722
 40
15.85781450498114
 40
15.85781450498114
 40
15.85781450498114
 40
15.85781450498114
 10
132.4087969638876
 20
115.3412513617209
 30
0.0
 10
130.5273199091793
 20
114.2549800777109
 30
0.0
 10
129.8049099763426
 20
108.2256560025674
 30
0.0
 10
127.9435184037134
 20
102.7632215829977
 30
0.0
 10
125.2472387218167
 20
101.2065237828442
 30
0.0
 11
132.4087969638876
 21
115.3412513617209
 31
0.0
 11
129.7410911254746
 21
109.3945870489801
 31
0.0
 11
125.2472387218167
 21
101.2065237828442
 31
0.0
1001
AcDbBlockRepETag
1070
     1
1071
       27
1005
EB56
  0
ENDBLK
  5
E92A
330
E90C
100
AcDbEntity
  8
0
100
AcDbBlockEnd
  0
BLOCK
  5
FF3C
330
FF3B
100
AcDbEntity
  8
0
100
AcDbBlockBegin
  2
mp000096$0$_OBLIQUE
 70
     0
 10
0.0
 20
0.0
 30
0.0
  3
mp000096$0$_OBLIQUE
  1

  0
LINE
  5
FF3D
330
FF3B
100
AcDbEntity
  8
0
  6
ByBlock
 62
     0
100
AcDbLine
 10
-0.5
 20
-0.5
 30
0.0
 11
0.5
 21
0.5
 31
0.0
  0
ENDBLK
  5
FF3E
330
FF3B
100
AcDbEntity
  8
0
100
AcDbBlockEnd
  0
BLOCK
  5
FF40
330
FF3F
100
AcDbEntity
  8
0
100
AcDbBlockBegin
  2
mp000096$0$_DetailCallout
 70
     2
 10
0.0
 20
0.0
 30
0.0
  3
mp000096$0$_DetailCallout
  1

  0
CIRCLE
  5
FF41
330
FF3F
100
AcDbEntity
  8
0
  6
ByBlock
 62
     0
370
    -2
100
AcDbCircle
 10
0.0
 20
0.0
 30
0.0
 40
8.0
  0
LINE
  5
FF42
330
FF3F
100
AcDbEntity
  8
0
  6
ByBlock
 62
     0
370
    -2
100
AcDbLine
 10
8.0
 20
0.0
 30
0.0
 11
-8.0
 21
0.0
 31
0.0
  0
ATTDEF
  5
FF43
330
FF3F
100
AcDbEntity
  8
0
 62
     0
100
AcDbText
 10
-15.0
 20
1.0
 30
0.0
 40
3.0
  1
VIEWNUMBER
  7
mp000096$0$x01
 72
     1
 11
0.0
 21
1.0
 31
0.0
100
AcDbAttributeDefinition
  3
Enter view number
  2
VIEWNUMBER
 70
     0
280
     0
  0
ATTDEF
  5
FF45
330
FF3F
100
AcDbEntity
  8
0
 62
     0
100
AcDbText
 10
-16.0
 20
-6.0
 30
0.0
 40
3.0
  1
SHEETNUMBER
  7
mp000096$0$x01
 72
     1
 11
0.0
 21
-6.0
 31
0.0
100
AcDbAttributeDefinition
  3
Enter sheet number
  2
SHEETNUMBER
 70
     0
280
     0
  0
ENDBLK
  5
FF46
330
FF3F
100
AcDbEntity
  8
0
100
AcDbBlockEnd
  0
BLOCK
  5
10106
330
10105
100
AcDbEntity
  8
0
100
AcDbBlockBegin
  2
*U9
 70
     1
 10
0.0
 20
0.0
 30
0.0
  3
*U9
  1

  0
HATCH
  5
10108
102
{ACAD_XDICTIONARY
360
10109
102
}
330
10105
100
AcDbEntity
  8
MP Thermal Break Hatch (00134161) @ 10
100
AcDbHatch
 10
0.0
 20
0.0
 30
0.0
210
0.0
220
0.0
230
1.0
  2
NET3
 70
     0
 71
     0
 91
        3
 92
        7
 72
     0
 73
     1
 93
        4
 10
205.1026331509202
 20
548.7679908936986
 10
208.510098521233
 20
546.8037651045205
 10
368.7310898321712
 20
639.30739756772
 10
365.3236244618574
 20
641.271623356897
 97
        0
 92
      519
 72
     0
 73
     1
 93
        4
 10
208.5100985212321
 20
546.8037651045197
 10
205.1026331509202
 20
548.7679908936988
 10
205.1026331509202
 20
490.930603495212
 10
208.5100985212321
 20
490.9309683409348
 97
        0
 92
      519
 72
     0
 73
     1
 93
        4
 10
208.5100985212321
 20
490.9309683409349
 10
205.102633150921
 20
490.930603495212
 10
205.1026331509192
 20
423.7456952570641
 10
208.5100985212321
 20
426.222164806798
 97
        0
 75
     0
 76
     1
 52
45.0
 41
40.0
 77
     0
 78
     3
 53
45.0
 43
145.2128306352533
 44
493.106153727409
 45
-3.535533905932737
 46
3.535533905932737
 79
     0
 53
104.9999999999999
 43
145.2128306352533
 44
493.106153727409
 45
-4.829629131445341
 46
-1.294095225512602
 79
     0
 53
165.0
 43
145.2128306352533
 44
493.106153727409
 45
-1.294095225512605
 46
-4.82962913144534
 79
     0
 47
0.3889749591397679
 98
        3
 10
223.3308080631923
 20
557.4011642491877
 10
207.2921680183372
 20
543.1052180758415
 10
207.3812188275424
 20
473.3828695534511
1001
ACAD
1010
5862.191883591379
1020
708.981793689847
1030
0.0
1001
AcadNonAnnoHatchDecomposition
1000
AnnotativeData
1002
{
1070
     1
1070
     1
1002
}
  0
HATCH
  5
10115
102
{ACAD_XDICTIONARY
360
10116
102
}
330
10105
100
AcDbEntity
  8
MP Thermal Break Hatch (00134161) @ 1
100
AcDbHatch
 10
0.0
 20
0.0
 30
0.0
210
0.0
220
0.0
230
1.0
  2
NET3
 70
     0
 71
     0
 91
        3
 92
        7
 72
     0
 73
     1
 93
        4
 10
205.1026331509202
 20
548.7679908936986
 10
208.510098521233
 20
546.8037651045205
 10
368.7310898321712
 20
639.30739756772
 10
365.3236244618574
 20
641.271623356897
 97
        0
 92
      519
 72
     0
 73
     1
 93
        4
 10
208.5100985212321
 20
546.8037651045197
 10
205.1026331509202
 20
548.7679908936988
 10
205.1026331509202
 20
490.930603495212
 10
208.5100985212321
 20
490.9309683409348
 97
        0
 92
      519
 72
     0
 73
     1
 93
        4
 10
208.5100985212321
 20
490.9309683409349
 10
205.102633150921
 20
490.930603495212
 10
205.1026331509192
 20
423.7456952570641
 10
208.5100985212321
 20
426.222164806798
 97
        0
 75
     0
 76
     1
 52
45.0
 41
40.0
 77
     0
 78
     3
 53
45.0
 43
145.2128306352533
 44
493.106153727409
 45
-3.535533905932737
 46
3.535533905932737
 79
     0
 53
104.9999999999999
 43
145.2128306352533
 44
493.106153727409
 45
-4.829629131445341
 46
-1.294095225512602
 79
     0
 53
165.0
 43
145.2128306352533
 44
493.106153727409
 45
-1.294095225512605
 46
-4.82962913144534
 79
     0
 47
0.3889749591397679
 98
        3
 10
223.3308080631923
 20
557.4011642491877
 10
207.2921680183372
 20
543.1052180758415
 10
207.3812188275424
 20
473.3828695534511
1001
ACAD
1010
5862.191883591379
1020
708.981793689847
1030
0.0
1001
AcadNonAnnoHatchDecomposition
1000
AnnotativeData
1002
{
1070
     1
1070
     1
1002
}
  0
ENDBLK
  5
10107
330
10105
100
AcDbEntity
  8
0
100
AcDbBlockEnd
  0
ENDSEC
  0
SECTION
  2
ENTITIES
  0
LWPOLYLINE
  5
CE11
330
1F
100
AcDbEntity
  8
MP Timber Perimeter (00134144)
100
AcDbPolyline
 90
        3
 70
     0
 43
0.0
 10
59.10772928694314
 20
34.12586341500424
 10
0.0
 20
0.0
 10
-320.3299586464109
 20
184.9425878540073
  0
LINE
  5
CE12
330
1F
100
AcDbEntity
  8
MP Annotation (00134142)
100
AcDbLine
 10
11.51656560260198
 20
-6.649092250802823
 30
0.0
 11
83.1370403515848
 21
-47.99919262661638
 31
0.0
  0
LINE
  5
CE3C
330
1F
100
AcDbEntity
  8
MP Annotation (00134142)
100
AcDbLine
 10
110.4096064429341
 20
-47.96515602894456
 30
-0.0000000000000244
 11
74.55915539768921
 21
-68.66342359048687
 31
-0.0000000000000244
  0
LINE
  5
CE3D
330
1F
100
AcDbEntity
  8
MP Timber Perimeter (00134144)
100
AcDbLine
 10
148.8569789813427
 20
245.9426168856349
 30
0.0
 11
0.0
 21
160.0000000000023
 31
0.0
  0
LINE
  5
CF41
330
1F
100
AcDbEntity
  8
MP Annotation (00134142)
100
AcDbLine
 10
78.84809787463655
 20
-40.57052634580259
 30
0.0
 11
78.84809787463655
 21
-71.13964568409116
 31
0.0
  0
LINE
  5
CF42
330
1F
100
AcDbEntity
  8
MP Panel Perimeter Isometric(00134194)
100
AcDbLine
 10
191.5676142181373
 20
309.575162976002
 30
0.0
 11
191.5830245009956
 21
39.72516778430526
 31
0.0000000000000086
  0
LINE
  5
CF53
330
1F
100
AcDbEntity
  8
MP Timber Perimeter (00134144)
100
AcDbLine
 10
187.7237817950954
 20
175.3684015907122
 30
0.0
 11
191.5770777999223
 21
173.1437001050582
 31
0.0
  0
INSERT
  5
D24C
102
{ACAD_XDICTIONARY
360
FC2B
102
}
330
1F
100
AcDbEntity
  8
MP Flashings Perimeter Isometric (00134197)
100
AcDbBlockReference
  2
A$C076F0716
 10
123.2238035644859
 20
43.14899761107144
 30
-0.0000000000000031
  0
LINE
  5
D252
330
1F
100
AcDbEntity
  8
MP Panel Perimeter Isometric(00134194)
100
AcDbLine
 10
191.5830245009956
 20
39.72516778430503
 30
0.0000000000000086
 11
213.5753672133024
 21
27.31946974489105
 31
0.0000000000000086
  0
TEXT
  5
D2CA
102
{ACAD_XDICTIONARY
360
DB0F
102
}
330
1F
100
AcDbEntity
  8
MP Annotation (00134142) @ 10
100
AcDbText
 10
-7.488417234508233
 20
-108.3529091220571
 30
0.0
 40
20.0
  1
50mm
 50
33.0
 51
33.0
  7
2mm
100
AcDbText
1001
AcadAnnotative
1000
AnnotativeData
1002
{
1070
     1
1070
     0
1002
}
  0
TEXT
  5
D2CF
102
{ACAD_XDICTIONARY
360
DB14
102
}
330
1F
100
AcDbEntity
  8
MP Annotation (00134142) @ 10
100
AcDbText
 10
-7.488417234508233
 20
-139.6204506757621
 30
0.0
 40
20.0
  1
Min
 50
33.0
 51
33.0
  7
2mm
100
AcDbText
1001
AcadAnnotative
1000
AnnotativeData
1002
{
1070
     1
1070
     0
1002
}
  0
LINE
  5
D3F0
330
1F
100
AcDbEntity
  8
MP Panel Perimeter Isometric(00134194)
100
AcDbLine
 10
464.9689465081583
 20
447.8994300606977
 30
0.0
 11
465.0536590550327
 21
172.3417413090631
 31
0.0000000000000656
  0
LINE
  5
D3FF
330
1F
100
AcDbEntity
  8
MP Timber Perimeter (00134144)
100
AcDbLine
 10
146.1617144427582
 20
224.3865051787439
 30
0.0
 11
0.0
 21
139.9999999999995
 31
0.0
  0
LINE
  5
D400
330
1F
100
AcDbEntity
  8
MP Timber Perimeter (00134144)
100
AcDbLine
 10
0.0
 20
139.9999999999995
 30
0.0
 11
-320.3299586464118
 21
324.9425878540074
 31
0.0
  0
LINE
  5
D402
330
1F
100
AcDbEntity
  8
MP Timber Perimeter (00134144)
100
AcDbLine
 10
-320.3299586464118
 20
344.9425878540073
 30
0.0
 11
0.0
 21
160.0
 31
0.0
  0
LINE
  5
D403
330
1F
100
AcDbEntity
  8
MP Timber Perimeter (00134144)
100
AcDbLine
 10
0.0
 20
160.0
 30
0.0
 11
0.0
 21
0.0
 31
0.0
  0
HATCH
  5
D837
330
1F
100
AcDbEntity
  8
MP Panel Hatch (00134149)
100
AcDbHatch
 10
0.0
 20
0.0
 30
0.0
210
0.0
220
0.0
230
1.0
  2
AR-CONC
 70
     0
 71
     0
 91
        2
 92
        7
 72
     1
 73
     1
 93
        8
 10
464.9689465081583
 20
447.8994300606977
 42
0.0
 10
421.6676763189362
 20
472.8994300606977
 42
0.0516397219123419
 10
386.8099927323874
 20
463.406864175459
 42
0.1314064060434517
 10
310.7619955663768
 20
406.3665224695368
 42
0.057136349479261
 10
290.2696705669441
 20
372.074194080578
 42
-0.2716993729313848
 10
191.5676142181373
 20
309.575162976002
 42
0.0
 10
234.8688844073586
 20
284.575162976002
 42
0.320929631039587
 10
343.3984511514554
 20
367.8528285324085
 42
-0.2173556892991237
 97
        0
 92
        7
 72
     0
 73
     1
 93
        5
 10
234.8688844073604
 20
284.575162976002
 10
191.5676142181364
 20
309.5751629760023
 10
191.5830245009947
 20
39.7251677843054
 10
213.723239755408
 20
27.23605607088269
 10
234.6219880487524
 20
39.30195402377094
 97
        0
 75
     0
 76
     1
 52
0.0
 41
5.0
 77
     0
 78
    13
 53
50.0
 43
-5716.979052956126
 44
-215.8756399624381
 45
35.86300913003768
 46
-3.137606749129755
 79
     2
 49
3.75
 49
-41.25
 53
355.0
 43
-5716.979052956126
 44
-215.8756399624381
 45
-6.93756668065
 46
37.6096066850006
 79
     2
 49
3.0
 49
-33.0
 53
100.4514
 43
-5713.990468956126
 44
-216.137106962438
 45
28.92546908570108
 46
34.47197710304768
 79
     2
 49
3.1870095
 49
-35.0571056
 53
46.1842
 43
-5716.979052956126
 44
-205.875639962438
 45
53.36205243128222
 46
-8.275950716450903
 79
     2
 49
5.625
 49
-61.875
 53
96.6356
 43
-5712.532215706126
 44
-206.5653053124381
 45
46.73313527743516
 46
48.70589354502208
 79
     2
 49
4.780514399999999
 49
-52.58565
 53
351.1842000000001
 43
-5716.979052956126
 44
-205.875639962438
 45
46.73309725668135
 46
48.70593004626623
 79
     2
 49
4.5
 49
-49.5
 53
21.0
 43
-5711.979052956126
 44
-208.375639962438
 45
29.84535260592308
 46
-20.13094453326694
 79
     2
 49
3.75
 49
-41.25
 53
326.0
 43
-5711.979052956126
 44
-208.375639962438
 45
12.16576659607908
 46
36.25750225234265
 79
     2
 49
3.0
 49
-33.0
 53
71.45140000000001
 43
-5709.491941306126
 44
-210.053220262438
 45
42.01113142907449
 46
16.12652483549762
 79
     2
 49
3.1870095
 49
-35.0571056
 53
37.5
 43
-5716.979052956126
 44
-215.8756399624381
 45
0.6079927658645335
 46
16.64469269156557
 79
     6
 49
0.0
 49
-32.6
 49
0.0
 49
-33.5
 49
0.0
 49
-33.125
 53
7.499999999999999
 43
-5716.979052956126
 44
-215.8756399624381
 45
13.15347687210743
 46
19.72058559411801
 79
     6
 49
0.0
 49
-19.1
 49
0.0
 49
-31.85
 49
0.0
 49
-12.625
 53
327.5
 43
-5728.129052956126
 44
-215.8756399624381
 45
26.69112180862045
 46
-1.127743586718989
 79
     6
 49
0.0
 49
-12.5
 49
0.0
 49
-39.0
 49
0.0
 49
-51.75
 53
317.5
 43
-5733.129052956126
 44
-215.8756399624381
 45
29.15930846711931
 46
5.005249116615882
 79
     6
 49
0.0
 49
-16.25
 49
0.0
 49
-25.9
 49
0.0
 49
-36.75
 47
0.7040971872666751
 98
        2
 10
324.9955860323325
 20
380.5087370470042
 10
210.1621460463575
 20
225.6073575845007
1001
ACAD
1010
0.0
1020
0.0
1030
0.0
  0
INSERT
  5
D86D
330
1F
100
AcDbEntity
  8
MP Flashings Perimeter Isometric (00134197)
100
AcDbBlockReference
  2
A$C3BA61CEA
 10
93.62138114449408
 20
4.873451460205274
 30
-0.0000000000000089
 41
-1.0
  0
LINE
  5
D9B2
330
1F
100
AcDbEntity
  8
MP Panel Perimeter Isometric(00134194)
100
AcDbLine
 10
234.8688844073604
 20
284.5751629760017
 30
0.0
 11
234.8688844073604
 21
39.44449970287562
 31
0.0
  0
LINE
  5
DDB1
330
1F
100
AcDbEntity
  8
MP Timber Perimeter (00134144)
100
AcDbLine
 10
202.1331173860708
 20
391.1801441825701
 30
0.0
 11
229.956715337652
 21
407.6707332405939
 31
0.0
  0
ARC
  5
DDB2
330
1F
100
AcDbEntity
  8
MP Timber Inner (00134145)
100
AcDbCircle
 10
184.1462427925453
 20
425.1654096123588
 30
0.0
 40
31.74995197248394
100
AcDbArc
 50
289.8651883693018
 51
340.7014195300977
  0
LWPOLYLINE
  5
DDB6
330
1F
100
AcDbEntity
  8
MP Timber Perimeter (00134144)
100
AcDbPolyline
 90
        3
 70
     0
 43
0.0
 10
202.1331173860717
 20
310.676172911324
 10
202.1331173860708
 20
391.1801441825701
 10
187.7237817950954
 20
399.4370115732072
  0
ARC
  5
DDB7
330
1F
100
AcDbEntity
  8
MP Timber Inner (00134145)
100
AcDbCircle
 10
192.3215668600578
 20
421.1744704399961
 30
0.0
 40
31.74995197248391
100
AcDbArc
 50
314.6656138674481
 51
343.2237452777696
  0
LINE
  5
E0A1
330
1F
100
AcDbEntity
  8
MP Panel Perimeter Isometric(00134194)
100
AcDbLine
 10
421.6676763189362
 20
472.8994300606977
 30
0.0
 11
464.9689465081583
 21
447.8994300606977
 31
0.0
  0
LINE
  5
E0A4
330
1F
100
AcDbEntity
  8
MP Panel Perimeter Isometric(00134194)
100
AcDbLine
 10
234.8688844073586
 20
284.575162976002
 30
0.0
 11
191.5676142181373
 21
309.575162976002
 31
0.0
  0
SPLINE
  5
E0AE
330
1F
100
AcDbEntity
  8
MP Panel Perimeter Isometric(00134194)
100
AcDbSpline
210
0.0
220
0.0
230
1.0
 70
     8
 71
     3
 72
    11
 73
     7
 74
     5
 42
0.0000000001
 43
0.0000000001
 44
0.00001
 12
-0.9910301021992443
 22
-0.1336388286949403
 32
0.0
 13
-0.9982768955007593
 23
-0.0586791266922584
 33
0.0
 40
0.0
 40
0.0
 40
0.0
 40
0.0
 40
73.57913868989808
 40
147.1582856978668
 40
196.3518843538648
 40
291.5692657421895
 40
291.5692657421895
 40
291.5692657421895
 40
291.5692657421895
 10
464.9689465081583
 20
447.8994300606977
 30
0.0
 10
440.6625660629642
 20
444.6217534237309
 30
0.0
 10
392.8419372501227
 20
426.3583392551836
 30
0.0
 10
347.2162716212817
 20
376.6221297290846
 30
0.0
 10
318.5785602520003
 20
308.5894691877504
 30
0.0
 10
266.5533217040433
 20
286.4375872379312
 30
0.0
 10
234.8688844073604
 20
284.575162976001
 30
0.0
 11
464.9689465081583
 21
447.8994300606977
 31
0.0
 11
396.2484128426349
 21
421.6053503532882
 31
0.0
 11
346.0034452057662
 21
367.8528285324109
 31
0.0
 11
320.7891526310996
 21
325.6124508860639
 31
0.0
 11
234.8688844073604
 21
284.575162976001
 31
0.0
  0
SPLINE
  5
E0AF
330
1F
100
AcDbEntity
  8
MP Panel Perimeter Isometric(00134194)
100
AcDbSpline
210
0.0
220
0.0
230
1.0
 70
     8
 71
     3
 72
    11
 73
     7
 74
     5
 42
0.0000000001
 43
0.0000000001
 44
0.00001
 12
-0.9910301021992443
 22
-0.1336388286949403
 32
0.0
 13
-0.9982768955007593
 23
-0.0586791266922584
 33
0.0
 40
0.0
 40
0.0
 40
0.0
 40
0.0
 40
73.42008699988169
 40
147.1241755282018
 40
196.2022299875335
 40
290.9368213582648
 40
290.9368213582648
 40
290.9368213582648
 40
290.9368213582648
 10
421.6676763189362
 20
472.8994300606977
 30
0.0
 10
397.4138375446128
 20
469.6288385842495
 30
0.0
 10
350.7127910236089
 20
449.7045580043113
 30
0.0
 10
302.1289409321604
 20
402.9842540478435
 30
0.0
 10
274.7560333553705
 20
334.3199494482913
 30
0.0
 10
223.0913988081738
 20
311.4281440057285
 30
0.0
 10
191.5676142181382
 20
309.575162976001
 30
0.0
 11
421.6676763189362
 21
472.8994300606977
 31
0.0
 11
353.3605217177292
 21
445.9802441519351
 31
0.0
 11
301.4188943374875
 21
393.689140525551
 31
0.0
 11
276.5923585647188
 21
351.353596468576
 31
0.0
 11
191.5676142181382
 21
309.575162976001
 31
0.0
  0
LINE
  5
E0C5
330
1F
100
AcDbEntity
  8
MP Timber Perimeter (00134144)
100
AcDbLine
 10
229.956715337652
 20
318.1001441039088
 30
0.0
 11
229.956715337652
 21
407.6707332405939
 31
0.0
  0
LINE
  5
E0C6
330
1F
100
AcDbEntity
  8
MP Timber Perimeter (00134144)
100
AcDbLine
 10
229.956715337652
 20
407.6707332405939
 30
0.0
 11
216.2361973743027
 21
415.8986623831069
 31
0.0
  0
LINE
  5
E0C7
330
1F
100
AcDbEntity
  8
MP Timber Perimeter (00134144)
100
AcDbLine
 10
216.2361973743027
 20
415.8986623831069
 30
0.0
 11
187.7237817950954
 21
399.4370115732072
 31
0.0
  0
LINE
  5
E0C8
330
1F
100
AcDbEntity
  8
MP Timber Perimeter (00134144)
100
AcDbLine
 10
187.7237817950954
 20
399.4370115732072
 30
0.0
 11
187.7237817950954
 21
175.3684015907122
 31
0.0
  0
LWPOLYLINE
  5
E594
330
1F
100
AcDbEntity
  8
MP Thermal Break Perimeter Isometric (00134193)
100
AcDbPolyline
 90
        4
 70
     0
 43
0.0
 10
368.731089832173
 20
639.3073975677207
 10
368.731089832173
 20
639.3073975677207
 10
368.731089832173
 20
639.3073975677207
 10
368.731089832173
 20
601.1241549587686
  0
LWPOLYLINE
  5
E595
330
1F
100
AcDbEntity
  8
MP Thermal Break Perimeter Isometric (00134193)
100
AcDbPolyline
 90
        6
 70
     0
 43
0.0
 10
205.1026331509202
 20
423.7456952570641
 10
205.1026331509202
 20
548.7679908936988
 10
365.3236244618583
 20
641.2716233568971
 10
368.7310898321721
 20
639.3073975677197
 10
208.5100985212321
 20
546.8037651045201
 10
208.5100985212321
 20
426.222164806798
  0
HATCH
  5
E61C
330
1F
100
AcDbEntity
  8
MP Dryfix DPC Hatch (00134182)
100
AcDbHatch
 10
0.0
 20
0.0
 30
0.0
210
0.0
220
0.0
230
1.0
  2
ANSI31
 70
     0
 71
     0
 91
        1
 92
        7
 72
     0
 73
     1
 93
        4
 10
-8.47601246339309
 20
239.9323547052066
 10
-37.32474907659071
 20
223.2765288557967
 10
36.13336788936886
 20
180.8654652513378
 10
64.98210450256556
 20
197.5212911007474
 97
        0
 75
     0
 76
     1
 52
105.0
 41
50.0
 77
     0
 78
     1
 53
150.0
 43
-37.32474907659071
 44
180.8654652513379
 45
-3.125
 46
-5.412658773652741
 79
     0
 47
0.7870292833737289
 98
        1
 10
40.42938740952649
 20
206.4923562272168
1001
ACAD
1010
0.0
1020
0.0
1030
0.0
  0
LINE
  5
E6A7
330
1F
100
AcDbEntity
  8
MP Thermal Break Perimeter Isometric (00134193)
100
AcDbLine
 10
208.5100985212321
 20
546.8037651045201
 30
0.0
 11
205.1026331509202
 21
548.7679908936988
 31
0.0
  0
LWPOLYLINE
  5
E725
330
1F
100
AcDbEntity
  8
MP Barricade Building Wrap Perimeter Isometric (00134183)
100
AcDbPolyline
 90
       11
 70
     0
 43
0.0
 10
131.4632133098675
 20
142.8863472310047
 10
131.4632133098675
 20
142.8863472310047
 42
0.0667027264950964
 10
155.131405166182
 20
385.2610033853077
 42
-0.2484857268373207
 10
156.7777328196371
 20
388.6242395242978
 10
297.9164877084722
 20
491.2007269670889
 42
0.2326028204397033
 10
349.1274845936714
 20
579.9007754785057
 42
-0.243223095647112
 10
368.731089832173
 20
601.1241549587686
 42
-0.0871876409371541
 10
379.4535078897307
 20
603.0082015581991
 42
-0.0359731869435258
 10
383.9619117754837
 20
602.6834179537868
 42
-0.3726871204534021
 10
387.388570461434
 20
598.724721231682
 10
387.388570461435
 20
463.8261807552671
  0
HATCH
  5
E847
330
1F
100
AcDbEntity
  8
MP Thermal Break Hatch (00134161)
100
AcDbHatch
 10
0.0
 20
0.0
 30
0.0
210
0.0
220
0.0
230
1.0
  2
DOTS
 70
     0
 71
     0
 91
        1
 92
        7
 72
     1
 73
     1
 93
        6
 10
349.1274845936714
 20
579.9007754785057
 42
-0.243223095647112
 10
368.731089832173
 20
601.1241549587686
 42
0.0
 10
368.731089832173
 20
639.3073975677199
 42
0.0
 10
208.5100985212321
 20
546.8037651045199
 42
0.0
 10
208.510098521233
 20
426.222164806798
 42
0.0
 10
297.9164877084722
 20
491.2007269670889
 42
0.2326028204397033
 97
        0
 75
     0
 76
     1
 52
0.0
 41
120.0
 77
     0
 78
     1
 53
0.0
 43
221.911274044056
 44
712.8005263037784
 45
3.75
 46
7.5
 79
     2
 49
0.0
 49
-7.5
 47
0.6262965873094376
 98
        1
 10
284.8173751303402
 20
529.1064570584203
1001
ACAD
1010
5938.890327000182
1020
928.6761662662165
1030
0.0
  0
LINE
  5
EBBC
330
1F
100
AcDbEntity
  8
MP Dryfix DPC Perimeter Isometric (00134196)
100
AcDbLine
 10
-37.32474907659071
 20
223.2765288557969
 30
0.0
 11
-8.47601246339218
 21
239.9323547052066
 31
0.0
  0
LINE
  5
EBBF
330
1F
100
AcDbEntity
  8
MP Dryfix DPC Perimeter Isometric (00134196)
100
AcDbLine
 10
64.98210450256647
 20
197.5212911007475
 30
0.0
 11
36.13336788936886
 21
180.8654652513378
 31
0.0
  0
LINE
  5
EBC0
330
1F
100
AcDbEntity
  8
MP Dryfix DPC Perimeter Isometric (00134196)
100
AcDbLine
 10
36.13336788936886
 20
180.8654652513378
 30
0.0
 11
-37.32474907659071
 21
223.2765288557969
 31
0.0
  0
HATCH
  5
F5AF
330
1F
100
AcDbEntity
  8
MP Barricade Building Wrap Hatch (00134140
100
AcDbHatch
 10
0.0
 20
0.0
 30
0.0
210
0.0
220
0.0
230
1.0
  2
ANSI31
 70
     0
 71
     0
 91
        1
 92
        7
 72
     1
 73
     1
 93
       15
 10
187.7237817950945
 20
399.4370115732069
 42
0.0
 10
216.2361973743018
 20
415.8986623831069
 42
0.0
 10
229.9567153376529
 20
407.6707332405939
 42
0.0
 10
229.956715337652
 20
318.1001441039088
 42
0.2213415437817512
 10
293.6596603588978
 20
380.9801400564588
 42
-0.1761407237251651
 10
387.388570461435
 20
463.8261807552671
 42
0.0
 10
387.388570461434
 20
598.724721231682
 42
0.3726871204535835
 10
383.9619117754837
 20
602.6834179537868
 42
0.1235483270011503
 10
368.731089832173
 20
601.1241549587686
 42
0.2432230956446387
 10
349.1274845936714
 20
579.9007754785057
 42
-0.2326028204397039
 10
297.9164877084722
 20
491.2007269670889
 42
-0.000479869272407
 10
156.7777328196371
 20
388.6242395242978
 42
0.3373913153836545
 10
155.131405166182
 20
385.2610033853077
 42
-0.0667027264950962
 10
131.4632133098675
 20
142.8863472310047
 42
0.0
 10
187.7237817950972
 20
175.3684015907127
 42
0.0
 97
        0
 75
     0
 76
     1
 52
0.0
 41
100.0
 77
     0
 78
     1
 53
45.0
 43
-53208.44874680874
 44
175.3684015907127
 45
-8.838834764831842
 46
8.838834764831844
 79
     0
 47
1.508330922228785
 98
        1
 10
172.4600337523161
 20
278.2718167984021
1001
ACAD
1010
6904.05056706104
1020
390.8674546266403
1030
0.0
  0
LINE
  5
FF96
330
1F
100
AcDbEntity
  8
MP Steel Framing Perimeter (00134159)
100
AcDbLine
 10
197.3439338649941
 20
512.9837398995939
 30
0.0
 11
197.3439338649932
 21
418.1068463065957
 31
0.0
1001
AcDbBlockRepETag
1070
     1
1071
        0
1005
FF96
  0
LINE
  5
FF97
330
1F
100
AcDbEntity
  8
MP Steel Framing Perimeter (00134159)
100
AcDbLine
 10
112.2870568837816
 20
343.727814883592
 30
0.0
 11
-4.299927800191653
 21
276.4162878922958
 31
0.0
1001
AcDbBlockRepETag
1070
     1
1071
        1
1005
FF97
  0
LINE
  5
FF98
330
1F
100
AcDbEntity
  8
MP Steel Framing Perimeter (00134159)
100
AcDbLine
 10
63.98210450256556
 20
236.9936381614868
 30
0.0
 11
63.98210450256465
 21
199.2533419083158
 31
0.0
1001
AcDbBlockRepETag
1070
     1
1071
        2
1005
FF98
  0
LINE
  5
FF99
330
1F
100
AcDbEntity
  8
MP Steel Framing Perimeter (00134159)
100
AcDbLine
 10
63.98210450256283
 20
236.9936381614868
 30
0.0
 11
56.32185046471931
 21
241.416287892297
 31
0.0
1001
AcDbBlockRepETag
1070
     1
1071
        3
1005
FF99
  0
LWPOLYLINE
  5
FF9A
330
1F
100
AcDbEntity
  8
MP Steel Framing Perimeter (00134159)
100
AcDbPolyline
 90
        3
 70
     0
 43
0.0
 10
154.0338817587244
 20
298.9850560013325
 10
56.32185046471931
 20
242.5709884306754
 10
56.32185046472023
 20
241.4162878922958
1001
AcDbBlockRepETag
1070
     1
1071
        4
1005
FF9A
  0
LINE
  5
FF9B
330
1F
100
AcDbEntity
  8
MP Steel Framing Perimeter (00134159)
100
AcDbLine
 10
56.32185046471931
 20
242.5772396812455
 30
0.0
 11
64.95632922931054
 21
237.5921210421963
 31
0.0
1001
AcDbBlockRepETag
1070
     1
1071
        5
1005
FF9B
  0
LINE
  5
FF9C
330
1F
100
AcDbEntity
  8
MP Steel Framing Perimeter (00134159)
100
AcDbLine
 10
-12.96018183803608
 20
242.5212911007476
 30
0.0
 11
64.98210450256284
 21
197.5212911007476
 31
0.0
1001
AcDbBlockRepETag
1070
     1
1071
        6
1005
FF9C
  0
LWPOLYLINE
  5
FF9D
330
1F
100
AcDbEntity
  8
MP Steel Framing Perimeter (00134159)
100
AcDbPolyline
 90
        5
 70
     0
 43
0.0
 10
-11.96018183803426
 20
243.0986413699351
 10
-11.96018183803517
 20
280.8389376231072
 10
-4.299927800191653
 20
276.416287892297
 10
-4.299927800190744
 20
277.5709884306799
 10
-12.96018183803699
 20
282.5709884306776
1001
AcDbBlockRepETag
1070
     1
1071
        7
1005
FF9D
  0
LINE
  5
FF9E
330
1F
100
AcDbEntity
  8
MP Steel Framing Perimeter (00134159)
100
AcDbLine
 10
-12.96018183803608
 20
242.5212911007476
 30
0.0
 11
-12.96018183803426
 21
282.5709884306771
 31
0.0
1001
AcDbBlockRepETag
1070
     1
1071
        8
1005
FF9E
  0
LINE
  5
FF9F
330
1F
100
AcDbEntity
  8
MP Steel Framing Perimeter (00134159)
100
AcDbLine
 10
-11.96018183803698
 20
243.1048926205075
 30
0.0
 11
63.98210450256283
 21
199.259593158887
 31
0.0
1001
AcDbBlockRepETag
1070
     1
1071
        9
1005
FF9F
  0
LINE
  5
FFA0
330
1F
100
AcDbEntity
  8
MP Steel Framing Perimeter (00134159)
100
AcDbLine
 10
64.98210450256284
 20
237.5709884306765
 30
0.0
 11
64.98210450256374
 21
197.5212911007453
 31
0.0
1001
AcDbBlockRepETag
1070
     1
1071
       10
1005
FFA0
  0
LINE
  5
FFA1
330
1F
100
AcDbEntity
  8
MP Steel Framing Perimeter (00134159)
100
AcDbLine
 10
112.2870568837825
 20
344.8825154219768
 30
0.0
 11
-4.299927800190744
 21
277.5709884306801
 31
0.0
1001
AcDbBlockRepETag
1070
     1
1071
       11
1005
FFA1
  0
LINE
  5
FFA2
330
1F
100
AcDbEntity
  8
MP Steel Framing Perimeter (00134159)
100
AcDbLine
 10
119.4486151258506
 20
318.97379692149
 30
0.0
 11
-11.96018183803698
 21
243.1048926205075
 31
0.0
1001
AcDbBlockRepETag
1070
     1
1071
       12
1005
FFA2
  0
LINE
  5
FFA3
330
1F
100
AcDbEntity
  8
MP Steel Framing Perimeter (00134159)
100
AcDbLine
 10
-12.96018183803608
 20
282.5709884306787
 30
0.0
 11
119.4486151258506
 21
359.0172430008521
 31
0.0
1001
AcDbBlockRepETag
1070
     1
1071
       13
1005
FFA3
  0
LWPOLYLINE
  5
FFA4
330
1F
100
AcDbEntity
  8
MP Steel Framing Perimeter (00134159)
100
AcDbPolyline
 90
        4
 70
     0
 43
0.0
 10
154.1129806232657
 20
539.1649377511599
 10
154.1523290350114
 20
576.8989622378332
 10
121.4486140384524
 20
558.0629067404382
 10
129.1042520485216
 20
553.6322714333334
1001
AcDbBlockRepETag
1070
     1
1071
       14
1005
FFA4
  0
LINE
  5
FFA5
330
1F
100
AcDbEntity
  8
MP Steel Framing Perimeter (00134159)
100
AcDbLine
 10
154.1523290350123
 20
576.8989622378311
 30
0.0
 11
161.8079670450806
 21
572.4683269307283
 31
0.0
1001
AcDbBlockRepETag
1070
     1
1071
       15
1005
FFA5
  0
LWPOLYLINE
  5
FFA6
330
1F
100
AcDbEntity
  8
MP Steel Framing Perimeter (00134159)
100
AcDbPolyline
 90
        4
 70
     0
 43
0.0
 10
162.7680160387263
 20
534.1559097060076
 10
162.808568552291
 20
573.0446341032493
 10
161.8079670450788
 20
572.4683269307288
 10
161.768618633333
 20
534.7343024440582
1001
AcDbBlockRepETag
1070
     1
1071
       16
1005
FFA6
  0
LINE
  5
FFA7
330
1F
100
AcDbEntity
  8
MP Steel Framing Perimeter (00134159)
100
AcDbLine
 10
162.8139855504951
 20
573.0477540814783
 30
0.0
 11
154.1847098762464
 21
578.0418738957603
 31
0.0
1001
AcDbBlockRepETag
1070
     1
1071
       17
1005
FFA7
  0
LINE
  5
FFA8
330
1F
100
AcDbEntity
  8
MP Steel Framing Perimeter (00134159)
100
AcDbLine
 10
197.3439338649941
 20
512.9837398995939
 30
0.0
 11
119.4486151258497
 21
558.0649923059654
 31
0.0
1001
AcDbBlockRepETag
1070
     1
1071
       18
1005
FFA8
  0
LWPOLYLINE
  5
FFA9
330
1F
100
AcDbEntity
  8
MP Steel Framing Perimeter (00134159)
100
AcDbPolyline
 90
        2
 70
     0
 43
0.0
 10
197.3451379668113
 20
514.1384398101648
 10
205.1026331509174
 20
518.606452383781
1001
AcDbBlockRepETag
1070
     1
1071
       19
1005
FFA9
  0
LINE
  5
FFAA
330
1F
100
AcDbEntity
  8
MP Steel Framing Perimeter (00134159)
100
AcDbLine
 10
197.3439338649941
 20
512.9837398995939
 30
0.0
 11
205.1026331509174
 21
517.4524459885698
 31
0.0
1001
AcDbBlockRepETag
1070
     1
1071
       20
1005
FFAA
  0
LINE
  5
FFAB
330
1F
100
AcDbEntity
  8
MP Steel Framing Perimeter (00134159)
100
AcDbLine
 10
197.3505549650181
 20
514.1415597883931
 30
0.0
 11
121.4540310366583
 21
558.0660267186662
 31
0.0
1001
AcDbBlockRepETag
1070
     1
1071
       21
1005
FFAB
  0
LINE
  5
FFAC
330
1F
100
AcDbEntity
  8
MP Steel Framing Perimeter (00134159)
100
AcDbLine
 10
154.1535331368313
 20
578.0536621484022
 30
0.0
 11
119.4486151258479
 21
558.0649923059649
 31
0.0
1001
AcDbBlockRepETag
1070
     1
1071
       22
1005
FFAC
  0
LINE
  5
FFAD
330
1F
100
AcDbEntity
  8
MP Steel Framing Perimeter (00134159)
100
AcDbLine
 10
64.98210450256284
 20
237.5709884306788
 30
0.0
 11
153.3824250694551
 21
288.6089373064221
 31
0.0
1001
AcDbBlockRepETag
1070
     1
1071
       23
1005
FFAD
  0
LINE
  5
FFAE
330
1F
100
AcDbEntity
  8
MP Steel Framing Perimeter (00134159)
100
AcDbLine
 10
119.4486151258443
 20
558.0649923059654
 30
0.0
 11
119.4486151258516
 21
318.9737969214895
 31
0.0
1001
AcDbBlockRepETag
1070
     1
1071
       24
1005
FFAE
  0
LINE
  5
FFAF
330
1F
100
AcDbEntity
  8
MP Steel Framing Perimeter (00134159)
100
AcDbLine
 10
119.4486151258516
 20
318.9737969214895
 30
0.0
 11
154.0393596207614
 21
299.0805857550415
 31
0.0
1001
AcDbBlockRepETag
1070
     1
1071
       25
1005
FFAF
  0
SPLINE
  5
FFB0
330
1F
100
AcDbEntity
  8
MP Steel Framing Perimeter (00134159)
100
AcDbSpline
210
0.0
220
0.0
230
1.0
 70
     8
 71
     3
 72
     9
 73
     5
 74
     3
 42
0.0000000001
 43
0.0000000001
 44
0.00001
 12
-0.8660254037844435
 22
-0.4999999999999917
 32
0.0
 13
-0.8660254037844488
 23
-0.4999999999999825
 33
0.0
 40
0.0
 40
0.0
 40
0.0
 40
0.0
 40
6.517625668850777
 40
15.85781371357604
 40
15.85781371357604
 40
15.85781371357604
 40
15.85781371357604
 10
119.4486151258525
 20
359.0172430008516
 30
0.0
 10
117.5671386586583
 20
357.9309720560432
 30
0.0
 10
116.8447103317683
 20
351.9016568568445
 30
0.0
 10
114.9833369247335
 20
346.4392134294291
 30
0.0
 10
112.2870568837816
 20
344.882515421975
 30
0.0
 11
119.4486151258525
 21
359.0172430008516
 31
0.0
 11
116.7809092874395
 21
353.0705786881109
 31
0.0
 11
112.2870568837816
 21
344.882515421975
 31
0.0
1001
AcDbBlockRepETag
1070
     1
1071
       26
1005
FFB0
  0
SPLINE
  5
FFB1
330
1F
100
AcDbEntity
  8
MP Steel Framing Perimeter (00134159)
100
AcDbSpline
210
0.0
220
0.0
230
1.0
 70
     8
 71
     3
 72
     9
 73
     5
 74
     3
 42
0.0000000001
 43
0.0000000001
 44
0.00001
 12
-0.8660254037844435
 22
-0.4999999999999917
 32
0.0
 13
-0.8660254037844488
 23
-0.4999999999999825
 33
0.0
 40
0.0
 40
0.0
 40
0.0
 40
0.0
 40
6.517625668850777
 40
15.85781371357604
 40
15.85781371357604
 40
15.85781371357604
 40
15.85781371357604
 10
119.4486151258516
 20
357.8625424624685
 30
0.0
 10
117.5671386586574
 20
356.77627151766
 30
0.0
 10
116.8447103317674
 20
350.7469563184614
 30
0.0
 10
114.9833369247326
 20
345.284512891046
 30
0.0
 10
112.2870568837807
 20
343.7278148835918
 30
0.0
 11
119.4486151258516
 21
357.8625424624685
 31
0.0
 11
116.7809092874386
 21
351.9158781497278
 31
0.0
 11
112.2870568837807
 21
343.7278148835918
 31
0.0
1001
AcDbBlockRepETag
1070
     1
1071
       27
1005
FFB1
  0
MTEXT
  5
FFB3
330
1F
100
AcDbEntity
  8
MP Annotation (00134142)
100
AcDbMText
 10
-444.0421938098479
 20
501.0699404798174
 30
0.0
 40
20.0
 41
434.5674612126731
 46
0.0
 71
     3
 72
     5
  1
Thermal break
  7
2mm
 73
     1
 44
1.0
1001
ACAD_MLEADERVER
1070
     2
  0
LINE
  5
FFB4
330
1F
100
AcDbEntity
  8
MP Annotation (00134142)
100
AcDbLine
 10
-22.53565470876129
 20
490.9062297021912
 30
0.0
 11
-424.0421938098479
 21
490.9062297021912
 31
0.0
1001
ACAD_MLEADERVER
1070
     2
  0
LWPOLYLINE
  5
FFB5
330
1F
100
AcDbEntity
  8
MP Annotation (00134142)
100
AcDbPolyline
 90
        2
 70
     0
 43
0.0
 10
221.1332761931902
 20
490.932319935707
 10
-22.53565470876129
 20
490.9062297021912
1001
ACAD_MLEADERVER
1070
     2
  0
SOLID
  5
FFB6
330
1F
100
AcDbEntity
  8
MP Annotation (00134142)
100
AcDbTrace
 10
221.1325623767489
 20
497.5989865641587
 30
0.0
 11
261.1332759638999
 21
490.9366028343547
 31
0.0
 12
221.1339900096314
 22
484.2656533072554
 32
0.0
 13
221.1339900096314
 23
484.2656533072554
 33
0.0
1001
ACAD_MLEADERVER
1070
     2
  0
MTEXT
  5
FFB7
330
1F
100
AcDbEntity
  8
MP Annotation (00134142)
100
AcDbMText
 10
-444.0421938098479
 20
220.0605145273346
 30
0.0
 40
20.0
 41
168.1708381672979
 46
0.0
 71
     3
 72
     5
  1
MASONS Dryfix DPC
  7
2mm
 73
     1
 44
1.0
1001
ACAD_MLEADERVER
1070
     2
  0
LINE
  5
FFB8
330
1F
100
AcDbEntity
  8
MP Annotation (00134142)
100
AcDbLine
 10
-233.1581404939598
 20
207.1205418124641
 30
0.0
 11
-424.0421938098479
 21
207.1205418124641
 31
0.0
1001
ACAD_MLEADERVER
1070
     2
  0
LWPOLYLINE
  5
FFB9
330
1F
100
AcDbEntity
  8
MP Annotation (00134142)
100
AcDbPolyline
 90
        2
 70
     0
 43
0.0
 10
-35.99523424531422
 20
207.6539192170694
 10
-233.1581404939598
 20
207.1205418124641
1001
ACAD_MLEADERVER
1070
     2
  0
SOLID
  5
FFBA
330
1F
100
AcDbEntity
  8
MP Annotation (00134142)
100
AcDbTrace
 10
-36.01326926224575
 20
214.3205614890537
 30
0.0
 11
4.004619386591912
 21
207.7621293186585
 31
0.0
 12
-35.9771992283827
 22
200.987276945085
 32
0.0
 13
-35.9771992283827
 23
200.987276945085
 33
0.0
1001
ACAD_MLEADERVER
1070
     2
  0
MTEXT
  5
FFBB
330
1F
100
AcDbEntity
  8
MP Annotation (00134142)
100
AcDbMText
 10
610.2560128652621
 20
-58.88184392916011
 30
0.0
 40
20.0
 41
296.7048632358019
 46
0.0
 71
     1
 72
     5
  1
MASONS Base Shoe with vented cavity closure
  7
2mm
 73
     1
 44
1.0
1001
ACAD_MLEADERVER
1070
     2
  0
LINE
  5
FFBC
330
1F
100
AcDbEntity
  8
MP Annotation (00134142)
100
AcDbLine
 10
246.5128388284593
 20
-69.0455547067863
 30
0.0
 11
590.2560128652622
 21
-69.0455547067863
 31
0.0
1001
ACAD_MLEADERVER
1070
     2
  0
LWPOLYLINE
  5
FFBD
330
1F
100
AcDbEntity
  8
MP Annotation (00134142)
100
AcDbPolyline
 90
        2
 70
     0
 43
0.0
 10
170.1793252759317
 20
6.68650695591517
 10
246.5128388284593
 20
-69.0455547067863
1001
ACAD_MLEADERVER
1070
     2
  0
SOLID
  5
FFBE
330
1F
100
AcDbEntity
  8
MP Annotation (00134142)
100
AcDbTrace
 10
165.4839618518829
 20
1.953853708470418
 30
0.0
 11
141.7834057912632
 21
34.85868750020788
 31
0.0
 12
174.8746886999805
 22
11.41916020335992
 32
0.0
 13
174.8746886999805
 23
11.41916020335992
 33
0.0
1001
ACAD_MLEADERVER
1070
     2
  0
MTEXT
  5
FFBF
330
1F
100
AcDbEntity
  8
MP Annotation (00134142)
100
AcDbMText
 10
-444.0421938098479
 20
423.2338551410602
 30
0.0
 40
20.0
 41
434.5674612126731
 46
0.0
 71
     3
 72
     5
  1
Steel Framing
  7
2mm
 73
     1
 44
1.0
1001
ACAD_MLEADERVER
1070
     2
  0
LINE
  5
FFC0
330
1F
100
AcDbEntity
  8
MP Annotation (00134142)
100
AcDbLine
 10
22.54406055016352
 20
410.2938824261899
 30
0.0
 11
-424.0421938098479
 21
410.2938824261899
 31
0.0
1001
ACAD_MLEADERVER
1070
     2
  0
LWPOLYLINE
  5
FFC1
330
1F
100
AcDbEntity
  8
MP Annotation (00134142)
100
AcDbPolyline
 90
        2
 70
     0
 43
0.0
 10
86.60440012809774
 20
348.6133461992066
 10
22.54406055016352
 20
410.2938824261899
1001
ACAD_MLEADERVER
1070
     2
  0
SOLID
  5
FFC2
330
1F
100
AcDbEntity
  8
MP Annotation (00134142)
100
AcDbTrace
 10
91.22839804339152
 20
353.4157505682497
 30
0.0
 11
115.4188263423557
 21
320.869358707444
 31
0.0
 12
81.98040221280397
 22
343.8109418301637
 32
0.0
 13
81.98040221280397
 23
343.8109418301637
 33
0.0
1001
ACAD_MLEADERVER
1070
     2
  0
MTEXT
  5
FFC3
330
1F
100
AcDbEntity
  8
MP Annotation (00134142)
100
AcDbMText
 10
610.2560128652621
 20
542.7942259493302
 30
0.0
 40
20.0
 41
332.989133277757
 46
0.0
 71
     1
 72
     5
  1
MASONS Barricade Building Wrap
  7
2mm
 73
     1
 44
1.0
1001
ACAD_MLEADERVER
1070
     2
  0
LINE
  5
FFC4
330
1F
100
AcDbEntity
  8
MP Annotation (00134142)
100
AcDbLine
 10
515.0210040920665
 20
529.8542532344598
 30
0.0
 11
590.2560128652622
 21
529.8542532344598
 31
0.0
1001
ACAD_MLEADERVER
1070
     2
  0
LWPOLYLINE
  5
FFC5
330
1F
100
AcDbEntity
  8
MP Annotation (00134142)
100
AcDbPolyline
 90
        2
 70
     0
 43
0.0
 10
405.470827173336
 20
529.7439188956396
 10
515.0210040920665
 20
529.8542532344598
1001
ACAD_MLEADERVER
1070
     2
  0
SOLID
  5
FFC6
330
1F
100
AcDbEntity
  8
MP Annotation (00134142)
100
AcDbTrace
 10
405.4775415567028
 20
523.0772556101945
 30
0.0
 11
365.470847460666
 21
529.7036325954386
 31
0.0
 12
405.464112789969
 22
536.4105821810847
 32
0.0
 13
405.464112789969
 23
536.4105821810847
 33
0.0
1001
ACAD_MLEADERVER
1070
     2
  0
MTEXT
  5
FFC7
330
1F
100
AcDbEntity
  8
MP Annotation (00134142)
100
AcDbMText
 10
610.2560128652621
 20
374.7917028503101
 30
0.0
 40
20.0
 41
434.5674612126731
 46
0.0
 71
     1
 72
     5
  1
50mm AAC ENVIRO Panel
  7
2mm
 73
     1
 44
1.0
1001
ACAD_MLEADERVER
1070
     2
  0
LINE
  5
FFC8
330
1F
100
AcDbEntity
  8
MP Annotation (00134142)
100
AcDbLine
 10
547.3637603435982
 20
364.6211707902828
 30
0.0
 11
590.2560128652622
 21
364.6211707902828
 31
0.0
1001
ACAD_MLEADERVER
1070
     2
  0
LWPOLYLINE
  5
FFC9
330
1F
100
AcDbEntity
  8
MP Annotation (00134142)
100
AcDbPolyline
 90
        2
 70
     0
 43
0.0
 10
428.9289166684738
 20
364.6864934949129
 10
547.3637603435982
 20
364.6211707902828
1001
ACAD_MLEADERVER
1070
     2
  0
SOLID
  5
FFCA
330
1F
100
AcDbEntity
  8
MP Annotation (00134142)
100
AcDbTrace
 10
428.925239670913
 20
358.0198278422696
 30
0.0
 11
388.9289227526142
 21
364.708555480277
 31
0.0
 12
428.9325936660344
 22
371.3531591475561
 32
0.0
 13
428.9325936660344
 23
371.3531591475561
 33
0.0
1001
ACAD_MLEADERVER
1070
     2
  0
MTEXT
  5
FFCB
330
1F
100
AcDbEntity
  8
MP Annotation (00134142)
100
AcDbMText
 10
610.2560128652621
 20
244.0061177803176
 30
0.0
 40
20.0
 41
434.5674612126731
 46
0.0
 71
     1
 72
     5
  1
50x20mm ventilated EPS or H3.2 timber battens
  7
2mm
 73
     1
 44
1.0
1001
ACAD_MLEADERVER
1070
     2
  0
LINE
  5
FFCC
330
1F
100
AcDbEntity
  8
MP Annotation (00134142)
100
AcDbLine
 10
312.0359366956354
 20
233.8424070026914
 30
0.0
 11
590.2560128652622
 21
233.8424070026914
 31
0.0
1001
ACAD_MLEADERVER
1070
     2
  0
LWPOLYLINE
  5
FFCD
330
1F
100
AcDbEntity
  8
MP Annotation (00134142)
100
AcDbPolyline
 90
        2
 70
     0
 43
0.0
 10
238.2868717036765
 20
306.5322046506214
 10
312.0359366956354
 20
233.8424070026914
1001
ACAD_MLEADERVER
1070
     2
  0
SOLID
  5
FFCE
330
1F
100
AcDbEntity
  8
MP Annotation (00134142)
100
AcDbTrace
 10
233.6070480319745
 20
301.7841845531258
 30
0.0
 11
209.798751118703
 21
334.6111466808334
 31
0.0
 12
242.9666953753785
 22
311.280224748117
 32
0.0
 13
242.9666953753785
 23
311.280224748117
 33
0.0
1001
ACAD_MLEADERVER
1070
     2
  0
MTEXT
  5
FFCF
330
1F
100
AcDbEntity
  8
MP Annotation (00134142)
100
AcDbMText
 10
-444.0421938098479
 20
66.28243014840231
 30
0.0
 40
20.0
 41
202.5766935844276
 46
0.0
 71
     3
 72
     5
  1
Steel frame floor joists
  7
2mm
 73
     1
 44
1.0
1001
ACAD_MLEADERVER
1070
     2
  0
LINE
  5
FFD0
330
1F
100
AcDbEntity
  8
MP Annotation (00134142)
100
AcDbLine
 10
-330.6472007257589
 20
53.3424574335319
 30
0.0
 11
-424.0421938098479
 21
53.3424574335319
 31
0.0
1001
ACAD_MLEADERVER
1070
     2
  0
LWPOLYLINE
  5
FFD1
330
1F
100
AcDbEntity
  8
MP Annotation (00134142)
100
AcDbPolyline
 90
        2
 70
     0
 43
0.0
 10
-258.4078113688553
 20
126.1779470261918
 10
-330.6472007257589
 20
53.3424574335319
1001
ACAD_MLEADERVER
1070
     2
  0
SOLID
  5
FFD2
330
1F
100
AcDbEntity
  8
MP Annotation (00134142)
100
AcDbTrace
 10
-263.1411862272088
 20
130.8725829966108
 30
0.0
 11
-230.2399955463416
 21
154.5781961763128
 31
0.0
 12
-253.6744365105018
 22
121.4833110557729
 32
0.0
 13
-253.6744365105018
 23
121.4833110557729
 33
0.0
1001
ACAD_MLEADERVER
1070
     2
  0
TEXT
  5
FFD3
330
1F
100
AcDbEntity
  8
MP Annotation (00134142)
100
AcDbText
 10
-467.0618964317878
 20
-245.5539590568255
 30
0.0
 40
44.0
  1
STEEL FRAME FLOOR
100
AcDbText
1001
ACAD_MLEADERVER
1070
     2
1001
AcadAnnotative
1000
AnnotativeData
1002
{
1070
     1
1070
     0
1002
}
  0
TEXT
  5
FFD4
330
1F
100
AcDbEntity
  8
MP Annotation (00134142)
100
AcDbText
 10
-467.1519373594821
 20
-319.0673742455477
 30
0.0
 40
44.0
  1
3D View
100
AcDbText
1001
ACAD_MLEADERVER
1070
     2
1001
AcadAnnotative
1000
AnnotativeData
1002
{
1070
     1
1070
     0
1002
}
  0
MTEXT
  5
FFD5
102
{ACAD_XDICTIONARY
360
10103
102
}
330
1F
100
AcDbEntity
  8
defpoints
 62
   253
370
     0
100
AcDbMText
 10
139.9585555369576
 20
-601.0372897672172
 30
0.0
 40
6.999999999994486
 41
358.5528474102407
 46
0.0
 71
     5
 72
     5
  3
The information provided is for guide only and must be used along side professional architectural/structural design. Professional architectural/structural design takes preference with any conflicting areas of the building design.\PAll documents or da
  3
ta downloaded from www.mpb.co.nz or emailed from MASONS Plastabrick Limited is the intellectual property of MASONS Plastabrick Limited. MASONS Plastabrick Limited takes no responsibility for any of the documents or data being used for any other purpo
  1
se than for professional architectural/structural design.
  7
mp000096$0$2mm
 73
     1
 44
1.0
1001
ACAD_MLEADERVER
1070
     2
  0
LWPOLYLINE
  5
FFD6
330
1F
100
AcDbEntity
  8
defpoints
 62
   253
100
AcDbPolyline
 90
        5
 70
     0
 43
0.0
 10
325.8618063055883
 20
-656.312549072098
 10
325.8618063055883
 20
-523.7811424753868
 10
-45.87160860720596
 20
-523.7811424753868
 10
-45.87160860720596
 20
-656.312549072098
 10
325.8618063055883
 20
-656.312549072098
  0
LWPOLYLINE
  5
FFD7
330
1F
100
AcDbEntity
  8
defpoints
 62
   253
100
AcDbPolyline
 90
        4
 70
     1
 43
0.0
 10
327.6118063055869
 20
-658.0625490720966
 10
327.6118063055869
 20
-522.0311424753881
 10
-47.62160860720456
 20
-522.0311424753882
 10
-47.62160860720456
 20
-658.0625490720966
  0
MTEXT
  5
FFD8
330
1F
100
AcDbEntity
  8
defpoints
 62
   253
370
     0
100
AcDbMText
 10
139.9585555369576
 20
-539.8022875425786
 30
0.0
 40
10.49999999999173
 41
359.2425684478548
 46
0.0
 71
     5
 72
     5
  1
DISCLOSURE NOTE:
  7
mp000096$0$2mm
 73
     1
 44
1.0
1001
ACAD_MLEADERVER
1070
     2
  0
TEXT
  5
FFD9
330
1F
100
AcDbEntity
  8
MP Annotation (00134142)
100
AcDbText
 10
347.9162303604389
 20
-245.5539590568256
 30
0.0
 40
44.0
  1
Detail 09   NTS
100
AcDbText
1001
ACAD_MLEADERVER
1070
     2
1001
AcadAnnotative
1000
AnnotativeData
1002
{
1070
     1
1070
     0
1002
}
  0
INSERT
  5
10122
330
1F
100
AcDbEntity
  8
MP Thermal Break Hatch (00134161)
100
AcDbBlockReference
  2
*U9
 10
0.0
 20
0.0
 30
0.0
1001
AcadNonAnnoHatchDecomposition
1000
AnnotativeData
1002
{
1070
     1
1070
     1
1002
}
  0
VIEWPORT
  5
16C0
102
{ACAD_XDICTIONARY
360
16C1
102
}
330
16B9
100
AcDbEntity
 67
     1
  8
0
100
AcDbViewport
 10
143.0547595108712
 20
151.1441705489139
 30
0.0
 40
658.3619143542604
 41
314.2259998536783
 68
     2
 69
     1
 12
143.0547595108712
 22
151.1441705489139
 13
0.0
 23
0.0
 14
10.0
 24
10.0
 15
10.0
 25
10.0
 16
0.0
 26
0.0
 36
1.0
 17
0.0
 27
0.0
 37
0.0
 42
50.0
 43
0.0
 44
0.0
 45
314.2259998536783
 50
0.0
 51
0.0
 72
  1000
 90
   819200
  1

281
     0
 71
     0
 74
     0
110
0.0
120
0.0
130
0.0
111
1.0
121
0.0
131
0.0
112
0.0
122
1.0
132
0.0
 79
     0
146
0.0
170
     0
 61
     5
348
220
292
     1
282
     1
141
0.0
142
0.0
 63
   250
421
  3355443
  0
VIEWPORT
  5
8661
102
{ACAD_XDICTIONARY
360
8662
102
}
330
16B9
100
AcDbEntity
 67
     1
  8
0
100
AcDbViewport
 10
104.2062515318394
 20
147.7062439024448
 30
0.0
 40
208.4104189386481
 41
295.4095336800116
 68
     1
 69
     2
 12
5354.266503395111
 22
47.07714670382347
 13
0.0
 23
0.0
 14
0.5
 24
0.5
 15
0.5
 25
0.5
 16
0.0
 26
0.0
 36
1736.523449255554
 17
575.4799205165254
 27
202.4030064071585
 37
-142.8182665861146
 42
50.0
 43
0.0
 44
0.0
 45
2954.095345544811
 50
0.0
 51
0.0
 72
  1000
331
1011F
 90
   819296
  1

281
     0
 71
     1
 74
     0
110
0.0
120
0.0
130
0.0
111
1.0
121
0.0
131
0.0
112
0.0
122
1.0
132
0.0
 79
     0
146
0.0
170
     0
 61
     5
348
220
292
     1
282
     1
141
0.0
142
0.0
 63
   250
421
  3355443
  0
ENDSEC
  0
SECTION
  2
OBJECTS
  0
DICTIONARY
  5
C
330
0
100
AcDbDictionary
281
     1
  3
ACAD_BACKGROUND
350
83C
  3
ACAD_COLOR
350
EB
  3
ACAD_DWFDEFINITIONS
350
40F3
  3
ACAD_FIELDLIST
350
E70
  3
ACAD_FLATSHOT
350
89C
  3
ACAD_GROUP
350
D
  3
ACAD_IMAGE_DICT
350
E6E
  3
ACAD_IMAGE_VARS
350
E74
  3
ACAD_LAYOUT
350
1A
  3
ACAD_MATERIAL
350
EA
  3
ACAD_MLEADERSTYLE
350
2C3
  3
ACAD_MLINESTYLE
350
17
  3
ACAD_PLOTSETTINGS
350
19
  3
ACAD_PLOTSTYLENAME
350
E
  3
ACAD_SCALELIST
350
2A1
  3
ACAD_TABLESTYLE
350
22B
  3
ACAD_VISUALSTYLE
350
21A
  3
AcAec
350
A21
  3
ACDB_RECOMPOSE_DATA
350
310
  3
AcDbVariableDictionary
350
25B
  3
AEC_DISP_REP_CONFIGURATIONS
350
A0A
  3
AEC_DISP_REP_SETS
350
A01
  3
AEC_DISP_REPS
350
8DB
  3
AEC_DISPLAY_PROPS_DEFAULTS
350
8DF
  3
AEC_LAYERKEY_STYLES
350
A0C
  3
AEC_PROPERTY_SET_DEFS
350
3C2
  3
AEC_VARS
350
8DD
  3
ASE_INDEX_DICTIONARY
350
3E43
  0
DICTIONARY
  5
28F
330
2
100
AcDbDictionary
280
     1
281
     1
  3
ACAD_LAYERFILTERS
360
1BB9
  3
ACAD_LAYERSTATES
360
290
  3
ACLYDICTIONARY
360
1BB8
  0
DICTIONARY
  5
308
330
10
100
AcDbDictionary
280
     1
281
     1
  3
ADSK_XREC_LAYER_RECONCILED
360
4297
  0
DICTIONARY
  5
37E
330
37D
100
AcDbDictionary
280
     1
281
     1
  0
DICTIONARY
  5
100FE
330
100FD
100
AcDbDictionary
280
     1
281
     1
  3
ASDK_XREC_ANNO_SCALE_INFO
360
100FF
  0
DICTIONARY
  5
10113
330
10112
100
AcDbDictionary
280
     1
281
     1
  3
ASDK_XREC_ANNO_SCALE_INFO
360
10114
  0
DICTIONARY
  5
10120
330
1011F
100
AcDbDictionary
280
     1
281
     1
  3
ASDK_XREC_ANNO_SCALE_INFO
360
10121
  0
DICTIONARY
  5
102E
330
1F
100
AcDbDictionary
280
     1
281
     1
  3
ACAD_SORTENTS
360
DB23
  0
DICTIONARY
  5
FF35
330
7098
100
AcDbDictionary
280
     1
281
     1
  3
ACAD_SORTENTS
360
FF36
  0
DICTIONARY
  5
FB8A
330
D0DE
100
AcDbDictionary
280
     1
281
     1
  3
ACAD_SORTENTS
360
FB8C
  0
DICTIONARY
  5
FC48
330
D846
100
AcDbDictionary
280
     1
281
     1
  3
ACAD_SORTENTS
360
FC49
  0
DICTIONARY
  5
EB57
330
E90C
100
AcDbDictionary
280
     1
281
     1
  3
ACAD_SORTENTS
360
EB59
  0
DICTIONARY
  5
10100
330
FF30
100
AcDbDictionary
280
     1
281
     1
  3
ACAD_MTEXT_2008_RT
360
10101
  0
DICTIONARY
  5
10109
330
10108
100
AcDbDictionary
280
     1
281
     1
  3
AcDbContextDataManager
360
1010A
  0
DICTIONARY
  5
10116
330
10115
100
AcDbDictionary
280
     1
281
     1
  3
AcDbContextDataManager
360
10117
  0
DICTIONARY
  5
FC2B
330
D24C
100
AcDbDictionary
280
     1
281
     1
  0
DICTIONARY
  5
DB0F
330
D2CA
100
AcDbDictionary
280
     1
281
     1
  3
AcDbContextDataManager
360
DB10
  0
DICTIONARY
  5
DB14
330
D2CF
100
AcDbDictionary
280
     1
281
     1
  3
AcDbContextDataManager
360
DB15
  0
DICTIONARY
  5
10103
330
FFD5
100
AcDbDictionary
280
     1
281
     1
  3
ACAD_MTEXT_2008_RT
360
10104
  0
DICTIONARY
  5
16C1
330
16C0
100
AcDbDictionary
280
     1
281
     1
  3
ASDK_XREC_ANNOTATION_SCALE_INFO
360
16C2
  0
DICTIONARY
  5
8662
330
8661
100
AcDbDictionary
280
     1
281
     1
  3
ASDK_XREC_ANNOTATION_SCALE_INFO
360
8663
  0
DICTIONARY
  5
83C
102
{ACAD_REACTORS
330
C
102
}
330
C
100
AcDbDictionary
281
     1
  0
DICTIONARY
  5
EB
102
{ACAD_REACTORS
330
C
102
}
330
C
100
AcDbDictionary
281
     1
  0
DICTIONARY
  5
40F3
102
{ACAD_REACTORS
330
C
102
}
330
C
100
AcDbDictionary
281
     1
  0
FIELDLIST
  5
E70
102
{ACAD_REACTORS
330
C
102
}
330
C
100
AcDbIdSet
 90
        0
100
AcDbFieldList
  0
XRECORD
  5
89C
102
{ACAD_REACTORS
330
C
102
}
330
C
100
AcDbXrecord
280
     1
 71
     0
  0
DICTIONARY
  5
D
102
{ACAD_REACTORS
330
C
102
}
330
C
100
AcDbDictionary
281
     1
  0
DICTIONARY
  5
E6E
102
{ACAD_REACTORS
330
C
102
}
330
C
100
AcDbDictionary
281
     1
  0
RASTERVARIABLES
  5
E74
102
{ACAD_REACTORS
330
C
102
}
330
C
100
AcDbRasterVariables
 90
        0
 70
     1
 71
     1
 72
     1
  0
DICTIONARY
  5
1A
102
{ACAD_REACTORS
330
C
102
}
330
C
100
AcDbDictionary
281
     1
  3
1
350
16BA
  3
Model
350
22
  0
DICTIONARY
  5
EA
102
{ACAD_REACTORS
330
C
102
}
330
C
100
AcDbDictionary
281
     1
  3
ByBlock
350
218
  3
ByLayer
350
217
  3
Global
350
219
  0
DICTIONARY
  5
2C3
102
{ACAD_REACTORS
330
C
102
}
330
C
100
AcDbDictionary
281
     1
  3
2mm
350
389
  3
Standard
350
2C4
  0
DICTIONARY
  5
17
102
{ACAD_REACTORS
330
C
102
}
330
C
100
AcDbDictionary
281
     1
  3
mp000096$0$STANDARD
350
FF37
  3
Standard
350
18
  0
DICTIONARY
  5
19
102
{ACAD_REACTORS
330
C
102
}
330
C
100
AcDbDictionary
281
     1
  0
ACDBDICTIONARYWDFLT
  5
E
102
{ACAD_REACTORS
330
C
102
}
330
C
100
AcDbDictionary
281
     1
  3
Normal
350
F
100
AcDbDictionaryWithDefault
340
F
  0
DICTIONARY
  5
2A1
102
{ACAD_REACTORS
330
C
102
}
330
C
100
AcDbDictionary
281
     1
  3
*A1
350
13E3
  3
*A10
350
13EB
  3
*A11
350
13F4
  3
*A12
350
13F0
  3
*A13
350
13E4
  3
*A14
350
13EF
  3
*A15
350
13F2
  3
*A16
350
13F5
  3
*A17
350
13E6
  3
*A18
350
13F3
  3
*A19
350
13E9
  3
*A2
350
13E5
  3
*A20
350
13EC
  3
*A21
350
13F6
  3
*A3
350
13E7
  3
*A4
350
6492
  3
*A5
350
13EE
  3
*A6
350
13E8
  3
*A7
350
13EA
  3
*A8
350
13ED
  3
*A9
350
13F1
  3
A0
350
A6E
  3
A1
350
A77
  3
A2
350
A78
  3
A3
350
A79
  3
A4
350
A7A
  3
A5
350
A7B
  3
A6
350
A7C
  3
A7
350
A7D
  3
A8
350
A7E
  3
A9
350
A7F
  3
B0
350
A80
  3
B1
350
A6F
  3
B2
350
A81
  3
B3
350
A82
  3
B4
350
A70
  3
B5
350
A71
  3
B6
350
A72
  3
B7
350
A73
  3
B8
350
A74
  3
B9
350
A75
  3
C0
350
A76
  3
C1
350
2A2
  0
DICTIONARY
  5
22B
102
{ACAD_REACTORS
330
C
102
}
330
C
100
AcDbDictionary
281
     1
  3
mp000096$0$Standard
350
FF38
  3
Standard
350
22C
  0
DICTIONARY
  5
21A
102
{ACAD_REACTORS
330
C
102
}
330
C
100
AcDbDictionary
281
     1
  3
2dWireframe
350
220
  3
3D Hidden
350
222
  3
3dWireframe
350
221
  3
Basic
350
21F
  3
Brighten
350
226
  3
ColorChange
350
22A
  3
Conceptual
350
223
  3
Dim
350
225
  3
Facepattern
350
229
  3
Flat
350
21B
  3
FlatWithEdges
350
21C
  3
Gouraud
350
21D
  3
GouraudWithEdges
350
21E
  3
Linepattern
350
228
  3
Realistic
350
224
  3
Thicken
350
227
  0
DICTIONARY
  5
A21
102
{ACAD_REACTORS
330
C
102
}
330
C
100
AcDbDictionary
281
     1
  3
AcAecLayerManager
350
A22
  0
XRECORD
  5
310
102
{ACAD_REACTORS
330
C
102
}
330
C
100
AcDbXrecord
280
     1
 90
        1
330
22C
330
D2CA
330
D2CF
330
FF30
330
FF38
330
FFD5
330
10122
  0
DICTIONARY
  5
25B
102
{ACAD_REACTORS
330
C
102
}
330
C
100
AcDbDictionary
281
     1
  3
ANNOALLVISIBLE
350
6424
  3
CANNOSCALE
350
313
  3
CMLEADERSTYLE
350
311
  3
CTABLESTYLE
350
25C
  3
LAYEREVAL
350
315
  3
LAYERNOTIFY
350
316
  3
LIGHTINGUNITS
350
314
  3
MLEADERSCALE
350
A3E
  3
MSLTSCALE
350
312
  0
DICTIONARY
  5
A0A
102
{ACAD_REACTORS
330
C
102
}
330
C
100
AcDbDictionary
281
     1
  3
Medium Detail
350
A11
  3
Standard
350
A0B
  0
DICTIONARY
  5
A01
102
{ACAD_REACTORS
330
C
102
}
330
C
100
AcDbDictionary
281
     1
  3
Elevation
350
A05
  3
Model
350
A02
  3
Model High Detail
350
A09
  3
Model Low Detail
350
A08
  3
Plan
350
A03
  3
Plan Diagnostic
350
A14
  3
Plan High Detail
350
A07
  3
Plan Low Detail
350
A06
  3
Reflected
350
A04
  0
DICTIONARY
  5
8DB
102
{ACAD_REACTORS
330
C
102
}
330
C
100
AcDbDictionary
281
     1
  3
AecDbDispRep2dSection
350
8DC
  3
AecDbDispRepAnchor
350
8E1
  3
AecDbDispRepAnchorBubToGrid
350
987
  3
AecDbDispRepAnchorBubToGridMdl
350
989
  3
AecDbDispRepAnchorBubToGridRcp
350
98B
  3
AecDbDispRepAnchorEntToNode
350
8FD
  3
AecDbDispRepAnchorExtendedTagToEnt
350
90D
  3
AecDbDispRepAnchorTagToEnt
350
90B
  3
AecDbDispRepBdgElevLineModel
350
90F
  3
AecDbDispRepBdgElevLinePlan
350
911
  3
AecDbDispRepBdgElevLinePlan100
350
9A3
  3
AecDbDispRepBdgElevLinePlan50
350
9BE
  3
AecDbDispRepBdgElevLineRcp
350
913
  3
AecDbDispRepBdgSectionLineModel
350
915
  3
AecDbDispRepBdgSectionLinePlan
350
917
  3
AecDbDispRepBdgSectionLinePlan100
350
9A5
  3
AecDbDispRepBdgSectionLinePlan50
350
9C0
  3
AecDbDispRepBdgSectionLineRcp
350
919
  3
AecDbDispRepBdgSectionModel
350
91B
  3
AecDbDispRepBdgSectionSubDiv
350
91C
  3
AecDbDispRepCeilingGrid
350
91E
  3
AecDbDispRepCeilingGridModel
350
920
  3
AecDbDispRepCeilingGridPlan100
350
9A7
  3
AecDbDispRepCeilingGridPlan50
350
9C2
  3
AecDbDispRepCeilingGridRcp
350
922
  3
AecDbDispRepClipVolModel
350
8E2
  3
AecDbDispRepClipVolPlan
350
8E4
  3
AecDbDispRepClipVolResSubDiv
350
8E7
  3
AecDbDispRepClipVolResult
350
8E6
  3
AecDbDispRepColumnGrid
350
98D
  3
AecDbDispRepColumnGridModel
350
98F
  3
AecDbDispRepColumnGridPlan100
350
9A9
  3
AecDbDispRepColumnGridPlan50
350
9C4
  3
AecDbDispRepColumnGridRcp
350
991
  3
AecDbDispRepCurtainWallLayoutModel
350
924
  3
AecDbDispRepCurtainWallLayoutPlan
350
926
  3
AecDbDispRepCurtainWallLayoutPlan100
350
9AB
  3
AecDbDispRepCurtainWallLayoutPlan50
350
9C6
  3
AecDbDispRepCurtainWallUnitModel
350
928
  3
AecDbDispRepCurtainWallUnitPlan
350
92A
  3
AecDbDispRepCurtainWallUnitPlan100
350
9AD
  3
AecDbDispRepCurtainWallUnitPlan50
350
9C8
  3
AecDbDispRepDimGroupPlan
350
9DD
  3
AecDbDispRepDimGroupPlan100
350
9D9
  3
AecDbDispRepDimGroupPlan50
350
9DB
  3
AecDbDispRepDisplayTheme
350
8E9
  3
AecDbDispRepDoorElev
350
92E
  3
AecDbDispRepDoorModel
350
92C
  3
AecDbDispRepDoorNominal
350
932
  3
AecDbDispRepDoorPlan
350
930
  3
AecDbDispRepDoorPlan50
350
9DF
  3
AecDbDispRepDoorPlanHekto
350
9E1
  3
AecDbDispRepDoorRcp
350
934
  3
AecDbDispRepDoorThresholdPlan
350
936
  3
AecDbDispRepDoorThresholdSymbolPlan
350
9E3
  3
AecDbDispRepEditInPlaceProfile
350
8EB
  3
AecDbDispRepEntRef
350
8ED
  3
AecDbDispRepLayoutCurve
350
8EF
  3
AecDbDispRepLayoutGrid2d
350
8F1
  3
AecDbDispRepLayoutGrid3d
350
8F3
  3
AecDbDispRepMaskBlockRef
350
8F5
  3
AecDbDispRepMaskBlockRefRcp
350
938
  3
AecDbDispRepMassElemModel
350
8FF
  3
AecDbDispRepMassElemPlan100
350
9E5
  3
AecDbDispRepMassElemPlan50
350
9E7
  3
AecDbDispRepMassElemRcp
350
93A
  3
AecDbDispRepMassElemSchem
350
901
  3
AecDbDispRepMassGroupModel
350
903
  3
AecDbDispRepMassGroupPlan
350
905
  3
AecDbDispRepMassGroupPlan100
350
9E9
  3
AecDbDispRepMassGroupPlan50
350
9EB
  3
AecDbDispRepMassGroupRcp
350
93C
  3
AecDbDispRepMaterial
350
8F7
  3
AecDbDispRepMvBlockRef
350
8F9
  3
AecDbDispRepMvBlockRef$Plan
350
A17
  3
AecDbDispRepMvBlockRefModel
350
8FA
  3
AecDbDispRepMvBlockRefPlan100
350
9AF
  3
AecDbDispRepMvBlockRefPlan50
350
9CA
  3
AecDbDispRepMvBlockRefRcp
350
93E
  3
AecDbDispRepOpening
350
93F
  3
AecDbDispRepOpeningModel
350
941
  3
AecDbDispRepOpeningPlan100
350
9ED
  3
AecDbDispRepOpeningPlan50
350
9EF
  3
AecDbDispRepOpeningPlanReflected
350
9F1
  3
AecDbDispRepOpeningSillPlan
350
9F3
  3
AecDbDispRepPolygonModel
350
907
  3
AecDbDispRepPolygonTrueColour
350
909
  3
AecDbDispRepRailingModel
350
943
  3
AecDbDispRepRailingPlan
350
945
  3
AecDbDispRepRailingPlan100
350
9F5
  3
AecDbDispRepRailingPlan50
350
9F7
  3
AecDbDispRepRoofModel
350
947
  3
AecDbDispRepRoofPlan
350
949
  3
AecDbDispRepRoofPlan100
350
9B0
  3
AecDbDispRepRoofPlan50
350
9CB
  3
AecDbDispRepRoofRcp
350
94B
  3
AecDbDispRepRoofSlabModel
350
94F
  3
AecDbDispRepRoofSlabPlan
350
953
  3
AecDbDispRepRoofSlabPlan100
350
9B2
  3
AecDbDispRepRoofSlabPlan50
350
9CD
  3
AecDbDispRepScheduleTable
350
985
  3
AecDbDispRepSlabModel
350
94D
  3
AecDbDispRepSlabPlan
350
951
  3
AecDbDispRepSlabPlan100
350
9B4
  3
AecDbDispRepSlabPlan50
350
9CF
  3
AecDbDispRepSlice
350
8FB
  3
AecDbDispRepSpaceDecomposed
350
955
  3
AecDbDispRepSpaceModel
350
957
  3
AecDbDispRepSpacePlan
350
959
  3
AecDbDispRepSpacePlan100
350
9B6
  3
AecDbDispRepSpacePlan50
350
9D1
  3
AecDbDispRepSpaceRcp
350
95B
  3
AecDbDispRepSpaceVolume
350
95D
  3
AecDbDispRepStairModel
350
95F
  3
AecDbDispRepStairPlan
350
961
  3
AecDbDispRepStairPlan100
350
9F9
  3
AecDbDispRepStairPlan50
350
9FB
  3
AecDbDispRepStairPlanOverlapping
350
963
  3
AecDbDispRepStairRcp
350
965
  3
AecDbDispRepWallGraph
350
967
  3
AecDbDispRepWallModel
350
969
  3
AecDbDispRepWallPlan
350
96B
  3
AecDbDispRepWallPlan100
350
9B8
  3
AecDbDispRepWallPlan50
350
9D3
  3
AecDbDispRepWallRcp
350
96D
  3
AecDbDispRepWallSchem
350
96F
  3
AecDbDispRepWindowAssemblyModel
350
971
  3
AecDbDispRepWindowAssemblyPlan
350
973
  3
AecDbDispRepWindowAssemblyPlan100
350
9BA
  3
AecDbDispRepWindowAssemblyPlan50
350
9D5
  3
AecDbDispRepWindowAssemblySillPlan
350
975
  3
AecDbDispRepWindowElev
350
979
  3
AecDbDispRepWindowModel
350
977
  3
AecDbDispRepWindowNominal
350
97D
  3
AecDbDispRepWindowPlan
350
97B
  3
AecDbDispRepWindowPlan100
350
9FD
  3
AecDbDispRepWindowPlan50
350
9FF
  3
AecDbDispRepWindowRcp
350
97F
  3
AecDbDispRepWindowSillPlan
350
981
  3
AecDbDispRepZone
350
983
  3
AecDbDispRepZonePlan100
350
9BC
  3
AecDbDispRepZonePlan50
350
9D7
  3
AecsDbDispRepMemberElevationDesign
350
993
  3
AecsDbDispRepMemberElevationDetail
350
995
  3
AecsDbDispRepMemberLogical
350
997
  3
AecsDbDispRepMemberModelDesign
350
999
  3
AecsDbDispRepMemberModelDetail
350
99B
  3
AecsDbDispRepMemberPlanDesign
350
99D
  3
AecsDbDispRepMemberPlanDetail
350
99F
  3
AecsDbDispRepMemberPlanSketch
350
9A1
  0
DICTIONARY
  5
8DF
102
{ACAD_REACTORS
330
C
102
}
330
C
100
AcDbDictionary
281
     1
  3
*A1
350
8E0
  3
*A10
350
900
  3
*A100
350
9A2
  3
*A101
350
9A4
  3
*A102
350
9A6
  3
*A103
350
968
  3
*A104
350
984
  3
*A105
350
98E
  3
*A106
350
996
  3
*A107
350
9C3
  3
*A108
350
962
  3
*A109
350
916
  3
*A11
350
9B1
  3
*A110
350
8EC
  3
*A111
350
925
  3
*A112
350
8FE
  3
*A113
350
902
  3
*A114
350
92F
  3
*A115
350
931
  3
*A116
350
986
  3
*A117
350
8F4
  3
*A118
350
9CE
  3
*A119
350
9D0
  3
*A12
350
95E
  3
*A120
350
921
  3
*A121
350
9D2
  3
*A122
350
9D4
  3
*A123
350
8F8
  3
*A124
350
98C
  3
*A125
350
9AA
  3
*A126
350
9C7
  3
*A127
350
8FC
  3
*A128
350
988
  3
*A129
350
91D
  3
*A13
350
8EA
  3
*A130
350
927
  3
*A131
350
92B
  3
*A132
350
94C
  3
*A133
350
94E
  3
*A134
350
923
  3
*A135
350
9AE
  3
*A136
350
9F2
  3
*A137
350
9F4
  3
*A138
350
9F6
  3
*A139
350
9B5
  3
*A14
350
9A8
  3
*A140
350
9D6
  3
*A141
350
9EC
  3
*A15
350
96E
  3
*A16
350
940
  3
*A17
350
948
  3
*A18
350
978
  3
*A19
350
97A
  3
*A2
350
946
  3
*A20
350
9DA
  3
*A21
350
8E3
  3
*A22
350
90A
  3
*A23
350
90C
  3
*A24
350
9AC
  3
*A25
350
96A
  3
*A26
350
90E
  3
*A27
350
910
  3
*A28
350
912
  3
*A29
350
9E0
  3
*A3
350
9F8
  3
*A30
350
A00
  3
*A31
350
904
  3
*A32
350
929
  3
*A33
350
9DC
  3
*A34
350
964
  3
*A35
350
992
  3
*A36
350
970
  3
*A37
350
974
  3
*A38
350
998
  3
*A39
350
99A
  3
*A4
350
9FA
  3
*A40
350
96C
  3
*A41
350
8E8
  3
*A42
350
933
  3
*A43
350
935
  3
*A44
350
937
  3
*A45
350
8EE
  3
*A46
350
9FE
  3
*A47
350
914
  3
*A48
350
92D
  3
*A49
350
9BD
  3
*A5
350
9FC
  3
*A50
350
98A
  3
*A51
350
994
  3
*A52
350
9C9
  3
*A53
350
9CC
  3
*A54
350
990
  3
*A55
350
918
  3
*A56
350
950
  3
*A57
350
952
  3
*A58
350
954
  3
*A59
350
8E5
  3
*A6
350
9B7
  3
*A60
350
9B9
  3
*A61
350
956
  3
*A62
350
958
  3
*A63
350
95A
  3
*A64
350
91F
  3
*A65
350
939
  3
*A66
350
944
  3
*A67
350
94A
  3
*A68
350
972
  3
*A69
350
91A
  3
*A7
350
9D8
  3
*A70
350
9B3
  3
*A71
350
9E6
  3
*A72
350
9C1
  3
*A73
350
9C5
  3
*A74
350
9EE
  3
*A75
350
9F0
  3
*A76
350
93B
  3
*A77
350
9BB
  3
*A78
350
97C
  3
*A79
350
97E
  3
*A8
350
9E2
  3
*A80
350
980
  3
*A81
350
982
  3
*A82
350
9BF
  3
*A83
350
942
  3
*A84
350
95C
  3
*A85
350
976
  3
*A86
350
8F6
  3
*A87
350
93D
  3
*A88
350
9DE
  3
*A89
350
9E8
  3
*A9
350
9EA
  3
*A90
350
906
  3
*A91
350
908
  3
*A92
350
9E4
  3
*A93
350
960
  3
*A94
350
99C
  3
*A95
350
99E
  3
*A96
350
9A0
  3
*A97
350
966
  3
*A98
350
8F0
  3
*A99
350
8F2
  0
DICTIONARY
  5
A0C
102
{ACAD_REACTORS
330
C
102
}
330
C
100
AcDbDictionary
281
     1
  3
AIA (256 Color)
350
A1A
  0
DICTIONARY
  5
3C2
102
{ACAD_REACTORS
330
C
102
}
330
C
100
AcDbDictionary
281
     1
  0
DICTIONARY
  5
8DD
102
{ACAD_REACTORS
330
C
102
}
330
C
100
AcDbDictionary
281
     1
  3
AEC_VARS_ARCHBASE
350
A1D
  3
AEC_VARS_DWG_SETUP
350
8DE
  3
AECMX_VARS_MUNICH
350
A1E
  0
DICTIONARY
  5
3E43
102
{ACAD_REACTORS
330
C
102
}
330
C
100
AcDbDictionary
281
     1
  3
ASEBlockHierarchyIndexRecord
350
3E44
1001
DCO15
1040
1692121483.687
  0
DICTIONARY
  5
1BB9
102
{ACAD_REACTORS
330
28F
102
}
330
28F
100
AcDbDictionary
281
     1
  0
DICTIONARY
  5
290
102
{ACAD_REACTORS
330
28F
102
}
330
28F
100
AcDbDictionary
281
     1
  3
00000050
350
3D97
  3
00000561
350
3D8B
  3
mp000096$0$00000050
350
FF25
  3
mp000096$0$00000561
350
FF29
  0
DICTIONARY
  5
1BB8
102
{ACAD_REACTORS
330
28F
102
}
330
28F
100
AcDbDictionary
281
     1
1001
ACAD
1000
<All
  0
XRECORD
  5
4297
102
{ACAD_REACTORS
330
308
102
}
330
308
100
AcDbXrecord
280
     1
290
     1
  0
XRECORD
  5
100FF
102
{ACAD_REACTORS
330
100FE
102
}
330
100FE
100
AcDbXrecord
280
     1
 70
     1
340
A6F
340
E6AE
 70
    -1
  0
XRECORD
  5
10114
102
{ACAD_REACTORS
330
10113
102
}
330
10113
100
AcDbXrecord
280
     1
 70
     1
340
A6F
340
ECC5
 70
    -1
  0
XRECORD
  5
10121
102
{ACAD_REACTORS
330
10120
102
}
330
10120
100
AcDbXrecord
280
     1
 70
     1
340
2A2
340
ECC5
 70
    -1
  0
SORTENTSTABLE
  5
DB23
102
{ACAD_REACTORS
330
102E
102
}
330
102E
100
AcDbSortentsTable
330
1F
331
FFA7
  5
FF9C
331
F5AF
  5
E2BD
331
FFD8
  5
E5B2
331
D86D
  5
D2CA
331
FFCC
  5
FFBD
331
CF42
  5
CF4F
331
D2CA
  5
FFD0
331
FFBA
  5
FFD5
331
FFAE
  5
FFA3
331
D837
  5
4375
331
E0AF
  5
D9B2
331
FFD3
  5
FFB3
331
FF9C
  5
EBC0
331
FFC1
  5
FFCA
331
FFB5
  5
FFD8
331
FFA3
  5
FF98
331
FF97
  5
E825
331
EBC0
  5
E0C5
331
E0A4
  5
CF4D
331
FFC8
  5
FFC1
331
CE12
  5
FFB5
331
FFAA
  5
FF9F
331
E0C7
  5
D405
331
FFCF
  5
FFB8
331
FF98
  5
E934
331
DDB1
  5
D3E8
331
FFBD
  5
FFCE
331
FFB1
  5
FFA7
331
FFD6
  5
E5A4
331
D400
  5
CE11
331
FF9F
  5
F3C1
331
EBBC
  5
E0A2
331
FFC4
  5
FFC5
331
FFA6
  5
FF9B
331
FFCB
  5
FFBC
331
CF41
  5
FFB7
331
E595
  5
E0A0
331
FFB9
  5
FFD4
331
FFAD
  5
FFA2
331
E0AE
  5
D86D
331
FFD2
  5
FFBB
331
D3F0
  5
D252
331
FF9B
  5
EBBF
331
FFC0
  5
FFC9
331
FFB4
  5
FFD7
331
E6A7
  5
E0C8
331
FF96
  5
E725
331
D403
  5
CE15
331
FFA2
  5
FF97
331
EBBF
  5
E0A3
331
FFC7
  5
FFC0
331
CE11
  5
7313
331
CE3D
  5
CF42
331
FFA9
  5
FF9E
331
E0C6
  5
D404
331
FFCE
  5
FFBF
331
E61C
  5
E0A1
331
FFBC
  5
FFCD
331
FFB0
  5
FFA6
331
D252
  5
70A4
331
CF53
  5
CF53
331
FFD5
  5
E597
331
D3FF
  5
CE10
331
FF9E
  5
F2B9
331
DDB7
  5
D402
331
FFC3
  5
FFC4
331
FFB7
  5
FFD2
331
FFA5
  5
FF9A
331
FFCA
  5
FFC3
331
E594
  5
DDB2
331
FFB8
  5
FFD3
331
FFAC
  5
FFA1
331
E725
  5
E0CD
331
FFD1
  5
FFBA
331
D9B2
  5
D2CF
331
FF9A
  5
EBBE
331
D2CF
  5
FFD1
331
FFBF
  5
FFC8
331
FFB3
  5
FFD6
331
10122
  5
E09E
331
D402
  5
CE14
331
FFA1
  5
FF96
331
FFC6
  5
FFC7
331
CE3C
  5
FFB6
331
FFA8
  5
FF9D
331
E0C5
  5
D403
331
FFD9
  5
FFAF
331
FFCD
  5
FFBE
331
FFBB
  5
FFCC
331
FFAF
  5
FFA5
331
FFD4
  5
FFB4
331
FF9D
  5
F1A2
331
DDB6
  5
D400
331
FFC2
  5
FFCB
331
FFB6
  5
FFD9
331
E847
  5
DDB1
331
D24C
  5
D04C
331
FFA4
  5
FF99
331
FFC9
  5
FFC2
331
FFAB
  5
FFA0
331
E0C8
  5
D837
331
FFD0
  5
FFB9
331
FF99
  5
EBBC
331
DDB2
  5
D3F0
331
FFBE
  5
FFCF
331
FFD7
  5
E5A5
331
FFA0
  5
F4A7
331
E0A1
  5
CF4C
331
FFC5
  5
FFC6
  0
SORTENTSTABLE
  5
FF36
102
{ACAD_REACTORS
330
FF35
102
}
330
FF35
100
AcDbSortentsTable
330
7098
331
FF34
  5
FF33
331
FF33
  5
FF34
  0
SORTENTSTABLE
  5
FB8C
102
{ACAD_REACTORS
330
FB8A
102
}
330
FB8A
100
AcDbSortentsTable
330
D0DE
  0
SORTENTSTABLE
  5
FC49
102
{ACAD_REACTORS
330
FC48
102
}
330
FC48
100
AcDbSortentsTable
330
D846
  0
SORTENTSTABLE
  5
EB59
102
{ACAD_REACTORS
330
EB57
102
}
330
EB57
100
AcDbSortentsTable
330
E90C
  0
XRECORD
  5
10101
102
{ACAD_REACTORS
330
10100
102
}
330
10100
100
AcDbXrecord
280
     1
 40
14753640.0
  1
\pxqc;The information provided is for guide only and must be used along side professional architectural/structural design. Professional architectural/structural design takes preference with any conflicting areas of the building design.\PAll documents
  1
 or data downloaded from www.mpb.co.nz or emailed from MASONS Plastabrick Limited is the intellectual property of MASONS Plastabrick Limited. MASONS Plastabrick Limited takes no responsibility for any of the documents or data being used for any other
  1
 purpose than for professional architectural/structural design.
  0
DICTIONARY
  5
1010A
102
{ACAD_REACTORS
330
10109
102
}
330
10109
100
AcDbDictionary
281
     1
  3
ACDB_ANNOTATIONSCALE_VIEW_COLLECTION
350
1010B
  3
ACDB_ANNOTATIONSCALES
350
1010F
  0
DICTIONARY
  5
10117
102
{ACAD_REACTORS
330
10116
102
}
330
10116
100
AcDbDictionary
281
     1
  3
ACDB_ANNOTATIONSCALE_VIEW_COLLECTION
350
10118
  3
ACDB_ANNOTATIONSCALES
350
1011C
  0
DICTIONARY
  5
DB10
102
{ACAD_REACTORS
330
DB0F
102
}
330
DB0F
100
AcDbDictionary
281
     1
  3
ACDB_ANNOTATIONSCALES
350
DB11
  0
DICTIONARY
  5
DB15
102
{ACAD_REACTORS
330
DB14
102
}
330
DB14
100
AcDbDictionary
281
     1
  3
ACDB_ANNOTATIONSCALES
350
DB16
  0
XRECORD
  5
10104
102
{ACAD_REACTORS
330
10103
102
}
330
10103
100
AcDbXrecord
280
     1
 40
14753640.0
  1
\pxqc;The information provided is for guide only and must be used along side professional architectural/structural design. Professional architectural/structural design takes preference with any conflicting areas of the building design.\PAll documents
  1
 or data downloaded from www.mpb.co.nz or emailed from MASONS Plastabrick Limited is the intellectual property of MASONS Plastabrick Limited. MASONS Plastabrick Limited takes no responsibility for any of the documents or data being used for any other
  1
 purpose than for professional architectural/structural design.
  0
XRECORD
  5
16C2
102
{ACAD_REACTORS
330
16C1
102
}
330
16C1
100
AcDbXrecord
280
     1
 90
        1
340
2A2
  0
XRECORD
  5
8663
102
{ACAD_REACTORS
330
8662
102
}
330
8662
100
AcDbXrecord
280
     1
 90
        1
340
A6F
  0
LAYOUT
  5
16BA
102
{ACAD_XDICTIONARY
360
170C
102
}
102
{ACAD_REACTORS
330
1A
102
}
330
1A
100
AcDbPlotSettings
  1

  2
DWF6 ePlot.pc3
  4
ISO_full_bleed_A4_(210.00_x_297.00_MM)
  6

 40
0.7937499880790711
 41
0.7937499880790711
 42
0.7937469482421875
 43
0.79376220703125
 44
210.0
 45
297.0
 46
0.0
 47
0.0
 48
0.0
 49
0.0
140
0.0
141
0.0
142
1.0
143
1.0
 70
   672
 72
     1
 73
     0
 74
     5
  7

 75
    16
147
25.4
 76
     0
 77
     2
 78
   300
148
0.0
149
0.0
100
AcDbLayout
  1
1
 70
     1
 71
     1
 10
-0.7937499880790711
 20
-0.7937499880790711
 11
209.2062500119209
 21
296.2062500119209
 12
0.0
 22
0.0
 32
0.0
 14
0.0010420625153245
 24
0.0014770624390508
 34
0.0
 15
208.4114610011634
 25
295.4110107424506
 35
0.0
146
0.0
 13
0.0
 23
0.0
 33
0.0
 16
1.0
 26
0.0
 36
0.0
 17
0.0
 27
1.0
 37
0.0
 76
     0
330
16B9
331
8661
1001
ACAD_PSEXT
1000
DWF6 ePlot.pc3
1000
DWF6 ePlot
1000
File
1000

1070
     0
  0
LAYOUT
  5
22
102
{ACAD_XDICTIONARY
360
4377
102
}
102
{ACAD_REACTORS
330
1A
102
}
330
1A
100
AcDbPlotSettings
  1

  2
none_device
  4
Letter_(8.50_x_11.00_Inches)
  6

 40
6.4
 41
6.4
 42
6.4
 43
6.4
 44
215.8999938964844
 45
279.3999938964844
 46
21.082
 47
0.0
 48
0.0
 49
0.0
140
0.0
141
0.0
142
1.0
143
1.558974244562341
 70
 11924
 72
     0
 73
     1
 74
     0
  7

 75
     0
147
0.6414474154964215
 76
     0
 77
     2
 78
   300
148
42.66874504805538
149
1.074921630094033
100
AcDbLayout
  1
Model
 70
     1
 71
     0
 10
0.0
 20
0.0
 11
12.0
 21
9.0
 12
0.0
 22
0.0
 32
0.0
 14
0.0
 24
0.0
 34
0.0
 15
0.0
 25
0.0
 35
0.0
146
0.0
 13
0.0
 23
0.0
 33
0.0
 16
1.0
 26
0.0
 36
0.0
 17
0.0
 27
1.0
 37
0.0
 76
     0
330
1F
331
215
  0
MATERIAL
  5
218
102
{ACAD_REACTORS
330
EA
102
}
330
EA
100
AcDbMaterial
  1
ByBlock
 73
     1
 78
     1
172
     1
176
     1
270
     1
274
     1
 94
       63
  0
MATERIAL
  5
217
102
{ACAD_REACTORS
330
EA
102
}
330
EA
100
AcDbMaterial
  1
ByLayer
 73
     1
 78
     1
172
     1
176
     1
270
     1
274
     1
 94
       63
  0
MATERIAL
  5
219
102
{ACAD_REACTORS
330
EA
102
}
330
EA
100
AcDbMaterial
  1
Global
 73
     1
 78
     1
172
     1
176
     1
270
     1
274
     1
 94
       63
  0
MLEADERSTYLE
  5
389
102
{ACAD_REACTORS
330
2C3
102
}
330
2C3
100
AcDbMLeaderStyle
170
     2
171
     1
172
     0
 90
        2
 40
0.0
 41
0.0
173
     1
 91
-1073741824
340
15
 92
       -1
290
     1
 42
2.0
291
     0
 43
0.0
  3
Standard
 44
4.0
300

342
380
174
     1
178
     1
175
     1
176
     0
 93
-1073741824
 45
2.0
292
     0
297
     0
 46
4.0
343
356
 94
-1056964608
 47
1.0
 49
1.0
140
1.0
293
     1
141
0.0
294
     1
177
     0
142
0.0
295
     0
296
     1
143
0.0
1001
ACAD_MLEADERVER
1070
     2
  0
MLEADERSTYLE
  5
2C4
102
{ACAD_REACTORS
330
2C3
102
}
330
2C3
100
AcDbMLeaderStyle
170
     2
171
     1
172
     0
 90
        2
 40
0.0
 41
0.0
173
     1
 91
-1056964608
340
14
 92
       -2
290
     1
 42
0.09
291
     1
 43
0.36
  3
Standard
 44
0.18
300

342
11
174
     1
178
     6
175
     1
176
     0
 93
-1056964608
 45
0.18
292
     0
297
     0
 46
0.18
 94
-1056964608
 47
1.0
 49
1.0
140
1.0
293
     1
141
0.0
294
     1
177
     0
142
1.0
295
     0
296
     0
143
0.125
1001
ACAD_MLEADERVER
1070
     2
  0
MLINESTYLE
  5
FF37
102
{ACAD_REACTORS
330
17
102
}
330
17
100
AcDbMlineStyle
  2
MP000096$0$STANDARD
 70
     0
  3

 62
   256
 51
90.0
 52
90.0
 71
     2
 49
0.5
 62
   256
  6
BYLAYER
 49
-0.5
 62
   256
  6
BYLAYER
  0
MLINESTYLE
  5
18
102
{ACAD_REACTORS
330
17
102
}
330
17
100
AcDbMlineStyle
  2
STANDARD
 70
     0
  3

 62
   256
 51
90.0
 52
90.0
 71
     2
 49
0.5
 62
   256
  6
BYLAYER
 49
-0.5
 62
   256
  6
BYLAYER
  0
ACDBPLACEHOLDER
  5
F
102
{ACAD_REACTORS
330
E
102
}
330
E
  0
SCALE
  5
13E3
102
{ACAD_REACTORS
330
2A1
102
}
330
2A1
100
AcDbScale
 70
     0
300
1:2_XREF
140
1.0
141
2.0
290
     0
  0
SCALE
  5
13EB
102
{ACAD_REACTORS
330
2A1
102
}
330
2A1
100
AcDbScale
 70
     0
300
1:75_XREF
140
1.0
141
75.0
290
     0
  0
SCALE
  5
13F4
102
{ACAD_REACTORS
330
2A1
102
}
330
2A1
100
AcDbScale
 70
     0
300
1:2000_XREF
140
1.0
141
2000.0
290
     0
  0
SCALE
  5
13F0
102
{ACAD_REACTORS
330
2A1
102
}
330
2A1
100
AcDbScale
 70
     0
300
1:500_XREF
140
1.0
141
500.0
290
     0
  0
SCALE
  5
13E4
102
{ACAD_REACTORS
330
2A1
102
}
330
2A1
100
AcDbScale
 70
     0
300
1:2.5_XREF
140
1.0
141
2.5
290
     0
  0
SCALE
  5
13EF
102
{ACAD_REACTORS
330
2A1
102
}
330
2A1
100
AcDbScale
 70
     0
300
1:250_XREF
140
1.0
141
250.0
290
     0
  0
SCALE
  5
13F2
102
{ACAD_REACTORS
330
2A1
102
}
330
2A1
100
AcDbScale
 70
     0
300
1:1000_XREF
140
1.0
141
1000.0
290
     0
  0
SCALE
  5
13F5
102
{ACAD_REACTORS
330
2A1
102
}
330
2A1
100
AcDbScale
 70
     0
300
1:2500_XREF
140
1.0
141
2500.0
290
     0
  0
SCALE
  5
13E6
102
{ACAD_REACTORS
330
2A1
102
}
330
2A1
100
AcDbScale
 70
     0
300
1:7.5_XREF
140
1.0
141
7.5
290
     0
  0
SCALE
  5
13F3
102
{ACAD_REACTORS
330
2A1
102
}
330
2A1
100
AcDbScale
 70
     0
300
1:1250_XREF
140
1.0
141
1250.0
290
     0
  0
SCALE
  5
13E9
102
{ACAD_REACTORS
330
2A1
102
}
330
2A1
100
AcDbScale
 70
     0
300
1:25_XREF
140
1.0
141
25.0
290
     0
  0
SCALE
  5
13E5
102
{ACAD_REACTORS
330
2A1
102
}
330
2A1
100
AcDbScale
 70
     0
300
1:5_XREF
140
1.0
141
5.0
290
     0
  0
SCALE
  5
13EC
102
{ACAD_REACTORS
330
2A1
102
}
330
2A1
100
AcDbScale
 70
     0
300
1:100_XREF
140
1.0
141
100.0
290
     0
  0
SCALE
  5
13F6
102
{ACAD_REACTORS
330
2A1
102
}
330
2A1
100
AcDbScale
 70
     0
300
1:5000_XREF
140
1.0
141
5000.0
290
     0
  0
SCALE
  5
13E7
102
{ACAD_REACTORS
330
2A1
102
}
330
2A1
100
AcDbScale
 70
     0
300
1:10_XREF
140
1.0
141
10.0
290
     0
  0
SCALE
  5
6492
102
{ACAD_REACTORS
330
2A1
102
}
330
2A1
100
AcDbScale
 70
     0
300
*1:0.5
140
1.0
141
0.5
290
     0
  0
SCALE
  5
13EE
102
{ACAD_REACTORS
330
2A1
102
}
330
2A1
100
AcDbScale
 70
     0
300
1:200_XREF
140
1.0
141
200.0
290
     0
  0
SCALE
  5
13E8
102
{ACAD_REACTORS
330
2A1
102
}
330
2A1
100
AcDbScale
 70
     0
300
1:20_XREF
140
1.0
141
20.0
290
     0
  0
SCALE
  5
13EA
102
{ACAD_REACTORS
330
2A1
102
}
330
2A1
100
AcDbScale
 70
     0
300
1:50_XREF
140
1.0
141
50.0
290
     0
  0
SCALE
  5
13ED
102
{ACAD_REACTORS
330
2A1
102
}
330
2A1
100
AcDbScale
 70
     0
300
1:150_XREF
140
1.0
141
150.0
290
     0
  0
SCALE
  5
13F1
102
{ACAD_REACTORS
330
2A1
102
}
330
2A1
100
AcDbScale
 70
     0
300
1:750_XREF
140
1.0
141
750.0
290
     0
  0
SCALE
  5
A6E
102
{ACAD_REACTORS
330
2A1
102
}
330
2A1
100
AcDbScale
 70
     0
300
*1:1
140
1.0
141
1.0
290
     0
  0
SCALE
  5
A77
102
{ACAD_REACTORS
330
2A1
102
}
330
2A1
100
AcDbScale
 70
     0
300
*1:2.5
140
1.0
141
2.5
290
     0
  0
SCALE
  5
A78
102
{ACAD_REACTORS
330
2A1
102
}
330
2A1
100
AcDbScale
 70
     0
300
*1:25
140
1.0
141
25.0
290
     0
  0
SCALE
  5
A79
102
{ACAD_REACTORS
330
2A1
102
}
330
2A1
100
AcDbScale
 70
     0
300
*1:250
140
1.0
141
250.0
290
     0
  0
SCALE
  5
A7A
102
{ACAD_REACTORS
330
2A1
102
}
330
2A1
100
AcDbScale
 70
     0
300
*1:2500
140
1.0
141
2500.0
290
     0
  0
SCALE
  5
A7B
102
{ACAD_REACTORS
330
2A1
102
}
330
2A1
100
AcDbScale
 70
     0
300
*1:40
140
1.0
141
40.0
290
     0
  0
SCALE
  5
A7C
102
{ACAD_REACTORS
330
2A1
102
}
330
2A1
100
AcDbScale
 70
     0
300
*1:400
140
1.0
141
400.0
290
     0
  0
SCALE
  5
A7D
102
{ACAD_REACTORS
330
2A1
102
}
330
2A1
100
AcDbScale
 70
     0
300
*1:5
140
1.0
141
5.0
290
     0
  0
SCALE
  5
A7E
102
{ACAD_REACTORS
330
2A1
102
}
330
2A1
100
AcDbScale
 70
     0
300
*1:50
140
1.0
141
50.0
290
     0
  0
SCALE
  5
A7F
102
{ACAD_REACTORS
330
2A1
102
}
330
2A1
100
AcDbScale
 70
     0
300
*1:500
140
1.0
141
500.0
290
     0
  0
SCALE
  5
A80
102
{ACAD_REACTORS
330
2A1
102
}
330
2A1
100
AcDbScale
 70
     0
300
*1:5000
140
1.0
141
5000.0
290
     0
  0
SCALE
  5
A6F
102
{ACAD_REACTORS
330
2A1
102
}
330
2A1
100
AcDbScale
 70
     0
300
*1:10
140
1.0
141
10.0
290
     0
  0
SCALE
  5
A81
102
{ACAD_REACTORS
330
2A1
102
}
330
2A1
100
AcDbScale
 70
     0
300
*1:750
140
1.0
141
750.0
290
     0
  0
SCALE
  5
A82
102
{ACAD_REACTORS
330
2A1
102
}
330
2A1
100
AcDbScale
 70
     0
300
*1:8
140
1.0
141
8.0
290
     0
  0
SCALE
  5
A70
102
{ACAD_REACTORS
330
2A1
102
}
330
2A1
100
AcDbScale
 70
     0
300
*1:15
140
1.0
141
15.0
290
     0
  0
SCALE
  5
A71
102
{ACAD_REACTORS
330
2A1
102
}
330
2A1
100
AcDbScale
 70
     0
300
*1:100
140
1.0
141
100.0
290
     0
  0
SCALE
  5
A72
102
{ACAD_REACTORS
330
2A1
102
}
330
2A1
100
AcDbScale
 70
     0
300
*1:1000
140
1.0
141
1000.0
290
     0
  0
SCALE
  5
A73
102
{ACAD_REACTORS
330
2A1
102
}
330
2A1
100
AcDbScale
 70
     0
300
*1:2
140
1.0
141
2.0
290
     0
  0
SCALE
  5
A74
102
{ACAD_REACTORS
330
2A1
102
}
330
2A1
100
AcDbScale
 70
     0
300
*1:20
140
1.0
141
20.0
290
     0
  0
SCALE
  5
A75
102
{ACAD_REACTORS
330
2A1
102
}
330
2A1
100
AcDbScale
 70
     0
300
*1:200
140
1.0
141
200.0
290
     0
  0
SCALE
  5
A76
102
{ACAD_REACTORS
330
2A1
102
}
330
2A1
100
AcDbScale
 70
     0
300
*1:2000
140
1.0
141
2000.0
290
     0
  0
SCALE
  5
2A2
102
{ACAD_REACTORS
330
2A1
102
}
330
2A1
100
AcDbScale
 70
     0
300
1:1
140
1.0
141
1.0
290
     1
  0
TABLESTYLE
  5
FF38
102
{ACAD_XDICTIONARY
360
FF39
102
}
102
{ACAD_REACTORS
330
22B
102
}
330
22B
100
AcDbTableStyle
  3
Standard
 70
     0
 71
     0
 40
0.06
 41
0.06
280
     0
281
     0
  7
mp000096$0$Standard
140
0.18
170
     2
 62
     0
 63
     7
283
     0
 90
      512
 91
        0
  1

274
    -2
284
     1
 64
     0
275
    -2
285
     1
 65
     0
276
    -2
286
     1
 66
     0
277
    -2
287
     1
 67
     0
278
    -2
288
     1
 68
     0
279
    -2
289
     1
 69
     0
  7
mp000096$0$Standard
140
0.25
170
     5
 62
     0
 63
     7
283
     0
 90
      512
 91
        0
  1

274
    -2
284
     1
 64
     0
275
    -2
285
     1
 65
     0
276
    -2
286
     1
 66
     0
277
    -2
287
     1
 67
     0
278
    -2
288
     1
 68
     0
279
    -2
289
     1
 69
     0
  7
mp000096$0$Standard
140
0.18
170
     5
 62
     0
 63
     7
283
     0
 90
      512
 91
        0
  1

274
    -2
284
     1
 64
     0
275
    -2
285
     1
 65
     0
276
    -2
286
     1
 66
     0
277
    -2
287
     1
 67
     0
278
    -2
288
     1
 68
     0
279
    -2
289
     1
 69
     0
  0
TABLESTYLE
  5
22C
102
{ACAD_XDICTIONARY
360
30E
102
}
102
{ACAD_REACTORS
330
22B
102
}
330
22B
100
AcDbTableStyle
  3
Standard
 70
     0
 71
     0
 40
0.06
 41
0.06
280
     0
281
     0
  7
Standard
140
0.18
170
     2
 62
     0
 63
     7
283
     0
 90
      512
 91
        0
  1

274
    -2
284
     1
 64
     0
275
    -2
285
     1
 65
     0
276
    -2
286
     1
 66
     0
277
    -2
287
     1
 67
     0
278
    -2
288
     1
 68
     0
279
    -2
289
     1
 69
     0
  7
Standard
140
0.25
170
     5
 62
     0
 63
     7
283
     0
 90
      512
 91
        0
  1

274
    -2
284
     1
 64
     0
275
    -2
285
     1
 65
     0
276
    -2
286
     1
 66
     0
277
    -2
287
     1
 67
     0
278
    -2
288
     1
 68
     0
279
    -2
289
     1
 69
     0
  7
Standard
140
0.18
170
     5
 62
     0
 63
     7
283
     0
 90
      512
 91
        0
  1

274
    -2
284
     1
 64
     0
275
    -2
285
     1
 65
     0
276
    -2
286
     1
 66
     0
277
    -2
287
     1
 67
     0
278
    -2
288
     1
 68
     0
279
    -2
289
     1
 69
     0
  0
VISUALSTYLE
  5
220
102
{ACAD_REACTORS
330
21A
102
}
330
21A
100
AcDbVisualStyle
  2
2dWireframe
 70
     4
 71
     0
 72
     2
 73
     1
 90
        0
 40
-0.6
 41
-30.0
 62
     5
 63
     7
421
 16777215
 74
     1
 91
        4
 64
     7
 65
   257
 75
     1
175
     1
 42
1.0
 92
        0
 66
   257
 43
1.0
 76
     1
 77
     6
 78
     2
 67
     7
 79
     5
170
     0
171
     0
290
     0
174
     0
 93
        1
 44
0.0
173
     0
291
     0
 45
0.0
  0
VISUALSTYLE
  5
222
102
{ACAD_REACTORS
330
21A
102
}
330
21A
100
AcDbVisualStyle
  2
3D Hidden
 70
     6
 71
     1
 72
     2
 73
     2
 90
        0
 40
-0.6
 41
-30.0
 62
     5
 63
     7
421
 16777215
 74
     2
 91
       10
 64
     7
 65
   257
 75
     2
175
     2
 42
40.0
 92
        0
 66
   257
 43
1.0
 76
     1
 77
     6
 78
     2
 67
     7
 79
     3
170
     0
171
     0
290
     0
174
     0
 93
        1
 44
0.0
173
     0
291
     0
 45
0.0
  0
VISUALSTYLE
  5
221
102
{ACAD_REACTORS
330
21A
102
}
330
21A
100
AcDbVisualStyle
  2
3dWireframe
 70
     5
 71
     0
 72
     2
 73
     1
 90
        0
 40
-0.6
 41
-30.0
 62
     5
 63
     7
421
 16777215
 74
     1
 91
        4
 64
     7
 65
   257
 75
     1
175
     1
 42
1.0
 92
        0
 66
   257
 43
1.0
 76
     1
 77
     6
 78
     2
 67
     7
 79
     5
170
     0
171
     0
290
     0
174
     0
 93
        1
 44
0.0
173
     0
291
     0
 45
0.0
  0
VISUALSTYLE
  5
21F
102
{ACAD_REACTORS
330
21A
102
}
330
21A
100
AcDbVisualStyle
  2
Basic
 70
     7
 71
     1
 72
     0
 73
     1
 90
        0
 40
-0.6
 41
-30.0
 62
     5
 63
     7
421
 16777215
 74
     0
 91
        4
 64
     7
 65
   257
 75
     1
175
     1
 42
1.0
 92
        8
 66
     7
 43
1.0
 76
     1
 77
     6
 78
     2
 67
     7
 79
     5
170
     0
171
     0
290
     0
174
     0
 93
        1
 44
0.0
173
     0
291
     1
 45
0.0
  0
VISUALSTYLE
  5
226
102
{ACAD_REACTORS
330
21A
102
}
330
21A
100
AcDbVisualStyle
  2
Brighten
 70
    12
 71
     2
 72
     2
 73
     1
 90
        0
 40
-0.6
 41
-30.0
 62
     5
 63
     7
421
 16777215
 74
     1
 91
        4
 64
     7
 65
   257
 75
     1
175
     1
 42
1.0
 92
        8
 66
     7
 43
1.0
 76
     1
 77
     6
 78
     2
 67
     7
 79
     5
170
     0
171
     0
290
     0
174
     0
 93
        1
 44
50.0
173
     0
291
     1
 45
0.0
  0
VISUALSTYLE
  5
22A
102
{ACAD_REACTORS
330
21A
102
}
330
21A
100
AcDbVisualStyle
  2
ColorChange
 70
    16
 71
     2
 72
     2
 73
     3
 90
        0
 40
-0.6
 41
-30.0
 62
     5
 63
     8
421
  8421504
 74
     1
 91
        4
 64
     7
 65
   257
 75
     1
175
     1
 42
1.0
 92
        8
 66
     8
424
  8421504
 43
1.0
 76
     1
 77
     6
 78
     2
 67
     7
 79
     5
170
     0
171
     0
290
     0
174
     0
 93
        1
 44
0.0
173
     0
291
     1
 45
0.0
  0
VISUALSTYLE
  5
223
102
{ACAD_XDICTIONARY
360
811
102
}
102
{ACAD_REACTORS
330
21A
102
}
330
21A
100
AcDbVisualStyle
  2
Conceptual
 70
     9
 71
     2
 72
     2
 73
     1
 90
        0
 40
-0.6
 41
-30.0
 62
     5
 63
     7
421
 16777215
 74
     0
 91
        0
 64
     7
 65
   257
 75
     1
175
     1
 42
40.0
 92
        8
 66
     7
 43
1.0
 76
     1
 77
     6
 78
     2
 67
     7
 79
     5
170
     0
171
     0
290
     0
174
     0
 93
       12
 44
0.0
173
     0
291
     0
 45
0.0
  0
VISUALSTYLE
  5
225
102
{ACAD_REACTORS
330
21A
102
}
330
21A
100
AcDbVisualStyle
  2
Dim
 70
    11
 71
     2
 72
     2
 73
     1
 90
        0
 40
-0.6
 41
-30.0
 62
     5
 63
     7
421
 16777215
 74
     1
 91
        4
 64
     7
 65
   257
 75
     1
175
     1
 42
1.0
 92
        8
 66
     7
 43
1.0
 76
     1
 77
     6
 78
     2
 67
     7
 79
     5
170
     0
171
     0
290
     0
174
     0
 93
        1
 44
-50.0
173
     0
291
     1
 45
0.0
  0
VISUALSTYLE
  5
229
102
{ACAD_REACTORS
330
21A
102
}
330
21A
100
AcDbVisualStyle
  2
Facepattern
 70
    15
 71
     2
 72
     2
 73
     1
 90
        0
 40
-0.6
 41
-30.0
 62
     5
 63
     7
421
 16777215
 74
     1
 91
        4
 64
     7
 65
   257
 75
     1
175
     1
 42
1.0
 92
        8
 66
     7
 43
1.0
 76
     1
 77
     6
 78
     2
 67
     7
 79
     5
170
     0
171
     0
290
     0
174
     0
 93
        1
 44
0.0
173
     0
291
     1
 45
0.0
  0
VISUALSTYLE
  5
21B
102
{ACAD_REACTORS
330
21A
102
}
330
21A
100
AcDbVisualStyle
  2
Flat
 70
     0
 71
     2
 72
     1
 73
     1
 90
        2
 40
-0.6
 41
30.0
 62
     5
 63
     7
421
 16777215
 74
     0
 91
        4
 64
     7
 65
   257
 75
     1
175
     1
 42
1.0
 92
        8
 66
     7
 43
1.0
 76
     1
 77
     6
 78
     2
 67
     7
 79
     5
170
     0
171
     0
290
     0
174
     0
 93
        1
 44
0.0
173
     0
291
     1
 45
0.0
  0
VISUALSTYLE
  5
21C
102
{ACAD_REACTORS
330
21A
102
}
330
21A
100
AcDbVisualStyle
  2
FlatWithEdges
 70
     1
 71
     2
 72
     1
 73
     1
 90
        2
 40
-0.6
 41
30.0
 62
     5
 63
     7
421
 16777215
 74
     1
 91
        4
 64
     7
 65
   257
 75
     1
175
     1
 42
1.0
 92
        0
 66
   257
 43
1.0
 76
     1
 77
     6
 78
     2
 67
     7
 79
     5
170
     0
171
     0
290
     0
174
     0
 93
        1
 44
0.0
173
     0
291
     1
 45
0.0
  0
VISUALSTYLE
  5
21D
102
{ACAD_REACTORS
330
21A
102
}
330
21A
100
AcDbVisualStyle
  2
Gouraud
 70
     2
 71
     2
 72
     2
 73
     1
 90
        2
 40
-0.6
 41
30.0
 62
     5
 63
     7
421
 16777215
 74
     0
 91
        4
 64
     7
 65
   257
 75
     1
175
     1
 42
1.0
 92
        0
 66
     7
 43
1.0
 76
     1
 77
     6
 78
     2
 67
     7
 79
     5
170
     0
171
     0
290
     0
174
     0
 93
        1
 44
0.0
173
     0
291
     1
 45
0.0
  0
VISUALSTYLE
  5
21E
102
{ACAD_REACTORS
330
21A
102
}
330
21A
100
AcDbVisualStyle
  2
GouraudWithEdges
 70
     3
 71
     2
 72
     2
 73
     1
 90
        2
 40
-0.6
 41
30.0
 62
     5
 63
     7
421
 16777215
 74
     1
 91
        4
 64
     7
 65
   257
 75
     1
175
     1
 42
1.0
 92
        0
 66
   257
 43
1.0
 76
     1
 77
     6
 78
     2
 67
     7
 79
     5
170
     0
171
     0
290
     0
174
     0
 93
        1
 44
0.0
173
     0
291
     1
 45
0.0
  0
VISUALSTYLE
  5
228
102
{ACAD_REACTORS
330
21A
102
}
330
21A
100
AcDbVisualStyle
  2
Linepattern
 70
    14
 71
     2
 72
     2
 73
     1
 90
        0
 40
-0.6
 41
-30.0
 62
     5
 63
     7
421
 16777215
 74
     1
 91
        4
 64
     7
 65
   257
 75
     7
175
     7
 42
1.0
 92
        8
 66
     7
 43
1.0
 76
     1
 77
     6
 78
     2
 67
     7
 79
     5
170
     0
171
     0
290
     0
174
     0
 93
        1
 44
0.0
173
     0
291
     1
 45
0.0
  0
VISUALSTYLE
  5
224
102
{ACAD_REACTORS
330
21A
102
}
330
21A
100
AcDbVisualStyle
  2
Realistic
 70
     8
 71
     2
 72
     2
 73
     1
 90
        0
 40
-0.6
 41
-30.0
 62
     5
 63
     7
421
 16777215
 74
     1
 91
        0
 64
     7
 65
   257
 75
     1
175
     1
 42
1.0
 92
        8
 66
     7
 43
1.0
 76
     1
 77
     6
 78
     2
 67
     7
 79
     5
170
     0
171
     0
290
     0
174
     0
 93
       13
 44
0.0
173
     0
291
     0
 45
0.0
  0
VISUALSTYLE
  5
227
102
{ACAD_REACTORS
330
21A
102
}
330
21A
100
AcDbVisualStyle
  2
Thicken
 70
    13
 71
     2
 72
     2
 73
     1
 90
        0
 40
-0.6
 41
-30.0
 62
     5
 63
     7
421
 16777215
 74
     1
 91
        4
 64
     7
 65
   257
 75
     1
175
     1
 42
1.0
 92
       12
 66
     7
 43
1.0
 76
     1
 77
     6
 78
     2
 67
     7
 79
     5
170
     0
171
     0
290
     0
174
     0
 93
        1
 44
0.0
173
     0
291
     1
 45
0.0
  0
DICTIONARY
  5
A22
102
{ACAD_REACTORS
330
A21
102
}
330
A21
100
AcDbDictionary
280
     1
281
     1
  3
DefaultStandard
360
A38
  3
Standards
360
A23
  0
DICTIONARYVAR
  5
6424
102
{ACAD_REACTORS
330
25B
102
}
330
25B
100
DictionaryVariables
280
     0
  1
1
  0
DICTIONARYVAR
  5
313
102
{ACAD_REACTORS
330
25B
102
}
330
25B
100
DictionaryVariables
280
     0
  1
*1:10
  0
DICTIONARYVAR
  5
311
102
{ACAD_REACTORS
330
25B
102
}
330
25B
100
DictionaryVariables
280
     0
  1
2mm
  0
DICTIONARYVAR
  5
25C
102
{ACAD_REACTORS
330
25B
102
}
330
25B
100
DictionaryVariables
280
     0
  1
STANDARD
  0
DICTIONARYVAR
  5
315
102
{ACAD_REACTORS
330
25B
102
}
330
25B
100
DictionaryVariables
280
     0
  1
1
  0
DICTIONARYVAR
  5
316
102
{ACAD_REACTORS
330
25B
102
}
330
25B
100
DictionaryVariables
280
     0
  1
15
  0
DICTIONARYVAR
  5
314
102
{ACAD_REACTORS
330
25B
102
}
330
25B
100
DictionaryVariables
280
     0
  1
0
  0
DICTIONARYVAR
  5
A3E
102
{ACAD_REACTORS
330
25B
102
}
330
25B
100
DictionaryVariables
280
     0
  1
0.000000
  0
DICTIONARYVAR
  5
312
102
{ACAD_REACTORS
330
25B
102
}
330
25B
100
DictionaryVariables
280
     0
  1
0
  0
XRECORD
  5
3E44
102
{ACAD_REACTORS
330
3E43
102
}
330
3E43
100
AcDbXrecord
280
     1
330
0
330
0
330
0
  0
XRECORD
  5
3D97
102
{ACAD_XDICTIONARY
360
3D98
102
}
102
{ACAD_REACTORS
330
290
102
}
330
290
100
AcDbXrecord
280
     1
 91
      514
301

290
     0
302
0
330
0
 90
        8
 62
     7
370
    -3
331
16
  1
Color_7
330
0
 90
        8
 62
     7
370
    -3
331
16
  1
Color_7
330
0
 90
        8
 62
     7
370
    -3
331
16
  1
Color_7
330
0
 90
        0
 62
    30
370
    -3
331
16
  1
Color_30
330
0
 90
        8
 62
   252
370
    -3
331
16
  1
Color_252
330
0
 90
        8
 62
     3
370
    30
331
16
  1
Color_3
330
0
 90
        8
 62
   253
370
    -3
331
16
  1
Color_253
330
0
 90
        8
 62
     1
370
    -3
331
16
  1
Color_1
330
0
 90
        0
 62
     5
370
    -3
331
16
  1
Color_5
330
0
 90
        8
 62
     2
370
    -3
331
16
  1
Color_2
330
0
 90
        0
 62
   178
370
    -3
331
16
  1
Color_178
 92
-1039794079
330
0
 90
        8
 62
     7
370
    -3
331
16
  1
Color_7
330
0
 90
        8
 62
     7
370
    -3
331
16
  1
Color_7
330
0
 90
        8
 62
     7
370
    -3
331
16
  1
Color_7
330
0
 90
        8
 62
     7
370
    -3
331
16
  1
Color_7
330
0
 90
        8
 62
     7
370
    -3
331
16
  1
Color_7
330
0
 90
        0
 62
     4
370
    -3
331
16
  1
Color_4
330
0
 90
        0
 62
     7
370
    -3
331
16
  1
Color_7
330
37D
 90
        0
 62
     7
370
    -3
331
16
  1
Color_7
330
10
 90
        8
 62
     7
370
    -3
331
16
  1
Color_7
330
0
 90
       10
 62
     7
370
    -3
331
16
  1
Color_7
330
0
 90
       10
 62
     7
370
    -3
331
16
  1
Color_7
330
0
 90
       10
 62
     7
370
    -3
331
16
  1
Color_7
330
0
 90
       10
 62
     7
370
    -3
331
16
  1
Color_7
330
0
 90
       10
 62
     7
370
    -3
331
16
  1
Color_7
330
0
 90
       10
 62
     7
370
    -3
331
16
  1
Color_7
330
0
 90
       10
 62
     7
370
    -3
331
16
  1
Color_7
330
0
 90
       10
 62
     7
370
    -3
331
16
  1
Color_7
330
0
 90
       10
 62
     7
370
    -3
331
16
  1
Color_7
330
0
 90
       10
 62
     7
370
    -3
331
16
  1
Color_7
330
0
 90
       10
 62
     7
370
    -3
331
16
  1
Color_7
330
0
 90
       10
 62
     7
370
    -3
331
16
  1
Color_7
330
0
 90
       10
 62
     7
370
    -3
331
16
  1
Color_7
330
0
 90
       10
 62
     7
370
    -3
331
16
  1
Color_7
330
0
 90
       10
 62
     7
370
    -3
331
16
  1
Color_7
330
0
 90
       10
 62
     7
370
    -3
331
16
  1
Color_7
330
0
 90
       10
 62
     7
370
    -3
331
16
  1
Color_7
330
0
 90
       10
 62
     7
370
    -3
331
16
  1
Color_7
330
0
 90
       10
 62
     7
370
    -3
331
16
  1
Color_7
330
0
 90
       10
 62
     7
370
    -3
331
16
  1
Color_7
330
0
 90
       10
 62
     7
370
    -3
331
16
  1
Color_7
330
0
 90
       10
 62
     7
370
    -3
331
16
  1
Color_7
330
0
 90
       10
 62
     7
370
    -3
331
16
  1
Color_7
330
0
 90
       10
 62
     7
370
    -3
331
16
  1
Color_7
330
0
 90
       10
 62
     7
370
    -3
331
16
  1
Color_7
330
0
 90
       10
 62
     7
370
    -3
331
16
  1
Color_7
330
0
 90
       10
 62
     7
370
    -3
331
16
  1
Color_7
330
0
 90
       10
 62
     7
370
    -3
331
16
  1
Color_7
330
0
 90
       10
 62
     7
370
    -3
331
16
  1
Color_7
330
0
 90
       10
 62
     7
370
    -3
331
16
  1
Color_7
330
0
 90
       10
 62
     7
370
    -3
331
16
  1
Color_7
330
0
 90
       10
 62
     7
370
    -3
331
16
  1
Color_7
330
0
 90
       10
 62
     7
370
    -3
331
16
  1
Color_7
330
0
 90
       10
 62
     7
370
    -3
331
16
  1
Color_7
330
0
 90
       10
 62
     7
370
    -3
331
16
  1
Color_7
330
0
 90
       10
 62
     7
370
    -3
331
16
  1
Color_7
330
0
 90
       10
 62
     7
370
    -3
331
16
  1
Color_7
330
0
 90
       10
 62
     7
370
    -3
331
16
  1
Color_7
330
0
 90
       10
 62
     7
370
    -3
331
16
  1
Color_7
330
0
 90
       10
 62
     7
370
    -3
331
16
  1
Color_7
330
0
 90
       10
 62
     7
370
    -3
331
16
  1
Color_7
330
0
 90
       10
 62
     7
370
    -3
331
16
  1
Color_7
330
0
 90
       10
 62
     7
370
    -3
331
16
  1
Color_7
330
0
 90
       10
 62
     7
370
    -3
331
16
  1
Color_7
330
0
 90
       10
 62
     7
370
    -3
331
16
  1
Color_7
330
0
 90
       10
 62
     7
370
    -3
331
16
  1
Color_7
330
0
 90
       10
 62
     7
370
    -3
331
16
  1
Color_7
330
0
 90
       10
 62
     7
370
    -3
331
16
  1
Color_7
330
0
 90
       10
 62
     7
370
    -3
331
16
  1
Color_7
330
0
 90
       10
 62
     7
370
    -3
331
16
  1
Color_7
330
0
 90
       10
 62
     7
370
    -3
331
16
  1
Color_7
330
0
 90
       10
 62
     7
370
    -3
331
16
  1
Color_7
330
0
 90
       10
 62
     7
370
    -3
331
16
  1
Color_7
330
0
 90
       10
 62
     7
370
    -3
331
16
  1
Color_7
330
0
 90
       10
 62
     7
370
    -3
331
16
  1
Color_7
330
0
 90
       10
 62
     7
370
    -3
331
16
  1
Color_7
330
0
 90
       10
 62
     7
370
    -3
331
16
  1
Color_7
330
0
 90
       10
 62
     7
370
    -3
331
16
  1
Color_7
330
0
 90
       10
 62
     7
370
    -3
331
16
  1
Color_7
330
0
 90
       10
 62
     7
370
    -3
331
16
  1
Color_7
330
0
 90
       10
 62
     7
370
    -3
331
16
  1
Color_7
330
0
 90
       10
 62
     7
370
    -3
331
16
  1
Color_7
330
0
 90
       10
 62
     7
370
    -3
331
16
  1
Color_7
330
0
 90
       10
 62
     7
370
    -3
331
16
  1
Color_7
330
0
 90
       10
 62
     7
370
    -3
331
16
  1
Color_7
330
0
 90
       10
 62
     7
370
    -3
331
16
  1
Color_7
330
0
 90
       10
 62
     7
370
    -3
331
16
  1
Color_7
330
0
 90
       10
 62
     7
370
    -3
331
16
  1
Color_7
330
0
 90
       10
 62
     7
370
    -3
331
16
  1
Color_7
330
0
 90
       10
 62
     7
370
    -3
331
16
  1
Color_7
330
0
 90
       10
 62
     7
370
    -3
331
16
  1
Color_7
330
0
 90
       10
 62
     7
370
    -3
331
16
  1
Color_7
330
0
 90
       10
 62
     7
370
    -3
331
16
  1
Color_7
330
0
 90
       10
 62
     7
370
    -3
331
16
  1
Color_7
330
0
 90
       10
 62
     7
370
    -3
331
16
  1
Color_7
330
0
 90
       10
 62
     7
370
    -3
331
16
  1
Color_7
330
0
 90
       10
 62
     7
370
    -3
331
16
  1
Color_7
330
0
 90
       10
 62
     7
370
    -3
331
16
  1
Color_7
330
0
 90
       10
 62
     7
370
    -3
331
16
  1
Color_7
330
0
 90
        2
 62
     7
370
    -3
331
16
  1
Color_7
330
0
 90
       10
 62
     7
370
    -3
331
16
  1
Color_7
330
0
 90
       10
 62
     7
370
    -3
331
16
  1
Color_7
330
0
 90
       10
 62
     7
370
    -3
331
16
  1
Color_7
330
0
 90
        2
 62
     7
370
    -3
331
16
  1
Color_7
330
0
 90
       10
 62
     7
370
    -3
331
16
  1
Color_7
330
0
 90
        2
 62
     7
370
    -3
331
16
  1
Color_7
330
0
 90
       10
 62
     7
370
    -3
331
16
  1
Color_7
330
0
 90
        2
 62
     7
370
    -3
331
16
  1
Color_7
330
0
 90
       10
 62
     7
370
    -3
331
16
  1
Color_7
330
0
 90
        2
 62
     7
370
    -3
331
16
  1
Color_7
330
0
 90
       10
 62
     7
370
    -3
331
16
  1
Color_7
330
0
 90
        2
 62
     7
370
    -3
331
16
  1
Color_7
330
0
 90
       10
 62
     7
370
    -3
331
16
  1
Color_7
330
0
 90
        2
 62
     7
370
    -3
331
16
  1
Color_7
330
0
 90
       10
 62
     7
370
    -3
331
16
  1
Color_7
330
0
 90
        2
 62
     7
370
    -3
331
16
  1
Color_7
330
0
 90
       10
 62
     7
370
    -3
331
16
  1
Color_7
330
0
 90
        2
 62
     7
370
    -3
331
16
  1
Color_7
330
0
 90
       10
 62
     7
370
    -3
331
16
  1
Color_7
330
0
 90
        2
 62
     7
370
    -3
331
16
  1
Color_7
330
0
 90
       10
 62
     7
370
    -3
331
16
  1
Color_7
330
0
 90
        2
 62
     7
370
    -3
331
16
  1
Color_7
330
0
 90
       10
 62
     7
370
    -3
331
16
  1
Color_7
330
0
 90
        2
 62
     7
370
    -3
331
16
  1
Color_7
330
0
 90
       10
 62
     7
370
    -3
331
16
  1
Color_7
330
0
 90
        2
 62
     7
370
    -3
331
16
  1
Color_7
330
0
 90
       10
 62
     7
370
    -3
331
16
  1
Color_7
330
0
 90
        2
 62
     7
370
    -3
331
16
  1
Color_7
330
0
 90
       10
 62
     7
370
    -3
331
16
  1
Color_7
330
0
 90
        2
 62
     7
370
    -3
331
16
  1
Color_7
330
0
 90
       10
 62
     7
370
    -3
331
16
  1
Color_7
330
0
 90
        2
 62
     7
370
    -3
331
16
  1
Color_7
330
0
 90
       10
 62
     7
370
    -3
331
16
  1
Color_7
330
0
 90
        2
 62
     7
370
    -3
331
16
  1
Color_7
330
0
 90
       10
 62
     7
370
    -3
331
16
  1
Color_7
330
0
 90
        2
 62
     7
370
    -3
331
16
  1
Color_7
330
0
 90
       10
 62
     7
370
    -3
331
16
  1
Color_7
330
0
 90
        2
 62
     7
370
    -3
331
16
  1
Color_7
330
0
 90
       10
 62
     7
370
    -3
331
16
  1
Color_7
330
0
 90
        2
 62
     7
370
    -3
331
16
  1
Color_7
330
0
 90
       10
 62
     7
370
    -3
331
16
  1
Color_7
330
0
 90
        2
 62
     7
370
    -3
331
16
  1
Color_7
330
0
 90
       10
 62
     7
370
    -3
331
16
  1
Color_7
330
0
 90
        2
 62
     7
370
    -3
331
16
  1
Color_7
330
0
 90
       10
 62
     7
370
    -3
331
16
  1
Color_7
330
0
 90
        2
 62
     7
370
    -3
331
16
  1
Color_7
330
0
 90
       10
 62
     7
370
    -3
331
16
  1
Color_7
330
0
 90
        2
 62
     7
370
    -3
331
16
  1
Color_7
330
0
 90
       10
 62
     7
370
    -3
331
16
  1
Color_7
330
0
 90
        2
 62
     7
370
    -3
331
16
  1
Color_7
330
0
 90
       10
 62
     7
370
    -3
331
16
  1
Color_7
330
0
 90
        2
 62
     7
370
    -3
331
16
  1
Color_7
330
0
 90
       10
 62
     7
370
    -3
331
16
  1
Color_7
330
0
 90
        2
 62
     7
370
    -3
331
16
  1
Color_7
330
0
 90
       10
 62
     7
370
    -3
331
16
  1
Color_7
330
0
 90
        2
 62
     7
370
    -3
331
16
  1
Color_7
330
0
 90
       10
 62
     7
370
    -3
331
16
  1
Color_7
330
0
 90
        2
 62
     7
370
    -3
331
16
  1
Color_7
330
0
 90
       10
 62
     7
370
    -3
331
16
  1
Color_7
330
0
 90
        2
 62
     7
370
    -3
331
16
  1
Color_7
330
0
 90
       10
 62
     7
370
    -3
331
16
  1
Color_7
330
0
 90
        2
 62
     7
370
    -3
331
16
  1
Color_7
330
0
 90
       10
 62
     7
370
    -3
331
16
  1
Color_7
330
0
 90
        2
 62
     7
370
    -3
331
16
  1
Color_7
330
0
 90
       10
 62
     7
370
    -3
331
16
  1
Color_7
330
0
 90
        2
 62
     7
370
    -3
331
16
  1
Color_7
330
0
 90
       10
 62
     7
370
    -3
331
16
  1
Color_7
330
0
 90
        2
 62
     7
370
    -3
331
16
  1
Color_7
330
0
 90
       10
 62
     7
370
    -3
331
16
  1
Color_7
330
0
 90
        2
 62
     7
370
    -3
331
16
  1
Color_7
330
0
 90
       10
 62
     7
370
    -3
331
16
  1
Color_7
330
0
 90
        2
 62
     7
370
    -3
331
16
  1
Color_7
330
0
 90
       10
 62
     7
370
    -3
331
16
  1
Color_7
330
0
 90
        2
 62
     7
370
    -3
331
16
  1
Color_7
330
0
 90
       10
 62
     7
370
    -3
331
16
  1
Color_7
330
0
 90
        2
 62
     7
370
    -3
331
16
  1
Color_7
  0
XRECORD
  5
3D8B
102
{ACAD_XDICTIONARY
360
3D8C
102
}
102
{ACAD_REACTORS
330
290
102
}
330
290
100
AcDbXrecord
280
     1
 91
      514
301

290
     0
302
0
330
0
 90
       10
 62
     7
370
    -3
331
16
  1
Color_7
330
0
 90
       10
 62
     7
370
    -3
331
16
  1
Color_7
330
0
 90
       10
 62
     7
370
    -3
331
16
  1
Color_7
330
0
 90
        2
 62
    30
370
    -3
331
16
  1
Color_30
330
0
 90
       10
 62
   252
370
    -3
331
16
  1
Color_252
330
0
 90
       10
 62
     3
370
    30
331
16
  1
Color_3
330
0
 90
       10
 62
   253
370
    -3
331
16
  1
Color_253
330
0
 90
       10
 62
     1
370
    -3
331
16
  1
Color_1
330
0
 90
        2
 62
     5
370
    -3
331
16
  1
Color_5
330
0
 90
       10
 62
     2
370
    -3
331
16
  1
Color_2
330
0
 90
        2
 62
   178
370
    -3
331
16
  1
Color_178
 92
-1039794079
330
0
 90
       10
 62
     7
370
    -3
331
16
  1
Color_7
330
0
 90
       10
 62
     7
370
    -3
331
16
  1
Color_7
330
0
 90
       10
 62
     7
370
    -3
331
16
  1
Color_7
330
0
 90
       10
 62
     7
370
    -3
331
16
  1
Color_7
330
0
 90
       10
 62
     7
370
    -3
331
16
  1
Color_7
330
0
 90
        2
 62
     4
370
    -3
331
16
  1
Color_4
330
0
 90
        2
 62
     7
370
    -3
331
16
  1
Color_7
330
10
 90
        8
 62
     7
370
    -3
331
16
  1
Color_7
330
37D
 90
        0
 62
     7
370
    -3
331
16
  1
Color_7
330
0
 90
       10
 62
     7
370
    -3
331
16
  1
Color_7
330
0
 90
       10
 62
     7
370
    -3
331
16
  1
Color_7
330
0
 90
       10
 62
     7
370
    -3
331
16
  1
Color_7
330
0
 90
       10
 62
     7
370
    -3
331
16
  1
Color_7
330
0
 90
       10
 62
     7
370
    -3
331
16
  1
Color_7
330
0
 90
       10
 62
     7
370
    -3
331
16
  1
Color_7
330
0
 90
       10
 62
     7
370
    -3
331
16
  1
Color_7
330
0
 90
       10
 62
     7
370
    -3
331
16
  1
Color_7
330
0
 90
       10
 62
     7
370
    -3
331
16
  1
Color_7
330
0
 90
       10
 62
     7
370
    -3
331
16
  1
Color_7
330
0
 90
       10
 62
     7
370
    -3
331
16
  1
Color_7
330
0
 90
       10
 62
     7
370
    -3
331
16
  1
Color_7
330
0
 90
       10
 62
     7
370
    -3
331
16
  1
Color_7
330
0
 90
       10
 62
     7
370
    -3
331
16
  1
Color_7
330
0
 90
       10
 62
     7
370
    -3
331
16
  1
Color_7
330
0
 90
       10
 62
     7
370
    -3
331
16
  1
Color_7
330
0
 90
       10
 62
     7
370
    -3
331
16
  1
Color_7
330
0
 90
       10
 62
     7
370
    -3
331
16
  1
Color_7
330
0
 90
       10
 62
     7
370
    -3
331
16
  1
Color_7
330
0
 90
       10
 62
     7
370
    -3
331
16
  1
Color_7
330
0
 90
       10
 62
     7
370
    -3
331
16
  1
Color_7
330
0
 90
       10
 62
     7
370
    -3
331
16
  1
Color_7
330
0
 90
       10
 62
     7
370
    -3
331
16
  1
Color_7
330
0
 90
       10
 62
     7
370
    -3
331
16
  1
Color_7
330
0
 90
       10
 62
     7
370
    -3
331
16
  1
Color_7
330
0
 90
       10
 62
     7
370
    -3
331
16
  1
Color_7
330
0
 90
       10
 62
     7
370
    -3
331
16
  1
Color_7
330
0
 90
       10
 62
     7
370
    -3
331
16
  1
Color_7
330
0
 90
       10
 62
     7
370
    -3
331
16
  1
Color_7
330
0
 90
       10
 62
     7
370
    -3
331
16
  1
Color_7
330
0
 90
       10
 62
     7
370
    -3
331
16
  1
Color_7
330
0
 90
       10
 62
     7
370
    -3
331
16
  1
Color_7
330
0
 90
       10
 62
     7
370
    -3
331
16
  1
Color_7
330
0
 90
       10
 62
     7
370
    -3
331
16
  1
Color_7
330
0
 90
       10
 62
     7
370
    -3
331
16
  1
Color_7
330
0
 90
       10
 62
     7
370
    -3
331
16
  1
Color_7
330
0
 90
       10
 62
     7
370
    -3
331
16
  1
Color_7
330
0
 90
       10
 62
     7
370
    -3
331
16
  1
Color_7
330
0
 90
       10
 62
     7
370
    -3
331
16
  1
Color_7
330
0
 90
       10
 62
     7
370
    -3
331
16
  1
Color_7
330
0
 90
       10
 62
     7
370
    -3
331
16
  1
Color_7
330
0
 90
       10
 62
     7
370
    -3
331
16
  1
Color_7
330
0
 90
       10
 62
     7
370
    -3
331
16
  1
Color_7
330
0
 90
       10
 62
     7
370
    -3
331
16
  1
Color_7
330
0
 90
       10
 62
     7
370
    -3
331
16
  1
Color_7
330
0
 90
       10
 62
     7
370
    -3
331
16
  1
Color_7
330
0
 90
       10
 62
     7
370
    -3
331
16
  1
Color_7
330
0
 90
       10
 62
     7
370
    -3
331
16
  1
Color_7
330
0
 90
       10
 62
     7
370
    -3
331
16
  1
Color_7
330
0
 90
       10
 62
     7
370
    -3
331
16
  1
Color_7
330
0
 90
       10
 62
     7
370
    -3
331
16
  1
Color_7
330
0
 90
       10
 62
     7
370
    -3
331
16
  1
Color_7
330
0
 90
       10
 62
     7
370
    -3
331
16
  1
Color_7
330
0
 90
       10
 62
     7
370
    -3
331
16
  1
Color_7
330
0
 90
       10
 62
     7
370
    -3
331
16
  1
Color_7
330
0
 90
       10
 62
     7
370
    -3
331
16
  1
Color_7
330
0
 90
       10
 62
     7
370
    -3
331
16
  1
Color_7
330
0
 90
       10
 62
     7
370
    -3
331
16
  1
Color_7
330
0
 90
       10
 62
     7
370
    -3
331
16
  1
Color_7
330
0
 90
       10
 62
     7
370
    -3
331
16
  1
Color_7
330
0
 90
       10
 62
     7
370
    -3
331
16
  1
Color_7
330
0
 90
       10
 62
     7
370
    -3
331
16
  1
Color_7
330
0
 90
       10
 62
     7
370
    -3
331
16
  1
Color_7
330
0
 90
       10
 62
     7
370
    -3
331
16
  1
Color_7
330
0
 90
       10
 62
     7
370
    -3
331
16
  1
Color_7
330
0
 90
       10
 62
     7
370
    -3
331
16
  1
Color_7
330
0
 90
       10
 62
     7
370
    -3
331
16
  1
Color_7
330
0
 90
       10
 62
     7
370
    -3
331
16
  1
Color_7
330
0
 90
       10
 62
     7
370
    -3
331
16
  1
Color_7
330
0
 90
       10
 62
     7
370
    -3
331
16
  1
Color_7
330
0
 90
       10
 62
     7
370
    -3
331
16
  1
Color_7
330
0
 90
       10
 62
     7
370
    -3
331
16
  1
Color_7
330
0
 90
       10
 62
     7
370
    -3
331
16
  1
Color_7
330
0
 90
       10
 62
     7
370
    -3
331
16
  1
Color_7
330
0
 90
       10
 62
     7
370
    -3
331
16
  1
Color_7
330
0
 90
       10
 62
     7
370
    -3
331
16
  1
Color_7
330
0
 90
       10
 62
     7
370
    -3
331
16
  1
Color_7
330
0
 90
       10
 62
     7
370
    -3
331
16
  1
Color_7
330
0
 90
       10
 62
     7
370
    -3
331
16
  1
Color_7
330
0
 90
        2
 62
     7
370
    -3
331
16
  1
Color_7
330
0
 90
       10
 62
     7
370
    -3
331
16
  1
Color_7
330
0
 90
       10
 62
     7
370
    -3
331
16
  1
Color_7
330
0
 90
       10
 62
     7
370
    -3
331
16
  1
Color_7
330
0
 90
        2
 62
     7
370
    -3
331
16
  1
Color_7
330
0
 90
       10
 62
     7
370
    -3
331
16
  1
Color_7
330
0
 90
        2
 62
     7
370
    -3
331
16
  1
Color_7
330
0
 90
       10
 62
     7
370
    -3
331
16
  1
Color_7
330
0
 90
        2
 62
     7
370
    -3
331
16
  1
Color_7
330
0
 90
       10
 62
     7
370
    -3
331
16
  1
Color_7
330
0
 90
        2
 62
     7
370
    -3
331
16
  1
Color_7
330
0
 90
       10
 62
     7
370
    -3
331
16
  1
Color_7
330
0
 90
        2
 62
     7
370
    -3
331
16
  1
Color_7
330
0
 90
       10
 62
     7
370
    -3
331
16
  1
Color_7
330
0
 90
        2
 62
     7
370
    -3
331
16
  1
Color_7
330
0
 90
       10
 62
     7
370
    -3
331
16
  1
Color_7
330
0
 90
        2
 62
     7
370
    -3
331
16
  1
Color_7
330
0
 90
       10
 62
     7
370
    -3
331
16
  1
Color_7
330
0
 90
        2
 62
     7
370
    -3
331
16
  1
Color_7
330
0
 90
       10
 62
     7
370
    -3
331
16
  1
Color_7
330
0
 90
        2
 62
     7
370
    -3
331
16
  1
Color_7
330
0
 90
       10
 62
     7
370
    -3
331
16
  1
Color_7
330
0
 90
        2
 62
     7
370
    -3
331
16
  1
Color_7
330
0
 90
       10
 62
     7
370
    -3
331
16
  1
Color_7
330
0
 90
        2
 62
     7
370
    -3
331
16
  1
Color_7
330
0
 90
       10
 62
     7
370
    -3
331
16
  1
Color_7
330
0
 90
        2
 62
     7
370
    -3
331
16
  1
Color_7
330
0
 90
       10
 62
     7
370
    -3
331
16
  1
Color_7
330
0
 90
        2
 62
     7
370
    -3
331
16
  1
Color_7
330
0
 90
       10
 62
     7
370
    -3
331
16
  1
Color_7
330
0
 90
        2
 62
     7
370
    -3
331
16
  1
Color_7
330
0
 90
       10
 62
     7
370
    -3
331
16
  1
Color_7
330
0
 90
        2
 62
     7
370
    -3
331
16
  1
Color_7
330
0
 90
       10
 62
     7
370
    -3
331
16
  1
Color_7
330
0
 90
        2
 62
     7
370
    -3
331
16
  1
Color_7
330
0
 90
       10
 62
     7
370
    -3
331
16
  1
Color_7
330
0
 90
        2
 62
     7
370
    -3
331
16
  1
Color_7
330
0
 90
       10
 62
     7
370
    -3
331
16
  1
Color_7
330
0
 90
        2
 62
     7
370
    -3
331
16
  1
Color_7
330
0
 90
       10
 62
     7
370
    -3
331
16
  1
Color_7
330
0
 90
        2
 62
     7
370
    -3
331
16
  1
Color_7
330
0
 90
       10
 62
     7
370
    -3
331
16
  1
Color_7
330
0
 90
        2
 62
     7
370
    -3
331
16
  1
Color_7
330
0
 90
       10
 62
     7
370
    -3
331
16
  1
Color_7
330
0
 90
        2
 62
     7
370
    -3
331
16
  1
Color_7
330
0
 90
       10
 62
     7
370
    -3
331
16
  1
Color_7
330
0
 90
        2
 62
     7
370
    -3
331
16
  1
Color_7
330
0
 90
       10
 62
     7
370
    -3
331
16
  1
Color_7
330
0
 90
        2
 62
     7
370
    -3
331
16
  1
Color_7
330
0
 90
       10
 62
     7
370
    -3
331
16
  1
Color_7
330
0
 90
        2
 62
     7
370
    -3
331
16
  1
Color_7
330
0
 90
       10
 62
     7
370
    -3
331
16
  1
Color_7
330
0
 90
        2
 62
     7
370
    -3
331
16
  1
Color_7
330
0
 90
       10
 62
     7
370
    -3
331
16
  1
Color_7
330
0
 90
        2
 62
     7
370
    -3
331
16
  1
Color_7
330
0
 90
       10
 62
     7
370
    -3
331
16
  1
Color_7
330
0
 90
        2
 62
     7
370
    -3
331
16
  1
Color_7
330
0
 90
       10
 62
     7
370
    -3
331
16
  1
Color_7
330
0
 90
        2
 62
     7
370
    -3
331
16
  1
Color_7
330
0
 90
       10
 62
     7
370
    -3
331
16
  1
Color_7
330
0
 90
        2
 62
     7
370
    -3
331
16
  1
Color_7
330
0
 90
       10
 62
     7
370
    -3
331
16
  1
Color_7
330
0
 90
        2
 62
     7
370
    -3
331
16
  1
Color_7
330
0
 90
       10
 62
     7
370
    -3
331
16
  1
Color_7
330
0
 90
        2
 62
     7
370
    -3
331
16
  1
Color_7
330
0
 90
       10
 62
     7
370
    -3
331
16
  1
Color_7
330
0
 90
        2
 62
     7
370
    -3
331
16
  1
Color_7
330
0
 90
       10
 62
     7
370
    -3
331
16
  1
Color_7
330
0
 90
        2
 62
     7
370
    -3
331
16
  1
Color_7
330
0
 90
       10
 62
     7
370
    -3
331
16
  1
Color_7
330
0
 90
        2
 62
     7
370
    -3
331
16
  1
Color_7
330
0
 90
       10
 62
     7
370
    -3
331
16
  1
Color_7
330
0
 90
        2
 62
     7
370
    -3
331
16
  1
Color_7
330
0
 90
       10
 62
     7
370
    -3
331
16
  1
Color_7
330
0
 90
        2
 62
     7
370
    -3
331
16
  1
Color_7
330
0
 90
       10
 62
     7
370
    -3
331
16
  1
Color_7
330
0
 90
        2
 62
     7
370
    -3
331
16
  1
Color_7
  0
XRECORD
  5
FF25
102
{ACAD_XDICTIONARY
360
FF26
102
}
102
{ACAD_REACTORS
330
290
102
}
330
290
100
AcDbXrecord
280
     1
 91
      514
301

290
     0
302
0
330
0
 90
        8
 62
     7
370
    -3
  6
Continuous
  1
Color_7
330
0
 90
        8
 62
     7
370
    -3
  6
Continuous
  1
Color_7
330
0
 90
        8
 62
     7
370
    -3
  6
Continuous
  1
Color_7
330
0
 90
        0
 62
    30
370
    -3
  6
Continuous
  1
Color_30
330
0
 90
        8
 62
   252
370
    -3
  6
Continuous
  1
Color_252
330
0
 90
        8
 62
     3
370
    30
  6
Continuous
  1
Color_3
330
0
 90
        8
 62
   253
370
    -3
  6
Continuous
  1
Color_253
330
0
 90
        8
 62
     1
370
    -3
  6
Continuous
  1
Color_1
330
0
 90
        0
 62
     5
370
    -3
  6
Continuous
  1
Color_5
330
0
 90
        8
 62
     2
370
    -3
  6
Continuous
  1
Color_2
330
0
 90
        0
 62
   178
370
    -3
  6
Continuous
  1
Color_178
 92
-1039794079
330
0
 90
        8
 62
     7
370
    -3
  6
Continuous
  1
Color_7
330
0
 90
        8
 62
     7
370
    -3
  6
Continuous
  1
Color_7
330
0
 90
        8
 62
     7
370
    -3
  6
Continuous
  1
Color_7
330
0
 90
        8
 62
     7
370
    -3
  6
Continuous
  1
Color_7
330
0
 90
        8
 62
     7
370
    -3
  6
Continuous
  1
Color_7
330
0
 90
        0
 62
     4
370
    -3
  6
Continuous
  1
Color_4
330
0
 90
        0
 62
     7
370
    -3
  6
Continuous
  1
Color_7
  8
defpoints
 90
        0
 62
     7
370
    -3
  6
Continuous
  1
Color_7
  8
0
 90
        8
 62
     7
370
    -3
  6
Continuous
  1
Color_7
330
0
 90
       10
 62
     7
370
    -3
  6
Continuous
  1
Color_7
330
0
 90
       10
 62
     7
370
    -3
  6
Continuous
  1
Color_7
330
0
 90
       10
 62
     7
370
    -3
  6
Continuous
  1
Color_7
330
0
 90
       10
 62
     7
370
    -3
  6
Continuous
  1
Color_7
330
0
 90
       10
 62
     7
370
    -3
  6
Continuous
  1
Color_7
330
0
 90
       10
 62
     7
370
    -3
  6
Continuous
  1
Color_7
330
0
 90
       10
 62
     7
370
    -3
  6
Continuous
  1
Color_7
330
0
 90
       10
 62
     7
370
    -3
  6
Continuous
  1
Color_7
330
0
 90
       10
 62
     7
370
    -3
  6
Continuous
  1
Color_7
330
0
 90
       10
 62
     7
370
    -3
  6
Continuous
  1
Color_7
330
0
 90
        2
 62
     7
370
    -3
  6
Continuous
  1
Color_7
330
0
 90
       10
 62
     7
370
    -3
  6
Continuous
  1
Color_7
330
0
 90
        2
 62
     7
370
    -3
  6
Continuous
  1
Color_7
330
0
 90
       10
 62
     7
370
    -3
  6
Continuous
  1
Color_7
330
0
 90
        2
 62
     7
370
    -3
  6
Continuous
  1
Color_7
330
0
 90
       10
 62
     7
370
    -3
  6
Continuous
  1
Color_7
330
0
 90
        2
 62
     7
370
    -3
  6
Continuous
  1
Color_7
330
0
 90
       10
 62
     7
370
    -3
  6
Continuous
  1
Color_7
330
0
 90
        2
 62
     7
370
    -3
  6
Continuous
  1
Color_7
330
0
 90
       10
 62
     7
370
    -3
  6
Continuous
  1
Color_7
330
0
 90
        2
 62
     7
370
    -3
  6
Continuous
  1
Color_7
330
0
 90
       10
 62
     7
370
    -3
  6
Continuous
  1
Color_7
330
0
 90
        2
 62
     7
370
    -3
  6
Continuous
  1
Color_7
  0
XRECORD
  5
FF29
102
{ACAD_XDICTIONARY
360
FF2A
102
}
102
{ACAD_REACTORS
330
290
102
}
330
290
100
AcDbXrecord
280
     1
 91
      514
301

290
     0
302
0
330
0
 90
       10
 62
     7
370
    -3
  6
Continuous
  1
Color_7
330
0
 90
       10
 62
     7
370
    -3
  6
Continuous
  1
Color_7
330
0
 90
       10
 62
     7
370
    -3
  6
Continuous
  1
Color_7
330
0
 90
        2
 62
    30
370
    -3
  6
Continuous
  1
Color_30
330
0
 90
       10
 62
   252
370
    -3
  6
Continuous
  1
Color_252
330
0
 90
       10
 62
     3
370
    30
  6
Continuous
  1
Color_3
330
0
 90
       10
 62
   253
370
    -3
  6
Continuous
  1
Color_253
330
0
 90
       10
 62
     1
370
    -3
  6
Continuous
  1
Color_1
330
0
 90
        2
 62
     5
370
    -3
  6
Continuous
  1
Color_5
330
0
 90
       10
 62
     2
370
    -3
  6
Continuous
  1
Color_2
330
0
 90
        2
 62
   178
370
    -3
  6
Continuous
  1
Color_178
 92
-1039794079
330
0
 90
       10
 62
     7
370
    -3
  6
Continuous
  1
Color_7
330
0
 90
       10
 62
     7
370
    -3
  6
Continuous
  1
Color_7
330
0
 90
       10
 62
     7
370
    -3
  6
Continuous
  1
Color_7
330
0
 90
       10
 62
     7
370
    -3
  6
Continuous
  1
Color_7
330
0
 90
       10
 62
     7
370
    -3
  6
Continuous
  1
Color_7
330
0
 90
        2
 62
     4
370
    -3
  6
Continuous
  1
Color_4
330
0
 90
        2
 62
     7
370
    -3
  6
Continuous
  1
Color_7
  8
0
 90
        8
 62
     7
370
    -3
  6
Continuous
  1
Color_7
  8
defpoints
 90
        0
 62
     7
370
    -3
  6
Continuous
  1
Color_7
330
0
 90
       10
 62
     7
370
    -3
  6
Continuous
  1
Color_7
330
0
 90
       10
 62
     7
370
    -3
  6
Continuous
  1
Color_7
330
0
 90
       10
 62
     7
370
    -3
  6
Continuous
  1
Color_7
330
0
 90
       10
 62
     7
370
    -3
  6
Continuous
  1
Color_7
330
0
 90
       10
 62
     7
370
    -3
  6
Continuous
  1
Color_7
330
0
 90
       10
 62
     7
370
    -3
  6
Continuous
  1
Color_7
330
0
 90
       10
 62
     7
370
    -3
  6
Continuous
  1
Color_7
330
0
 90
       10
 62
     7
370
    -3
  6
Continuous
  1
Color_7
330
0
 90
       10
 62
     7
370
    -3
  6
Continuous
  1
Color_7
330
0
 90
       10
 62
     7
370
    -3
  6
Continuous
  1
Color_7
330
0
 90
        2
 62
     7
370
    -3
  6
Continuous
  1
Color_7
330
0
 90
       10
 62
     7
370
    -3
  6
Continuous
  1
Color_7
330
0
 90
        2
 62
     7
370
    -3
  6
Continuous
  1
Color_7
330
0
 90
       10
 62
     7
370
    -3
  6
Continuous
  1
Color_7
330
0
 90
        2
 62
     7
370
    -3
  6
Continuous
  1
Color_7
330
0
 90
       10
 62
     7
370
    -3
  6
Continuous
  1
Color_7
330
0
 90
        2
 62
     7
370
    -3
  6
Continuous
  1
Color_7
330
0
 90
       10
 62
     7
370
    -3
  6
Continuous
  1
Color_7
330
0
 90
        2
 62
     7
370
    -3
  6
Continuous
  1
Color_7
330
0
 90
       10
 62
     7
370
    -3
  6
Continuous
  1
Color_7
330
0
 90
        2
 62
     7
370
    -3
  6
Continuous
  1
Color_7
330
0
 90
       10
 62
     7
370
    -3
  6
Continuous
  1
Color_7
330
0
 90
        2
 62
     7
370
    -3
  6
Continuous
  1
Color_7
  0
DICTIONARY
  5
1010B
102
{ACAD_REACTORS
330
1010A
102
}
330
1010A
100
AcDbDictionary
281
     1
  3
*A1
350
1010C
  3
*A2
350
1010D
  3
*A3
350
1010E
  0
DICTIONARY
  5
1010F
102
{ACAD_REACTORS
330
1010A
102
}
330
1010A
100
AcDbDictionary
281
     1
  3
*A1
350
10110
  3
*A2
350
10111
  0
DICTIONARY
  5
10118
102
{ACAD_REACTORS
330
10117
102
}
330
10117
100
AcDbDictionary
281
     1
  3
*A1
350
10119
  3
*A2
350
1011A
  3
*A3
350
1011B
  0
DICTIONARY
  5
1011C
102
{ACAD_REACTORS
330
10117
102
}
330
10117
100
AcDbDictionary
281
     1
  3
*A1
350
1011D
  3
*A2
350
1011E
  0
DICTIONARY
  5
DB11
102
{ACAD_REACTORS
330
DB10
102
}
330
DB10
100
AcDbDictionary
281
     1
  0
DICTIONARY
  5
DB16
102
{ACAD_REACTORS
330
DB15
102
}
330
DB15
100
AcDbDictionary
281
     1
  0
DICTIONARY
  5
170C
330
16BA
100
AcDbDictionary
280
     1
281
     1
  0
DICTIONARY
  5
4377
330
22
100
AcDbDictionary
280
     1
281
     1
  0
DICTIONARY
  5
FF39
330
FF38
100
AcDbDictionary
280
     1
281
     1
  3
ACAD_ROUNDTRIP_2008_TABLESTYLE_CELLSTYLEMAP
360
10102
  0
DICTIONARY
  5
30E
330
22C
100
AcDbDictionary
280
     1
281
     1
  3
ACAD_ROUNDTRIP_2008_TABLESTYLE_CELLSTYLEMAP
360
100FC
  0
DICTIONARY
  5
811
330
223
100
AcDbDictionary
280
     1
281
     1
  3
LightingQuality
360
812
  0
XRECORD
  5
A38
102
{ACAD_REACTORS
330
A22
102
}
330
A22
100
AcDbXrecord
280
     1
1000
AIA Version 3
  0
BINRECORD
  5
A23
102
{ACAD_REACTORS
330
A22
102
}
330
A22
100
AcAecBinRecord
 90
        0
 91
    19403
 70
     0
310
0100FFFEFF0D4100490041002000560065007200730069006F006E00200033000500FFFF01001C004163416563556B4C6179657244657363726970746976654669656C64FFFEFF154400690073006300690070006C0069006E0065002000440065007300690067006E00610074006F0072000102000000007B333637354541
310
46100100002100000070BA406CD0EA76040B00FFFEFF001500FFFEFF01440002000000FFFEFF07500072006F0063006500730073000E00FFFEFF01440002000000FFFEFF12500072006F0063006500730073002000440065006D006F006C006900740069006F006E00000000000000FFFEFF01560002000000FFFEFF0E5000
310
72006F0063006500730073002000560061006300750075006D00000000000000FFFEFF01450002000000FFFEFF12500072006F006300650073007300200045006C0065006300740072006900630061006C00000000000000FFFEFF01570002000000FFFEFF0E500072006F0063006500730073002000570061007400650072
310
007300000000000000FFFEFF01580002000000FFFEFF0F500072006F00630065007300730020004500780068006100750073007400000000000000FFFEFF01470002000000FFFEFF0D500072006F006300650073007300200047006100730065007300000000000000FFFEFF014F0002000000FFFEFF0B500072006F006300
310
65007300730020004F0069006C00000000000000FFFEFF01500002000000FFFEFF0E500072006F006300650073007300200050006900700069006E006700000000000000FFFEFF01510002000000FFFEFF11500072006F0063006500730073002000450071007500690070006D0065006E007400000000000000FFFEFF0152
310
0002000000FFFEFF19500072006F006300650073007300200044007200610069006E0073002000260020005200650063006C00610069006D007300000000000000FFFEFF01410002000000FFFEFF0C500072006F00630065007300730020004100690072007300000000000000FFFEFF01530002000000FFFEFF0C50007200
310
6F00630065007300730020005300690074006500000000000000FFFEFF01540002000000FFFEFF18500072006F006300650073007300200045006E0074007200610069006E0065006400200053006F006C00690064007300000000000000FFFEFF01430002000000FFFEFF11500072006F0063006500730073002000430068
310
0065006D006900630061006C00730000000000000000000000FFFEFF01560002000000FFFEFF1053007500720076006500790020002F0020004D0061007000700069006E0067000500FFFEFF01460002000000FFFEFF0C4600690065006C0064002000530075007200760065007900000000000000FFFEFF01490002000000
310
FFFEFF0E4400690067006900740061006C002000530075007200760065007900000000000000FFFEFF014A0002000000FFFEFF1F53007500720076006500790020002F0020004D0061007000700069006E006700200028005500730065007200200044006500660069006E00650064002900000000000000FFFEFF014B0002
310
000000FFFEFF1F53007500720076006500790020002F0020004D0061007000700069006E006700200028005500730065007200200044006500660069006E00650064002900000000000000FFFEFF01410002000000FFFEFF0D410065007200690061006C00200053007500720076006500790000000000000000000000FFFE
310
FF01450002000000FFFEFF0A45006C0065006300740072006900630061006C000900FFFEFF01440002000000FFFEFF1545006C0065006300740072006900630061006C002000440065006D006F006C006900740069006F006E00000000000000FFFEFF01590002000000FFFEFF1C45006C0065006300740072006900630061
310
006C00200041007500780069006C0069006100720079002000530079007300740065006D007300000000000000FFFEFF01490002000000FFFEFF1A45006C0065006300740072006900630061006C00200049006E0073007400720075006D0065006E0074006100740069006F006E00000000000000FFFEFF014A0002000000
310
FFFEFF1945006C0065006300740072006900630061006C00200028005500730065007200200044006500660069006E00650064002900000000000000FFFEFF014B0002000000FFFEFF1945006C0065006300740072006900630061006C00200028005500730065007200200044006500660069006E00650064002900000000
310
000000FFFEFF014C0002000000FFFEFF1345006C0065006300740072006900630061006C0020004C00690067006800740069006E006700000000000000FFFEFF01500002000000FFFEFF1045006C0065006300740072006900630061006C00200050006F00770065007200000000000000FFFEFF01530002000000FFFEFF0F
310
45006C0065006300740072006900630061006C0020005300690074006500000000000000FFFEFF01540002000000FFFEFF1D45006C0065006300740072006900630061006C002000540065006C00650063006F006D006D0075006E00690063006100740069006F006E00730000000000000000000000FFFEFF015700020000
310
00FFFEFF0B43006900760069006C00200057006F0072006B0073000200FFFEFF014A0002000000FFFEFF1A43006900760069006C00200057006F0072006B007300200028005500730065007200200044006500660069006E00650064002900000000000000FFFEFF014B0002000000FFFEFF1A43006900760069006C002000
310
57006F0072006B007300200028005500730065007200200044006500660069006E0065006400290000000000000000000000FFFEFF01460002000000FFFEFF0F46006900720065002000500072006F00740065006300740069006F006E000400FFFEFF014A0002000000FFFEFF134600690072006500200028005500730065
310
007200200044006500660069006E00650064002900000000000000FFFEFF014B0002000000FFFEFF134600690072006500200028005500730065007200200044006500660069006E00650064002900000000000000FFFEFF01410002000000FFFEFF184600690072006500200044006500740065006300740069006F006E00
310
200061006E006400200041006C00610072006D00000000000000FFFEFF01530002000000FFFEFF10460069007200650020005300750070007000720065007300730069006F006E0000000000000000000000FFFEFF01470002000000FFFEFF07470065006E006500720061006C000500FFFEFF01490002000000FFFEFF1347
310
0065006E006500720061006C00200049006E0066006F0072006D006100740069006F006E00000000000000FFFEFF014A0002000000FFFEFF16470065006E006500720061006C00200028005500730065007200200044006500660069006E00650064002900000000000000FFFEFF014B0002000000FFFEFF16470065006E00
310
6500720061006C00200028005500730065007200200044006500660069006E00650064002900000000000000FFFEFF01520002000000FFFEFF10470065006E006500720061006C0020005200650073006F007500720063006500000000000000FFFEFF01430002000000FFFEFF13470065006E006500720061006C00200043
310
006F006E0074007200610063007400750061006C0000000000000000000000FFFEFF01580002000000FFFEFF114F00740068006500720020004400690073006300690070006C0069006E00650073000200FFFEFF014A0002000000FFFEFF204F00740068006500720020004400690073006300690070006C0069006E006500
310
7300200028005500730065007200200044006500660069006E00650064002900000000000000FFFEFF014B0002000000FFFEFF204F00740068006500720020004400690073006300690070006C0069006E0065007300200028005500730065007200200044006500660069006E0065006400290000000000000000000000FF
310
FEFF01480002000000FFFEFF13480061007A006100720064006F007500730020004D006100740065007200690061006C0073000700FFFEFF014A0002000000FFFEFF22480061007A006100720064006F007500730020004D006100740065007200690061006C00730020002800550073006500720020004400650066006900
310
6E00650064002900000000000000FFFEFF014B0002000000FFFEFF22480061007A006100720064006F007500730020004D006100740065007200690061006C007300200028005500730065007200200044006500660069006E00650064002900000000000000FFFEFF014C0002000000FFFEFF044C00650061006400000000
310
000000FFFEFF01500002000000FFFEFF03500043004200000000000000FFFEFF01520002000000FFFEFF0C5200650066007200690067006500720061006E0074007300000000000000FFFEFF01410002000000FFFEFF084100730062006500730074006F007300000000000000FFFEFF01430002000000FFFEFF0943006800
310
65006D006900630061006C00730000000000000000000000FFFEFF01490002000000FFFEFF0949006E0074006500720069006F00720073000600FFFEFF01440002000000FFFEFF1349006E0074006500720069006F0072002000440065006D006F006C006900740069006F006E00000000000000FFFEFF01460002000000FF
310
FEFF1149006E0074006500720069006F0072002000460069006E0069007300680065007300000000000000FFFEFF01470002000000FFFEFF1249006E0074006500720069006F0072007300200047007200610070006800690063007300000000000000FFFEFF014A0002000000FFFEFF1849006E0074006500720069006F00
310
72007300200028005500730065007200200044006500660069006E00650064002900000000000000FFFEFF014B0002000000FFFEFF1849006E0074006500720069006F0072007300200028005500730065007200200044006500660069006E00650064002900000000000000FFFEFF014E0002000000FFFEFF0F49006E0074
310
006500720069006F0072002000440065007300690067006E0000000000000000000000FFFEFF015A0002000000FFFEFF1A43006F006E00740072006100630074006F00720020002F002000530068006F0070002000440072006100770069006E00670073000200FFFEFF014A0002000000FFFEFF2943006F006E0074007200
310
6100630074006F00720020002F002000530068006F0070002000440072006100770069006E0067007300200028005500730065007200200044006500660069006E00650064002900000000000000FFFEFF014B0002000000FFFEFF2943006F006E00740072006100630074006F00720020002F002000530068006F00700020
310
00440072006100770069006E0067007300200028005500730065007200200044006500660069006E0065006400290000000000000000000000FFFEFF014C0002000000FFFEFF094C0061006E006400730063006100700065000500FFFEFF01440002000000FFFEFF144C0061006E0064007300630061007000650020004400
310
65006D006F006C006900740069006F006E00000000000000FFFEFF01490002000000FFFEFF144C0061006E006400730063006100700065002000490072007200690067006100740069006F006E00000000000000FFFEFF014A0002000000FFFEFF184C0061006E006400730063006100700065002000280055007300650072
310
00200044006500660069006E00650064002900000000000000FFFEFF014B0002000000FFFEFF184C0061006E00640073006300610070006500200028005500730065007200200044006500660069006E00650064002900000000000000FFFEFF01500002000000FFFEFF124C0061006E006400730063006100700065002000
310
50006C0061006E00740069006E00670000000000000000000000FFFEFF014D0002000000FFFEFF0A4D0065006300680061006E006900630061006C000700FFFEFF01440002000000FFFEFF154D0065006300680061006E006900630061006C002000440065006D006F006C006900740069006F006E00000000000000FFFEFF
310
01480002000000FFFEFF0F4D0065006300680061006E006900630061006C0020004800560041004300000000000000FFFEFF01490002000000FFFEFF1A4D0065006300680061006E006900630061006C00200049006E0073007400720075006D0065006E0074006100740069006F006E00000000000000FFFEFF014A000200
310
0000FFFEFF194D0065006300680061006E006900630061006C00200028005500730065007200200044006500660069006E00650064002900000000000000FFFEFF014B0002000000FFFEFF194D0065006300680061006E006900630061006C00200028005500730065007200200044006500660069006E0065006400290000
310
0000000000FFFEFF01500002000000FFFEFF114D0065006300680061006E006900630061006C00200050006900700069006E006700000000000000FFFEFF01530002000000FFFEFF0F4D0065006300680061006E006900630061006C002000530069007400650000000000000000000000FFFEFF014F0002000000FFFEFF0A
310
4F007000650072006100740069006F006E0073000200FFFEFF014A0002000000FFFEFF194F007000650072006100740069006F006E007300200028005500730065007200200044006500660069006E00650064002900000000000000FFFEFF014B0002000000FFFEFF194F007000650072006100740069006F006E00730020
310
0028005500730065007200200044006500660069006E0065006400290000000000000000000000FFFEFF01500002000000FFFEFF0850006C0075006D00620069006E0067000600FFFEFF01440002000000FFFEFF1350006C0075006D00620069006E0067002000440065006D006F006C006900740069006F006E0000000000
310
0000FFFEFF014A0002000000FFFEFF1750006C0075006D00620069006E006700200028005500730065007200200044006500660069006E00650064002900000000000000FFFEFF014B0002000000FFFEFF1750006C0075006D00620069006E006700200028005500730065007200200044006500660069006E006500640029
310
00000000000000FFFEFF01500002000000FFFEFF0F50006C0075006D00620069006E006700200050006900700069006E006700000000000000FFFEFF01510002000000FFFEFF1250006C0075006D00620069006E0067002000450071007500690070006D0065006E007400000000000000FFFEFF01530002000000FFFEFF0D
310
50006C0075006D00620069006E0067002000530069007400650000000000000000000000FFFEFF01510002000000FFFEFF09450071007500690070006D0065006E0074001100FFFEFF01440002000000FFFEFF1344006500740065006E00740069006F006E002000450071007500690070006D0065006E0074000000000000
310
00FFFEFF01560002000000FFFEFF1C56006900640065006F002F00500068006F0074006F0067007200610070006800690063002000450071007500690070006D0065006E007400000000000000FFFEFF01450002000000FFFEFF1545006400750063006100740069006F006E0061006C002000450071007500690070006D00
310
65006E007400000000000000FFFEFF01460002000000FFFEFF1646006F006F006400200053006500720076006900630065002000450071007500690070006D0065006E007400000000000000FFFEFF01590002000000FFFEFF12530065006300750072006900740079002000450071007500690070006D0065006E00740000
310
0000000000FFFEFF01480002000000FFFEFF1248006F00730070006900740061006C002000450071007500690070006D0065006E007400000000000000FFFEFF014A0002000000FFFEFF18450071007500690070006D0065006E007400200028005500730065007200200044006500660069006E0065006400290000000000
310
0000FFFEFF014B0002000000FFFEFF18450071007500690070006D0065006E007400200028005500730065007200200044006500660069006E00650064002900000000000000FFFEFF014C0002000000FFFEFF144C00610062006F007200610074006F00720079002000450071007500690070006D0065006E007400000000
310
000000FFFEFF014D0002000000FFFEFF154D00610069006E00740065006E0061006E00630065002000450071007500690070006D0065006E007400000000000000FFFEFF01500002000000FFFEFF155000610072006B0069006E00670020004C006F0074002000450071007500690070006D0065006E007400000000000000
310
FFFEFF01520002000000FFFEFF10520065007400610069006C002000450071007500690070006D0065006E007400000000000000FFFEFF01410002000000FFFEFF124100740068006C0065007400690063002000450071007500690070006D0065006E007400000000000000FFFEFF01530002000000FFFEFF0E5300690074
310
0065002000450071007500690070006D0065006E007400000000000000FFFEFF01420002000000FFFEFF0E420061006E006B002000450071007500690070006D0065006E007400000000000000FFFEFF01540002000000FFFEFF145400680065006100740072006900630061006C002000450071007500690070006D006500
310
6E007400000000000000FFFEFF01430002000000FFFEFF16440072007900200043006C00650061006E0069006E0067002000450071007500690070006D0065006E00740000000000000000000000FFFEFF01410002000000FFFEFF0D4100720063006800690074006500630074007500720061006C000A00FFFEFF01440002
310
000000FFFEFF184100720063006800690074006500630074007500720061006C002000440065006D006F006C006900740069006F006E00000000000000FFFEFF01450002000000FFFEFF164100720063006800690074006500630074007500720061006C00200045006C0065006D0065006E0074007300000000000000FFFE
310
FF01460002000000FFFEFF164100720063006800690074006500630074007500720061006C002000460069006E0069007300680065007300000000000000FFFEFF01470002000000FFFEFF164100720063006800690074006500630074007500720061006C00200047007200610070006800690063007300000000000000FF
310
FEFF01490002000000FFFEFF164100720063006800690074006500630074007500720061006C00200049006E0074006500720069006F007200000000000000FFFEFF014A0002000000FFFEFF1C4100720063006800690074006500630074007500720061006C00200028005500730065007200200044006500660069006E00
310
650064002900000000000000FFFEFF014B0002000000FFFEFF1C4100720063006800690074006500630074007500720061006C00200028005500730065007200200044006500660069006E00650064002900000000000000FFFEFF01500002000000FFFEFF144100720063006800690074006500630074007500720061006C
310
00200050006100760069006E006700000000000000FFFEFF01530002000000FFFEFF124100720063006800690074006500630074007500720061006C0020005300690074006500000000000000FFFEFF01540002000000FFFEFF1C4100720063006800690074006500630074007500720061006C0020005400720061006E00
310
730070006F00720074006100740069006F006E0000000000000001000000FFFEFF01520002000000FFFEFF085200650073006F0075007200630065000700FFFEFF01450002000000FFFEFF135200650073006F007500720063006500200045006C0065006300740072006900630061006C00000000000000FFFEFF014A0002
310
000000FFFEFF175200650073006F007500720063006500200028005500730065007200200044006500660069006E00650064002900000000000000FFFEFF014B0002000000FFFEFF175200650073006F007500720063006500200028005500730065007200200044006500660069006E00650064002900000000000000FFFE
310
FF014D0002000000FFFEFF135200650073006F00750072006300650020004D0065006300680061006E006900630061006C00000000000000FFFEFF01410002000000FFFEFF165200650073006F00750072006300650020004100720063006800690074006500630074007500720061006C00000000000000FFFEFF01530002
310
000000FFFEFF135200650073006F00750072006300650020005300740072007500630074007500720061006C00000000000000FFFEFF01430002000000FFFEFF0E5200650073006F007500720063006500200043006900760069006C0000000000000000000000FFFEFF01420002000000FFFEFF0C470065006F0074006500
310
630068006E006900630061006C000200FFFEFF014A0002000000FFFEFF1B470065006F0074006500630068006E006900630061006C00200028005500730065007200200044006500660069006E00650064002900000000000000FFFEFF014B0002000000FFFEFF1B470065006F0074006500630068006E006900630061006C
310
00200028005500730065007200200044006500660069006E0065006400290000000000000000000000FFFEFF01530002000000FFFEFF0A5300740072007500630074007500720061006C000600FFFEFF01440002000000FFFEFF155300740072007500630074007500720061006C002000440065006D006F006C0069007400
310
69006F006E00000000000000FFFEFF01460002000000FFFEFF125300740072007500630074007500720061006C0020004600720061006D0069006E006700000000000000FFFEFF014A0002000000FFFEFF195300740072007500630074007500720061006C00200028005500730065007200200044006500660069006E0065
310
0064002900000000000000FFFEFF014B0002000000FFFEFF195300740072007500630074007500720061006C00200028005500730065007200200044006500660069006E00650064002900000000000000FFFEFF01530002000000FFFEFF0F5300740072007500630074007500720061006C00200053006900740065000000
310
00000000FFFEFF01420002000000FFFEFF175300740072007500630074007500720061006C00200053007500620073007400720075006300740075007200650000000000000000000000FFFEFF01430002000000FFFEFF0543006900760069006C000900FFFEFF01440002000000FFFEFF1043006900760069006C00200044
310
0065006D006F006C006900740069006F006E00000000000000FFFEFF01550002000000FFFEFF0F43006900760069006C0020005500740069006C0069007400690065007300000000000000FFFEFF01470002000000FFFEFF0D43006900760069006C002000470072006100640069006E006700000000000000FFFEFF014900
310
02000000FFFEFF1243006900760069006C00200049006D00700072006F00760065006D0065006E0074007300000000000000FFFEFF014A0002000000FFFEFF1443006900760069006C00200028005500730065007200200044006500660069006E00650064002900000000000000FFFEFF014B0002000000FFFEFF14430069
310
00760069006C00200028005500730065007200200044006500660069006E00650064002900000000000000FFFEFF01500002000000FFFEFF0C43006900760069006C00200050006100760069006E006700000000000000FFFEFF01530002000000FFFEFF0A43006900760069006C0020005300690074006500000000000000
310
FFFEFF01540002000000FFFEFF1443006900760069006C0020005400720061006E00730070006F00720074006100740069006F006E0000000000000000000000FFFEFF01540002000000FFFEFF12540065006C00650063006F006D006D0075006E00690063006100740069006F006E0073000900FFFEFF01590002000000FF
310
FEFF0853006500630075007200690074007900000000000000FFFEFF01490002000000FFFEFF0849006E0074006500720063006F006D00000000000000FFFEFF014A0002000000FFFEFF21540065006C00650063006F006D006D0075006E00690063006100740069006F006E00730020002800550073006500720020004400
310
6500660069006E00650064002900000000000000FFFEFF014B0002000000FFFEFF21540065006C00650063006F006D006D0075006E00690063006100740069006F006E007300200028005500730065007200200044006500660069006E00650064002900000000000000FFFEFF014D0002000000FFFEFF0A4D006F006E0069
310
0074006F00720069006E006700000000000000FFFEFF014E0002000000FFFEFF0D440061007400610020004E006500740077006F0072006B007300000000000000FFFEFF01410002000000FFFEFF0E41007500640069006F0020002F002000560069007300750061006C00000000000000FFFEFF01540002000000FFFEFF09
310
540065006C006500700068006F006E006500000000000000FFFEFF01430002000000FFFEFF1143006C006F0063006B00200061006E0064002000500072006F006700720061006D00000000000000000000000180FFFEFF054D0061006A006F0072000300000000000000000000000000000000000000000000000000000000
310
000000FFFEFF002300FFFEFF052D0046006C006F00720002000000FFFEFF0546006C006F006F007200000000000000FFFEFF052D004500710070006D0002000000FFFEFF09450071007500690070006D0065006E007400000000000000FFFEFF052D00530069007400650002000000FFFEFF09530069007400650020007000
310
6C0061006E00000000000000FFFEFF052D0050006C0061006E0002000000FFFEFF154B0065007900200070006C0061006E002000280066006C006F006F007200200070006C0061006E002900000000000000FFFEFF052D004400650074006C0002000000FFFEFF06440065007400610069006C00000000000000FFFEFF052D
310
0054006F0070006F0002000000FFFEFF0A54006F0070006F00670072006100700068007900000000000000FFFEFF052D004300740072006C0002000000FFFEFF0E43006F006E00740072006F006C00200050006F0069006E0074007300000000000000FFFEFF052D004600750072006E0002000000FFFEFF0B460075007200
310
6E0069007300680069006E0067007300000000000000FFFEFF052D0053006C006100620002000000FFFEFF0553006C00610062007300000000000000FFFEFF052D0050006F006C00790002000000FFFEFF0850006F006C00790067006F006E007300000000000000FFFEFF052D0043006F006D006D0002000000FFFEFF1254
310
0065006C00650063006F006D006D0075006E00690063006100740069006F006E007300000000000000FFFEFF052D00570061006C006C0002000000FFFEFF05570061006C006C007300000000000000FFFEFF052D0047006C0061007A0002000000FFFEFF0747006C0061007A0069006E006700000000000000FFFEFF052D00
310
410072006500610002000000FFFEFF044100720065006100000000000000FFFEFF052D0043006F006400650002000000FFFEFF1443006F0064006500200063006F006D0070006C00690061006E0063006500200070006C0061006E00000000000000FFFEFF052D005300740072006D0002000000FFFEFF0844007200610069
310
006E00610067006500000000000000FFFEFF052D0044006F006F00720002000000FFFEFF0544006F006F0072007300000000000000FFFEFF052D0041006E006E006F0002000000FFFEFF0A41006E006E006F0074006100740069006F006E00000000000000FFFEFF052D004200650061006D0002000000FFFEFF0542006500
310
61006D007300000000000000FFFEFF052D004C0069007400650002000000FFFEFF114C00690067006800740069006E006700200066006900780074007500720065007300000000000000FFFEFF052D00480056004100430002000000FFFEFF044800560041004300000000000000FFFEFF052D004100630063007300020000
310
00FFFEFF0B410063006300650073007300200070006C0061006E00000000000000FFFEFF052D0043006F006C00730002000000FFFEFF0743006F006C0075006D006E007300000000000000FFFEFF052D0043006C006E00670002000000FFFEFF074300650069006C0069006E006700000000000000FFFEFF052D0045007600
310
6100630002000000FFFEFF0F450076006100630075006100740069006F006E00200070006C0061006E00000000000000FFFEFF052D0043006F006E00760002000000FFFEFF1143006F006E0076006500790069006E0067002000730079007300740065006D007300000000000000FFFEFF052D005300650063007400020000
310
00FFFEFF07530065006300740069006F006E00000000000000FFFEFF052D00500072006F00700002000000FFFEFF08500072006F0070006500720074007900000000000000FFFEFF052D0052006F006F00660002000000FFFEFF0452006F006F006600000000000000FFFEFF052D0045006C006500630002000000FFFEFF0A
310
45006C0065006300740072006900630061006C00000000000000FFFEFF052D00470072006900640002000000FFFEFF0A470072006900640020006C0069006E0065007300000000000000FFFEFF052D00540069006E006E0002000000FFFEFF1E54007200690061006E00670075006C00610074006500640020006900720072
310
006500670075006C006100720020006E006500740077006F0072006B00000000000000FFFEFF052D00500072006F00740002000000FFFEFF1646006900720065002000700072006F00740065006300740069006F006E002000730079007300740065006D00000000000000FFFEFF052D00460069007200650002000000FFFE
310
FF1446006900720065002000700072006F00740065006300740069006F006E00200070006C0061006E00000000000000FFFEFF052D0045006C006500760002000000FFFEFF0945006C00650076006100740069006F006E000000000000000180FFFEFF074D0069006E006F00720020003100040000000000000000F00E7704
310
00000000000000000000000000000000F00000FFFEFF006A00FFFEFF052D00410062006F00760002000000FFFEFF0E45006C0065006D0065006E00740073002000610062006F0076006500000000000000FFFEFF052D005400610062006C0002000000FFFEFF0B440061007400610020007400610062006C00650073000000
310
00000000FFFEFF052D00420064007200790002000000FFFEFF0842006F0075006E006400610072007900000000000000FFFEFF052D004500710070006D0002000000FFFEFF09450071007500690070006D0065006E007400000000000000FFFEFF052D0043006E007400720002000000FFFEFF0A430065006E007400650072
310
006C0069006E006500000000000000FFFEFF052D0057006B007300660002000000FFFEFF1E530079007300740065006D00200077006F0072006B0020007300750072006600610063006500200063006F006D0070006F006E0065006E0074007300000000000000FFFEFF052D00420072006E00670002000000FFFEFF1A4200
310
65006100720069006E0067007300200026002000640069007300740061006E006300650020006C006100620065006C007300000000000000FFFEFF052D00530077006300680002000000FFFEFF0853007700690074006300680065007300000000000000FFFEFF052D005400680069006E0002000000FFFEFF195400680069
310
006E0020007700650069006700680074002000670072006100700068006900630020006C0069006E0065007300000000000000FFFEFF052D00520061006900730002000000FFFEFF06520061006900730065006400000000000000FFFEFF052D004F00700065006E0002000000FFFEFF084F00700065006E0069006E006700
310
7300000000000000FFFEFF052D004E0070006C00740002000000FFFEFF204E006F006E002D0070006C006F007400740069006E00670020006700720061007000680069006300200069006E0066006F0072006D006100740069006F006E00000000000000FFFEFF052D00500072006F00660002000000FFFEFF08500072006F
310
00660069006C0065007300000000000000FFFEFF052D005200650066006C0002000000FFFEFF0E5200650066006C0065006300740065006400200050006C0061006E00000000000000FFFEFF052D00460069006E00650002000000FFFEFF19460069006E006500200077006500690067006800740020006700720061007000
310
68006900630020006C0069006E0065007300000000000000FFFEFF052D004100700070006C0002000000FFFEFF0A4100700070006C00690061006E00630065007300000000000000FFFEFF052D00440069006D00730002000000FFFEFF0A440069006D0065006E00730069006F006E007300000000000000FFFEFF052D0050
310
006F007700720002000000FFFEFF0550006F00770065007200000000000000FFFEFF052D0053006C006100620002000000FFFEFF0553006C00610062007300000000000000FFFEFF052D0043006F006E006E0002000000FFFEFF0B43006F006E006E0065006300740069006F006E007300000000000000FFFEFF052D005700
310
61006C006C0002000000FFFEFF05570061006C006C007300000000000000FFFEFF052D004100730073006D0002000000FFFEFF0A41007300730065006D0062006C00690065007300000000000000FFFEFF052D005600680063006C0002000000FFFEFF08560065006800690063006C0065007300000000000000FFFEFF052D
310
0043006F006D006D0002000000FFFEFF1A540065006C006500700068006F006E0065002C00200063006F006D006D0075006E00690063006100740069006F006E0073002000000000000000FFFEFF052D00460072006500650002000000FFFEFF0C46007200650065007300740061006E00640069006E006700000000000000
310
FFFEFF052D00530079006D00620002000000FFFEFF07530079006D0062006F006C007300000000000000FFFEFF052D00520064006D00650002000000FFFEFF1B52006500610064002D006D00650020006C006100790065007200200028006E006F007400200070006C006F0074007400650064002900000000000000FFFEFF
310
052D0053006C006300650002000000FFFEFF0653006C006900630065007300000000000000FFFEFF052D00460061007300630002000000FFFEFF074600610073006300690061007300000000000000FFFEFF052D00460069006C00650002000000FFFEFF0D460069006C006500200063006100620069006E00650074007300
310
000000000000FFFEFF052D004D00610073006B0002000000FFFEFF1241004400540020004D00610073006B0069006E00670020004F0062006A00650063007400000000000000FFFEFF052D004A0061006D00620002000000FFFEFF1544006F006F007200200061006E0064002000770069006E0064006F00770020006A0061
310
006D0062007300000000000000FFFEFF052D005300690067006E0002000000FFFEFF055300690067006E007300000000000000FFFEFF052D0046006E007300680002000000FFFEFF08460069006E0069007300680065007300000000000000FFFEFF052D00530063006800640002000000FFFEFF0953006300680065006400
310
75006C0065007300000000000000FFFEFF052D00500072006800740002000000FFFEFF0E5000610072007400690061006C002000680065006900670068007400000000000000FFFEFF052D00470072007000730002000000FFFEFF06470072006F00750070007300000000000000FFFEFF052D00540068006C006400020000
310
00FFFEFF0A5400680072006500730068006F006C0064007300000000000000FFFEFF052D005300630072006E0002000000FFFEFF14530063007200650065006E006500640020004200610063006B00670072006F0075006E0064007300000000000000FFFEFF052D0043006F006D00700002000000FFFEFF1349006E007400
310
650072006E0061006C00200063006F006D0070006F006E0065006E0074007300000000000000FFFEFF052D005400690074006C0002000000FFFEFF18440072006100770069006E00670020006F0072002000640065007400610069006C0020007400690074006C0065007300000000000000FFFEFF052D0054006500780074
310
0002000000FFFEFF045400650078007400000000000000FFFEFF052D004D00610072006B0002000000FFFEFF1D4D00610072006B006500720073002C00200062007200650061006B0020006D00610072006B0073002C0020006C00650061006400650072007300000000000000FFFEFF052D00460075006C006C0002000000
310
FFFEFF0B460075006C006C002D00680065006900670068007400000000000000FFFEFF052D00450076007400720002000000FFFEFF1B45006C0065007600610074006F00720020006300610072007300200061006E0064002000650071007500690070006D0065006E007400000000000000FFFEFF052D0053007000630065
310
0002000000FFFEFF0553007000610063006500000000000000FFFEFF052D00530075007300700002000000FFFEFF12530075007300700065006E00640065006400200065006C0065006D0065006E0074007300000000000000FFFEFF052D00540065006500730002000000FFFEFF094D00610069006E002000740065006500
310
7300000000000000FFFEFF052D00460069007800740002000000FFFEFF1170006C0075006D00620069006E006700200066006900780074007500720065007300000000000000FFFEFF052D00520065006600720002000000FFFEFF195200650066006500720065006E00630065002C002000650078007400650072006E0061
310
006C002000660069006C0065007300000000000000FFFEFF052D004C00610062006C0002000000FFFEFF064C006100620065006C007300000000000000FFFEFF052D004C0069007400650002000000FFFEFF084C00690067006800740069006E006700000000000000FFFEFF052D00480065007600790002000000FFFEFF1A
310
4800650061007600790020007700650069006700680074002000670072006100700068006900630020006C0069006E0065007300000000000000FFFEFF052D00480065006100640002000000FFFEFF1744006F006F007200200061006E0064002000770069006E0064006F0077002000680065006100640065007200730000
310
0000000000FFFEFF052D004C00650067006E0002000000FFFEFF144C006500670065006E00640073002C002000530079006D0062006F006C0020006B00650079007300000000000000FFFEFF052D004B00650079006E0002000000FFFEFF084B00650079006E006F00740065007300000000000000FFFEFF052D0046006900
310
7800640002000000FFFEFF0F460069007800650064002000650071007500690070006D0065006E007400000000000000FFFEFF052D004C00650076006C0002000000FFFEFF274C006500760065006C0020006300680061006E006700650073002C002000720061006D00700073002C00200070006900740073002C00200064
310
0065007000720065007300730069006F006E007300000000000000FFFEFF052D004D00650064006D0002000000FFFEFF1B4D0065006400690075006D0020007700650069006700680074002000670072006100700068006900630020006C0069006E0065007300000000000000FFFEFF052D0042006C006F00770002000000
310
FFFEFF0E45006C0065006D0065006E00740073002000620065006C006F007700000000000000FFFEFF052D00410063006300730002000000FFFEFF06410063006300650073007300000000000000FFFEFF052D004F0063006300700002000000FFFEFF1A4F00630063007500700061006E00740020006F007200200065006D
310
0070006C006F0079006500650020006E0061006D0065007300000000000000FFFEFF052D00430061007300650002000000FFFEFF08430061007300650077006F0072006B00000000000000FFFEFF052D00520065007600730002000000FFFEFF095200650076006900730069006F006E007300000000000000FFFEFF052D00
310
420072006300650002000000FFFEFF06420072006100630065007300000000000000FFFEFF052D00480069006400650002000000FFFEFF0E480069006400640065006E0020006F0062006A006500630074007300000000000000FFFEFF052D0043006C006E00670002000000FFFEFF074300650069006C0069006E00670000
310
0000000000FFFEFF052D005500740069006C0002000000FFFEFF095500740069006C0069007400690065007300000000000000FFFEFF052D00500061007400740002000000FFFEFF19540065007800740075007200650020006F00720020006800610074006300680020007000610074007400650072006E00730000000000
310
0000FFFEFF052D00430061007600690002000000FFFEFF06430061007600690074007900000000000000FFFEFF052D0050006C006E00740002000000FFFEFF0650006C0061006E0074007300000000000000FFFEFF052D00530074007200730002000000FFFEFF215300740061006900720020007400720065006100640073
310
002C00200065007300630061006C00610074006F00720073002C0020006C00610064006400650072007300000000000000FFFEFF052D00520065007600630002000000FFFEFF0F5200650076006900730069006F006E00200063006C006F00750064007300000000000000FFFEFF052D004D006F007600650002000000FFFE
310
FF124D006F0076006500610062006C0065002000650071007500690070006D0065006E007400000000000000FFFEFF052D005000650070006C0002000000FFFEFF06500065006F0070006C006500000000000000FFFEFF052D00440065006D006F0002000000FFFEFF0A440065006D006F006C006900740069006F006E0000
310
0000000000FFFEFF052D00430075007200740002000000FFFEFF0C4300750072007400610069006E002000570061006C006C00000000000000FFFEFF052D005700640077006B0002000000FFFEFF164100720063006800690074006500630074007500720061006C00200077006F006F00640077006F0072006B0000000000
310
0000FFFEFF052D004E006F007400650002000000FFFEFF054E006F00740065007300000000000000FFFEFF052D004F0076006800640002000000FFFEFF084F007600650072006800650061006400000000000000FFFEFF052D00530075006200740002000000FFFEFF14530075006200740072006100630074006900760065
310
00200065006C0065006D0065006E0074007300000000000000FFFEFF052D00530044004600460002000000FFFEFF1053007500700070006C0079002000640069006600660075007300650072007300000000000000FFFEFF052D00530074006F00720002000000FFFEFF19530079007300740065006D002000730074006F00
310
7200610067006500200063006F006D0070006F006E0065006E0074007300000000000000FFFEFF052D004900640065006E0002000000FFFEFF134900640065006E00740069006600690063006100740069006F006E0020005400610067007300000000000000FFFEFF052D004800720061006C0002000000FFFEFF16480061
310
006E0064007200610069006C0073002C0020006700750061007200640020007200610069006C007300000000000000FFFEFF052D00570069006400650002000000FFFEFF19570069006400650020007700650069006700680074002000670072006100700068006900630020006C0069006E0065007300000000000000FFFE
310
FF052D004D0061007300730002000000FFFEFF104D0061007300730069006E006700200045006C0065006D0065006E0074007300000000000000FFFEFF052D004C0069006E00650002000000FFFEFF0D44006500660069006E0069006E00670020004C0069006E006500000000000000FFFEFF052D00560069006500770002
310
000000FFFEFF13560069006500770070006F0072007400200044006500660069006E006900740069006F006E00000000000000FFFEFF052D0050006B006E00670002000000FFFEFF075000610072006B0069006E006700000000000000FFFEFF052D00520044004600460002000000FFFEFF14520065007400750072006E00
310
20006100690072002000640069006600660075007300650072007300000000000000FFFEFF052D00530065006100740002000000FFFEFF07530065006100740069006E006700000000000000FFFEFF052D0050006E006C00730002000000FFFEFF0D530079007300740065006D002000700061006E0065006C007300000000
310
000000FFFEFF052D004D0061007400630002000000FFFEFF0B4D00610074006300680020006C0069006E0065007300000000000000FFFEFF052D00410064007400760002000000FFFEFF1141006400640069007400690076006500200065006C0065006D0065006E0074007300000000000000FFFEFF052D00430068006100
310
730002000000FFFEFF0543006800610073006500000000000000FFFEFF052D005300700063006C0002000000FFFEFF0B5300700065006300690061006C007400690065007300000000000000FFFEFF052D00470072006900640002000000FFFEFF044700720069006400000000000000FFFEFF052D004E00690063006E0002
310
000000FFFEFF0F4E006F007400200069006E00200063006F006E0074007200610063007400000000000000FFFEFF052D004D0063007500740002000000FFFEFF164D00610069006E00200063007500740020006C0069006E006500200065006C0065006D0065006E0074007300000000000000FFFEFF052D00460069007200
310
650002000000FFFEFF0A46006900720065002000770061006C006C007300000000000000FFFEFF052D00530069006C006C0002000000FFFEFF0C570069006E0064006F0077002000730069006C006C007300000000000000FFFEFF052D005400700074006E0002000000FFFEFF1154006F0069006C00650074002000700061
310
00720074006900740069006F006E007300000000000000FFFEFF052D00520069007300720002000000FFFEFF0C530074006100690072002000720069007300650072007300000000000000FFFEFF052D004F0074006C006E0002000000FFFEFF074F00750074006C0069006E006500000000000000FFFEFF052D0054007400
310
6C00620002000000FFFEFF1642006F007200640065007200200061006E00640020007400690074006C006500200062006C006F0063006B000000000000000180FFFEFF074D0069006E006F0072002000320005000000004164642062656C6F77207468652073656C6563746564206974656DFFFEFF001600FFFEFF052D0041
310
0062006F00760002000000FFFEFF0E45006C0065006D0065006E00740073002000610062006F0076006500000000000000FFFEFF052D00420064007200790002000000FFFEFF0D4500640067006500200062006F0075006E006400610072007900000000000000FFFEFF052D005400680069006E0002000000FFFEFF0E4D00
310
69006E006F00720020006C0069006E00650077006F0072006B00000000000000FFFEFF052D004E0070006C00740002000000FFFEFF154E006F006E002D0070006C006F007400740069006E006700200065006C0065006D0065006E0074007300000000000000FFFEFF052D005200650066006C0002000000FFFEFF0F520065
310
0066006C0065006300740065006400200050006C0061006E007300000000000000FFFEFF052D00440069006D00730002000000FFFEFF0A440069006D0065006E00730069006F006E007300000000000000FFFEFF052D005300630061006C0002000000FFFEFF10470072006100700068006900630061006C00200053006300
310
61006C0065007300000000000000FFFEFF052D0053006C006300650002000000FFFEFF0653006C006900630065007300000000000000FFFEFF052D0047006C0061007A0002000000FFFEFF0747006C0061007A0069006E006700000000000000FFFEFF052D00460061007300630002000000FFFEFF06460061007300630069
310
006100000000000000FFFEFF052D00470072007000730002000000FFFEFF06470072006F00750070007300000000000000FFFEFF052D005400690074006C0002000000FFFEFF065400690074006C0065007300000000000000FFFEFF052D00530066006900740002000000FFFEFF0653006F00660066006900740000000000
310
0000FFFEFF052D00500061007400740002000000FFFEFF0E4800610074006300680020007000610074007400650072006E007300000000000000FFFEFF052D00480069006400650002000000FFFEFF0F480069006400640065006E00200065006C0065006D0065006E0074007300000000000000FFFEFF052D004E006F0074
310
00650002000000FFFEFF16470065006E006500720061006C0020005400650078007400200061006E00640020004E006F00740065007300000000000000FFFEFF052D0055006E006900740002000000FFFEFF0455006E0069007400000000000000FFFEFF052D004900640065006E0002000000FFFEFF0A4900640065006E00
310
740069006600690065007200000000000000FFFEFF052D004C0069006E00650002000000FFFEFF10470065006E006500720061006C0020006C0069006E00650077006F0072006B00000000000000FFFEFF052D00530069006C006C0002000000FFFEFF05530069006C006C007300000000000000FFFEFF052D005200690073
310
00720002000000FFFEFF06520069007300650072007300000000000000FFFEFF052D004F0074006C006E0002000000FFFEFF074F00750074006C0069006E0065000000000000000180FFFEFF06530074006100740075007300060000000000000000A434770470040000B10000005073770400000000050000FFFEFF000F00
310
FFFEFF022D00310002000000FFFEFF075000680061007300650020003100000000000000FFFEFF022D00320002000000FFFEFF075000680061007300650020003200000000000000FFFEFF022D00540002000000FFFEFF0E540065006D0070006F007200610072007900200077006F0072006B00000000000000FFFEFF022D
310
00330002000000FFFEFF075000680061007300650020003300000000000000FFFEFF022D00440002000000FFFEFF144500780069007300740069006E006700200074006F002000640065006D006F006C00690073006800000000000000FFFEFF022D00340002000000FFFEFF07500068006100730065002000340000000000
310
0000FFFEFF022D00450002000000FFFEFF124500780069007300740069006E006700200074006F002000720065006D00610069006E00000000000000FFFEFF022D00350002000000FFFEFF075000680061007300650020003500000000000000FFFEFF022D00460002000000FFFEFF0B460075007400750072006500200077
310
006F0072006B00000000000000FFFEFF022D00360002000000FFFEFF075000680061007300650020003600000000000000FFFEFF022D00370002000000FFFEFF075000680061007300650020003700000000000000FFFEFF022D00380002000000FFFEFF075000680061007300650020003800000000000000FFFEFF022D00
310
390002000000FFFEFF075000680061007300650020003900000000000000FFFEFF022D004D0002000000FFFEFF114900740065006D007300200074006F0020006200650020006D006F00760065006400000000000000FFFEFF022D004E0002000000FFFEFF084E0065007700200077006F0072006B000000000000000600FF
310
FF04001A004163416563556B4C61796572436F6D706F6E656E744669656C64FFFEFF174400690073006300690070006C0069006E0065002000440065007300690067006E00610074006F0072002000310001000000FFFEFF0440002C0040004000000000000100000000FFFEFF014100000000000780FFFEFF174400690073
310
006300690070006C0069006E0065002000440065007300690067006E00610074006F0072002000320001000000FFFEFF0440002C0040004000010000000100000000FFFEFF014400000000000780FFFEFF054D0061006A006F00720005000000FFFEFF052D00400040004000400000000000010000002DFFFEFF052D005700
310
61006C006C00000000000780FFFEFF064D0069006E006F007200310005000000FFFEFF022D002A0001000000010000002DFFFEFF052D004900640065006E00000000000780FFFEFF064D0069006E006F007200320005000000FFFEFF022D002A0001000000010000002DFFFEFF052D005400650078007400000000000780FF
310
FEFF0653007400610074007500730002000000FFFEFF022D002A0001000000010000002DFFFEFF022D004E0000000000050000010203040500FFFEFF00FFFEFF0320002D002000FFFEFF022C002000FFFEFF012000FFFEFF0320002D002000FFFEFF00
  0
DICTIONARY
  5
3D98
330
3D97
100
AcDbDictionary
280
     1
281
     1
  3
AcadLayerStateAnnoScale
360
3D99
  0
DICTIONARY
  5
3D8C
330
3D8B
100
AcDbDictionary
280
     1
281
     1
  3
AcadLayerStateAnnoScale
360
3D8D
  0
DICTIONARY
  5
FF26
330
FF25
100
AcDbDictionary
280
     1
281
     1
  3
AcadLayerStateAnnoScale
360
FF27
  0
DICTIONARY
  5
FF2A
330
FF29
100
AcDbDictionary
280
     1
281
     1
  3
AcadLayerStateAnnoScale
360
FF2B
  0
ACDB_HATCHVIEWCONTEXTDATA_CLASS
  5
1010C
102
{ACAD_REACTORS
330
1010B
102
}
330
1010B
100
AcDbObjectContextData
 70
     3
290
     1
100
AcDbAnnotScaleObjectContextData
340
A6F
100
AcDbHatchObjectContextData
 78
     3
 53
45.0
 43
5862.191883591379
 44
708.981793689847
 45
-3.535533905932737
 46
3.535533905932737
 79
     0
 53
105.0
 43
5862.191883591379
 44
708.981793689847
 45
-4.829629131445341
 46
-1.294095225512602
 79
     0
 53
165.0
 43
5862.191883591379
 44
708.981793689847
 45
-1.294095225512605
 46
-4.82962913144534
 79
     0
 40
1.0
 10
0.0
 20
0.0
 30
0.0
 90
        3
 90
        7
290
     1
 90
      519
290
     1
 90
      519
290
     1
100
AcDbHatchViewContextData
330
8661
 10
0.0
 20
0.0
 30
1736.523449255554
 51
0.0
290
     0
  0
ACDB_HATCHVIEWCONTEXTDATA_CLASS
  5
1010D
102
{ACAD_REACTORS
330
1010B
102
}
330
1010B
100
AcDbObjectContextData
 70
     3
290
     0
100
AcDbAnnotScaleObjectContextData
340
2A2
100
AcDbHatchObjectContextData
 78
     3
 53
45.0
 43
5862.191883591379
 44
708.981793689847
 45
-3.535533905932737
 46
3.535533905932737
 79
     0
 53
105.0
 43
5862.191883591379
 44
708.981793689847
 45
-4.829629131445341
 46
-1.294095225512602
 79
     0
 53
165.0
 43
5862.191883591379
 44
708.981793689847
 45
-1.294095225512605
 46
-4.82962913144534
 79
     0
 40
1.0
 10
0.0
 20
0.0
 30
0.0
 90
        3
 90
        7
290
     1
 90
     1543
290
     1
 90
     1543
290
     1
100
AcDbHatchViewContextData
330
0
 10
0.0
 20
0.0
 30
1.0
 51
0.0
290
     0
  0
ACDB_HATCHVIEWCONTEXTDATA_CLASS
  5
1010E
102
{ACAD_REACTORS
330
1010B
102
}
330
1010B
100
AcDbObjectContextData
 70
     3
290
     0
100
AcDbAnnotScaleObjectContextData
340
A6F
100
AcDbHatchObjectContextData
 78
     3
 53
45.0
 43
5862.191883591379
 44
708.981793689847
 45
-3.535533905932737
 46
3.535533905932737
 79
     0
 53
105.0
 43
5862.191883591379
 44
708.981793689847
 45
-4.829629131445341
 46
-1.294095225512602
 79
     0
 53
165.0
 43
5862.191883591379
 44
708.981793689847
 45
-1.294095225512605
 46
-4.82962913144534
 79
     0
 40
1.0
 10
0.0
 20
0.0
 30
0.0
 90
        3
 90
        7
290
     1
 90
      519
290
     1
 90
      519
290
     1
100
AcDbHatchViewContextData
330
0
 10
0.0
 20
0.0
 30
1.0
 51
0.0
290
     0
  0
ACDB_HATCHSCALECONTEXTDATA_CLASS
  5
10110
102
{ACAD_REACTORS
330
1010F
102
}
330
1010F
100
AcDbObjectContextData
 70
     3
290
     1
100
AcDbAnnotScaleObjectContextData
340
A6F
100
AcDbHatchObjectContextData
 78
     3
 53
45.0
 43
145.2128306352533
 44
493.106153727409
 45
-3.535533905932737
 46
3.535533905932737
 79
     0
 53
104.9999999999999
 43
145.2128306352533
 44
493.106153727409
 45
-4.829629131445341
 46
-1.294095225512602
 79
     0
 53
165.0
 43
145.2128306352533
 44
493.106153727409
 45
-1.294095225512605
 46
-4.82962913144534
 79
     0
 40
1.0
 10
0.7071067811865475
 20
0.7071067811865476
 30
0.0
 90
        3
 90
        7
290
     1
 90
      519
290
     0
 72
     0
 73
     1
 93
        4
 10
208.5100985212321
 20
546.8037651045197
 10
205.1026331509202
 20
548.7679908936988
 10
205.1026331509202
 20
490.930603495212
 10
208.5100985212321
 20
490.9309683409348
 90
      519
290
     0
 72
     0
 73
     1
 93
        4
 10
208.5100985212321
 20
490.9309683409349
 10
205.102633150921
 20
490.930603495212
 10
205.1026331509192
 20
423.7456952570641
 10
208.5100985212321
 20
426.222164806798
  0
ACDB_HATCHSCALECONTEXTDATA_CLASS
  5
10111
102
{ACAD_REACTORS
330
1010F
102
}
330
1010F
100
AcDbObjectContextData
 70
     3
290
     0
100
AcDbAnnotScaleObjectContextData
340
2A2
100
AcDbHatchObjectContextData
 78
     3
 53
45.0
 43
145.2128306352533
 44
493.106153727409
 45
-3.535533905932737
 46
3.535533905932737
 79
     0
 53
104.9999999999999
 43
145.2128306352533
 44
493.106153727409
 45
-4.829629131445341
 46
-1.294095225512602
 79
     0
 53
165.0
 43
145.2128306352533
 44
493.106153727409
 45
-1.294095225512605
 46
-4.82962913144534
 79
     0
 40
1.0
 10
0.7071067811865475
 20
0.7071067811865476
 30
0.0
 90
        3
 90
        7
290
     1
 90
     1543
290
     0
 72
     0
 73
     1
 93
        4
 10
208.5100985212321
 20
546.8037651045197
 10
205.1026331509202
 20
548.7679908936988
 10
205.1026331509202
 20
490.930603495212
 10
208.5100985212321
 20
490.9309683409348
 90
     1543
290
     0
 72
     0
 73
     1
 93
        4
 10
208.5100985212321
 20
490.9309683409349
 10
205.102633150921
 20
490.930603495212
 10
205.1026331509192
 20
423.7456952570641
 10
208.5100985212321
 20
426.222164806798
  0
ACDB_HATCHVIEWCONTEXTDATA_CLASS
  5
10119
102
{ACAD_REACTORS
330
10118
102
}
330
10118
100
AcDbObjectContextData
 70
     3
290
     0
100
AcDbAnnotScaleObjectContextData
340
A6F
100
AcDbHatchObjectContextData
 78
     3
 53
45.0
 43
5862.191883591379
 44
708.981793689847
 45
-3.535533905932737
 46
3.535533905932737
 79
     0
 53
105.0
 43
5862.191883591379
 44
708.981793689847
 45
-4.829629131445341
 46
-1.294095225512602
 79
     0
 53
165.0
 43
5862.191883591379
 44
708.981793689847
 45
-1.294095225512605
 46
-4.82962913144534
 79
     0
 40
1.0
 10
0.0
 20
0.0
 30
0.0
 90
        3
 90
        7
290
     1
 90
      519
290
     1
 90
      519
290
     1
100
AcDbHatchViewContextData
330
8661
 10
0.0
 20
0.0
 30
1736.523449255554
 51
0.0
290
     0
  0
ACDB_HATCHVIEWCONTEXTDATA_CLASS
  5
1011A
102
{ACAD_REACTORS
330
10118
102
}
330
10118
100
AcDbObjectContextData
 70
     3
290
     1
100
AcDbAnnotScaleObjectContextData
340
2A2
100
AcDbHatchObjectContextData
 78
     3
 53
45.0
 43
5862.191883591379
 44
708.981793689847
 45
-3.535533905932737
 46
3.535533905932737
 79
     0
 53
105.0
 43
5862.191883591379
 44
708.981793689847
 45
-4.829629131445341
 46
-1.294095225512602
 79
     0
 53
165.0
 43
5862.191883591379
 44
708.981793689847
 45
-1.294095225512605
 46
-4.82962913144534
 79
     0
 40
1.0
 10
0.0
 20
0.0
 30
0.0
 90
        3
 90
        7
290
     1
 90
     1543
290
     1
 90
     1543
290
     1
100
AcDbHatchViewContextData
330
0
 10
0.0
 20
0.0
 30
1.0
 51
0.0
290
     0
  0
ACDB_HATCHVIEWCONTEXTDATA_CLASS
  5
1011B
102
{ACAD_REACTORS
330
10118
102
}
330
10118
100
AcDbObjectContextData
 70
     3
290
     0
100
AcDbAnnotScaleObjectContextData
340
A6F
100
AcDbHatchObjectContextData
 78
     3
 53
45.0
 43
5862.191883591379
 44
708.981793689847
 45
-3.535533905932737
 46
3.535533905932737
 79
     0
 53
105.0
 43
5862.191883591379
 44
708.981793689847
 45
-4.829629131445341
 46
-1.294095225512602
 79
     0
 53
165.0
 43
5862.191883591379
 44
708.981793689847
 45
-1.294095225512605
 46
-4.82962913144534
 79
     0
 40
1.0
 10
0.0
 20
0.0
 30
0.0
 90
        3
 90
        7
290
     1
 90
      519
290
     1
 90
      519
290
     1
100
AcDbHatchViewContextData
330
0
 10
0.0
 20
0.0
 30
1.0
 51
0.0
290
     0
  0
ACDB_HATCHSCALECONTEXTDATA_CLASS
  5
1011D
102
{ACAD_REACTORS
330
1011C
102
}
330
1011C
100
AcDbObjectContextData
 70
     3
290
     0
100
AcDbAnnotScaleObjectContextData
340
A6F
100
AcDbHatchObjectContextData
 78
     3
 53
45.0
 43
145.2128306352533
 44
493.106153727409
 45
-3.535533905932737
 46
3.535533905932737
 79
     0
 53
104.9999999999999
 43
145.2128306352533
 44
493.106153727409
 45
-4.829629131445341
 46
-1.294095225512602
 79
     0
 53
165.0
 43
145.2128306352533
 44
493.106153727409
 45
-1.294095225512605
 46
-4.82962913144534
 79
     0
 40
1.0
 10
0.7071067811865475
 20
0.7071067811865476
 30
0.0
 90
        3
 90
        7
290
     1
 90
      519
290
     0
 72
     0
 73
     1
 93
        4
 10
208.5100985212321
 20
546.8037651045197
 10
205.1026331509202
 20
548.7679908936988
 10
205.1026331509202
 20
490.930603495212
 10
208.5100985212321
 20
490.9309683409348
 90
      519
290
     0
 72
     0
 73
     1
 93
        4
 10
208.5100985212321
 20
490.9309683409349
 10
205.102633150921
 20
490.930603495212
 10
205.1026331509192
 20
423.7456952570641
 10
208.5100985212321
 20
426.222164806798
  0
ACDB_HATCHSCALECONTEXTDATA_CLASS
  5
1011E
102
{ACAD_REACTORS
330
1011C
102
}
330
1011C
100
AcDbObjectContextData
 70
     3
290
     1
100
AcDbAnnotScaleObjectContextData
340
2A2
100
AcDbHatchObjectContextData
 78
     3
 53
45.0
 43
145.2128306352533
 44
493.106153727409
 45
-3.535533905932737
 46
3.535533905932737
 79
     0
 53
104.9999999999999
 43
145.2128306352533
 44
493.106153727409
 45
-4.829629131445341
 46
-1.294095225512602
 79
     0
 53
165.0
 43
145.2128306352533
 44
493.106153727409
 45
-1.294095225512605
 46
-4.82962913144534
 79
     0
 40
1.0
 10
0.7071067811865475
 20
0.7071067811865476
 30
0.0
 90
        3
 90
        7
290
     1
 90
     1543
290
     0
 72
     0
 73
     1
 93
        4
 10
208.5100985212321
 20
546.8037651045197
 10
205.1026331509202
 20
548.7679908936988
 10
205.1026331509202
 20
490.930603495212
 10
208.5100985212321
 20
490.9309683409348
 90
     1543
290
     0
 72
     0
 73
     1
 93
        4
 10
208.5100985212321
 20
490.9309683409349
 10
205.102633150921
 20
490.930603495212
 10
205.1026331509192
 20
423.7456952570641
 10
208.5100985212321
 20
426.222164806798
  0
CELLSTYLEMAP
  5
10102
102
{ACAD_REACTORS
330
FF39
102
}
330
FF39
100
AcDbCellStyleMap
 90
        3
300
CELLSTYLE
  1
TABLEFORMAT_BEGIN
 90
        5
170
     1
 91
        0
 92
    32768
 62
   257
 93
        1
300
CONTENTFORMAT
  1
CONTENTFORMAT_BEGIN
 90
        0
 91
        0
 92
      512
 93
        0
300

 40
0.0
140
1.0
 94
        5
 62
     0
340
FF3A
144
0.25
309
CONTENTFORMAT_END
171
     0
 94
        6
 95
        1
302
GRIDFORMAT
  1
GRIDFORMAT_BEGIN
 90
        0
 91
        1
 62
     0
 92
       -2
340
0
 93
        0
 40
0.045
309
GRIDFORMAT_END
 95
        2
302
GRIDFORMAT
  1
GRIDFORMAT_BEGIN
 90
        0
 91
        1
 62
     0
 92
       -2
340
0
 93
        0
 40
0.045
309
GRIDFORMAT_END
 95
        4
302
GRIDFORMAT
  1
GRIDFORMAT_BEGIN
 90
        0
 91
        1
 62
     0
 92
       -2
340
0
 93
        0
 40
0.045
309
GRIDFORMAT_END
 95
        8
302
GRIDFORMAT
  1
GRIDFORMAT_BEGIN
 90
        0
 91
        1
 62
     0
 92
       -2
340
0
 93
        0
 40
0.045
309
GRIDFORMAT_END
 95
       16
302
GRIDFORMAT
  1
GRIDFORMAT_BEGIN
 90
        0
 91
        1
 62
     0
 92
       -2
340
0
 93
        0
 40
0.045
309
GRIDFORMAT_END
 95
       32
302
GRIDFORMAT
  1
GRIDFORMAT_BEGIN
 90
        0
 91
        1
 62
     0
 92
       -2
340
0
 93
        0
 40
0.045
309
GRIDFORMAT_END
309
TABLEFORMAT_END
  1
CELLSTYLE_BEGIN
 90
        1
 91
        1
300
_TITLE
309
CELLSTYLE_END
300
CELLSTYLE
  1
TABLEFORMAT_BEGIN
 90
        5
170
     1
 91
        0
 92
        0
 62
   257
 93
        1
300
CONTENTFORMAT
  1
CONTENTFORMAT_BEGIN
 90
        0
 91
        0
 92
      512
 93
        0
300

 40
0.0
140
1.0
 94
        5
 62
     0
340
FF3A
144
0.18
309
CONTENTFORMAT_END
171
     0
 94
        6
 95
        1
302
GRIDFORMAT
  1
GRIDFORMAT_BEGIN
 90
        0
 91
        1
 62
     0
 92
       -2
340
0
 93
        0
 40
0.045
309
GRIDFORMAT_END
 95
        2
302
GRIDFORMAT
  1
GRIDFORMAT_BEGIN
 90
        0
 91
        1
 62
     0
 92
       -2
340
0
 93
        0
 40
0.045
309
GRIDFORMAT_END
 95
        4
302
GRIDFORMAT
  1
GRIDFORMAT_BEGIN
 90
        0
 91
        1
 62
     0
 92
       -2
340
0
 93
        0
 40
0.045
309
GRIDFORMAT_END
 95
        8
302
GRIDFORMAT
  1
GRIDFORMAT_BEGIN
 90
        0
 91
        1
 62
     0
 92
       -2
340
0
 93
        0
 40
0.045
309
GRIDFORMAT_END
 95
       16
302
GRIDFORMAT
  1
GRIDFORMAT_BEGIN
 90
        0
 91
        1
 62
     0
 92
       -2
340
0
 93
        0
 40
0.045
309
GRIDFORMAT_END
 95
       32
302
GRIDFORMAT
  1
GRIDFORMAT_BEGIN
 90
        0
 91
        1
 62
     0
 92
       -2
340
0
 93
        0
 40
0.045
309
GRIDFORMAT_END
309
TABLEFORMAT_END
  1
CELLSTYLE_BEGIN
 90
        2
 91
        1
300
_HEADER
309
CELLSTYLE_END
300
CELLSTYLE
  1
TABLEFORMAT_BEGIN
 90
        5
170
     1
 91
        0
 92
        0
 62
   257
 93
        1
300
CONTENTFORMAT
  1
CONTENTFORMAT_BEGIN
 90
        0
 91
        0
 92
      512
 93
        0
300

 40
0.0
140
1.0
 94
        2
 62
     0
340
FF3A
144
0.18
309
CONTENTFORMAT_END
171
     0
 94
        6
 95
        1
302
GRIDFORMAT
  1
GRIDFORMAT_BEGIN
 90
        0
 91
        1
 62
     0
 92
       -2
340
0
 93
        0
 40
0.045
309
GRIDFORMAT_END
 95
        2
302
GRIDFORMAT
  1
GRIDFORMAT_BEGIN
 90
        0
 91
        1
 62
     0
 92
       -2
340
0
 93
        0
 40
0.045
309
GRIDFORMAT_END
 95
        4
302
GRIDFORMAT
  1
GRIDFORMAT_BEGIN
 90
        0
 91
        1
 62
     0
 92
       -2
340
0
 93
        0
 40
0.045
309
GRIDFORMAT_END
 95
        8
302
GRIDFORMAT
  1
GRIDFORMAT_BEGIN
 90
        0
 91
        1
 62
     0
 92
       -2
340
0
 93
        0
 40
0.045
309
GRIDFORMAT_END
 95
       16
302
GRIDFORMAT
  1
GRIDFORMAT_BEGIN
 90
        0
 91
        1
 62
     0
 92
       -2
340
0
 93
        0
 40
0.045
309
GRIDFORMAT_END
 95
       32
302
GRIDFORMAT
  1
GRIDFORMAT_BEGIN
 90
        0
 91
        1
 62
     0
 92
       -2
340
0
 93
        0
 40
0.045
309
GRIDFORMAT_END
309
TABLEFORMAT_END
  1
CELLSTYLE_BEGIN
 90
        3
 91
        2
300
_DATA
309
CELLSTYLE_END
  0
CELLSTYLEMAP
  5
100FC
102
{ACAD_REACTORS
330
30E
102
}
330
30E
100
AcDbCellStyleMap
 90
        3
300
CELLSTYLE
  1
TABLEFORMAT_BEGIN
 90
        5
170
     1
 91
        0
 92
    32768
 62
   257
 93
        1
300
CONTENTFORMAT
  1
CONTENTFORMAT_BEGIN
 90
        0
 91
        0
 92
      512
 93
        0
300

 40
0.0
140
1.0
 94
        5
 62
     0
340
11
144
0.25
309
CONTENTFORMAT_END
171
     0
 94
        6
 95
        1
302
GRIDFORMAT
  1
GRIDFORMAT_BEGIN
 90
        0
 91
        1
 62
     0
 92
       -2
340
0
 93
        0
 40
0.045
309
GRIDFORMAT_END
 95
        2
302
GRIDFORMAT
  1
GRIDFORMAT_BEGIN
 90
        0
 91
        1
 62
     0
 92
       -2
340
0
 93
        0
 40
0.045
309
GRIDFORMAT_END
 95
        4
302
GRIDFORMAT
  1
GRIDFORMAT_BEGIN
 90
        0
 91
        1
 62
     0
 92
       -2
340
0
 93
        0
 40
0.045
309
GRIDFORMAT_END
 95
        8
302
GRIDFORMAT
  1
GRIDFORMAT_BEGIN
 90
        0
 91
        1
 62
     0
 92
       -2
340
0
 93
        0
 40
0.045
309
GRIDFORMAT_END
 95
       16
302
GRIDFORMAT
  1
GRIDFORMAT_BEGIN
 90
        0
 91
        1
 62
     0
 92
       -2
340
0
 93
        0
 40
0.045
309
GRIDFORMAT_END
 95
       32
302
GRIDFORMAT
  1
GRIDFORMAT_BEGIN
 90
        0
 91
        1
 62
     0
 92
       -2
340
0
 93
        0
 40
0.045
309
GRIDFORMAT_END
309
TABLEFORMAT_END
  1
CELLSTYLE_BEGIN
 90
        1
 91
        1
300
_TITLE
309
CELLSTYLE_END
300
CELLSTYLE
  1
TABLEFORMAT_BEGIN
 90
        5
170
     1
 91
        0
 92
        0
 62
   257
 93
        1
300
CONTENTFORMAT
  1
CONTENTFORMAT_BEGIN
 90
        0
 91
        0
 92
      512
 93
        0
300

 40
0.0
140
1.0
 94
        5
 62
     0
340
11
144
0.18
309
CONTENTFORMAT_END
171
     0
 94
        6
 95
        1
302
GRIDFORMAT
  1
GRIDFORMAT_BEGIN
 90
        0
 91
        1
 62
     0
 92
       -2
340
0
 93
        0
 40
0.045
309
GRIDFORMAT_END
 95
        2
302
GRIDFORMAT
  1
GRIDFORMAT_BEGIN
 90
        0
 91
        1
 62
     0
 92
       -2
340
0
 93
        0
 40
0.045
309
GRIDFORMAT_END
 95
        4
302
GRIDFORMAT
  1
GRIDFORMAT_BEGIN
 90
        0
 91
        1
 62
     0
 92
       -2
340
0
 93
        0
 40
0.045
309
GRIDFORMAT_END
 95
        8
302
GRIDFORMAT
  1
GRIDFORMAT_BEGIN
 90
        0
 91
        1
 62
     0
 92
       -2
340
0
 93
        0
 40
0.045
309
GRIDFORMAT_END
 95
       16
302
GRIDFORMAT
  1
GRIDFORMAT_BEGIN
 90
        0
 91
        1
 62
     0
 92
       -2
340
0
 93
        0
 40
0.045
309
GRIDFORMAT_END
 95
       32
302
GRIDFORMAT
  1
GRIDFORMAT_BEGIN
 90
        0
 91
        1
 62
     0
 92
       -2
340
0
 93
        0
 40
0.045
309
GRIDFORMAT_END
309
TABLEFORMAT_END
  1
CELLSTYLE_BEGIN
 90
        2
 91
        1
300
_HEADER
309
CELLSTYLE_END
300
CELLSTYLE
  1
TABLEFORMAT_BEGIN
 90
        5
170
     1
 91
        0
 92
        0
 62
   257
 93
        1
300
CONTENTFORMAT
  1
CONTENTFORMAT_BEGIN
 90
        0
 91
        0
 92
      512
 93
        0
300

 40
0.0
140
1.0
 94
        2
 62
     0
340
11
144
0.18
309
CONTENTFORMAT_END
171
     0
 94
        6
 95
        1
302
GRIDFORMAT
  1
GRIDFORMAT_BEGIN
 90
        0
 91
        1
 62
     0
 92
       -2
340
0
 93
        0
 40
0.045
309
GRIDFORMAT_END
 95
        2
302
GRIDFORMAT
  1
GRIDFORMAT_BEGIN
 90
        0
 91
        1
 62
     0
 92
       -2
340
0
 93
        0
 40
0.045
309
GRIDFORMAT_END
 95
        4
302
GRIDFORMAT
  1
GRIDFORMAT_BEGIN
 90
        0
 91
        1
 62
     0
 92
       -2
340
0
 93
        0
 40
0.045
309
GRIDFORMAT_END
 95
        8
302
GRIDFORMAT
  1
GRIDFORMAT_BEGIN
 90
        0
 91
        1
 62
     0
 92
       -2
340
0
 93
        0
 40
0.045
309
GRIDFORMAT_END
 95
       16
302
GRIDFORMAT
  1
GRIDFORMAT_BEGIN
 90
        0
 91
        1
 62
     0
 92
       -2
340
0
 93
        0
 40
0.045
309
GRIDFORMAT_END
 95
       32
302
GRIDFORMAT
  1
GRIDFORMAT_BEGIN
 90
        0
 91
        1
 62
     0
 92
       -2
340
0
 93
        0
 40
0.045
309
GRIDFORMAT_END
309
TABLEFORMAT_END
  1
CELLSTYLE_BEGIN
 90
        3
 91
        2
300
_DATA
309
CELLSTYLE_END
  0
XRECORD
  5
812
102
{ACAD_REACTORS
330
811
102
}
330
811
100
AcDbXrecord
280
     1
 90
        2
  0
XRECORD
  5
3D99
102
{ACAD_REACTORS
330
3D98
102
}
330
3D98
100
AcDbXrecord
280
     1
330
2A2
  0
XRECORD
  5
3D8D
102
{ACAD_REACTORS
330
3D8C
102
}
330
3D8C
100
AcDbXrecord
280
     1
330
2A2
  0
XRECORD
  5
FF27
102
{ACAD_REACTORS
330
FF26
102
}
330
FF26
100
AcDbXrecord
280
     1
330
2A2
  0
XRECORD
  5
FF2B
102
{ACAD_REACTORS
330
FF2A
102
}
330
FF2A
100
AcDbXrecord
280
     1
330
2A2
  0
ENDSEC
  0
EOF
