  0
SECTION
  2
HEADER
  9
$ACADVER
  1
AC1018
  9
$ACADMAINTVER
 70
     0
  9
$DWGCODEPAGE
  3
ANSI_1252
  9
$INSBASE
 10
0.0
 20
0.0
 30
0.0
  9
$EXTMIN
 10
1.000000000000000E+20
 20
1.000000000000000E+20
 30
1.000000000000000E+20
  9
$EXTMAX
 10
-1.000000000000000E+20
 20
-1.000000000000000E+20
 30
-1.000000000000000E+20
  9
$LIMMIN
 10
0.0
 20
0.0
  9
$LIMMAX
 10
12.0
 20
9.0
  9
$ORTHOMODE
 70
     0
  9
$REGENMODE
 70
     1
  9
$FILLMODE
 70
     1
  9
$QTEXTMODE
 70
     0
  9
$MIRRTEXT
 70
     1
  9
$LTSCALE
 40
1.0
  9
$ATTMODE
 70
     1
  9
$TEXTSIZE
 40
0.2
  9
$TRACEWID
 40
0.05
  9
$TEXTSTYLE
  7
Standard
  9
$CLAYER
  8
0
  9
$CELTYPE
  6
ByLayer
  9
$CECOLOR
 62
   256
  9
$CELTSCALE
 40
1.0
  9
$DISPSILH
 70
     0
  9
$DIMSCALE
 40
1.0
  9
$DIMASZ
 40
0.18
  9
$DIMEXO
 40
0.0625
  9
$DIMDLI
 40
0.38
  9
$DIMRND
 40
0.0
  9
$DIMDLE
 40
0.0
  9
$DIMEXE
 40
0.18
  9
$DIMTP
 40
0.0
  9
$DIMTM
 40
0.0
  9
$DIMTXT
 40
0.18
  9
$DIMCEN
 40
0.09
  9
$DIMTSZ
 40
0.0
  9
$DIMTOL
 70
     0
  9
$DIMLIM
 70
     0
  9
$DIMTIH
 70
     1
  9
$DIMTOH
 70
     1
  9
$DIMSE1
 70
     0
  9
$DIMSE2
 70
     0
  9
$DIMTAD
 70
     0
  9
$DIMZIN
 70
     0
  9
$DIMBLK
  1

  9
$DIMASO
 70
     1
  9
$DIMSHO
 70
     1
  9
$DIMPOST
  1

  9
$DIMAPOST
  1

  9
$DIMALT
 70
     0
  9
$DIMALTD
 70
     2
  9
$DIMALTF
 40
25.4
  9
$DIMLFAC
 40
1.0
  9
$DIMTOFL
 70
     0
  9
$DIMTVP
 40
0.0
  9
$DIMTIX
 70
     0
  9
$DIMSOXD
 70
     0
  9
$DIMSAH
 70
     0
  9
$DIMBLK1
  1

  9
$DIMBLK2
  1

  9
$DIMSTYLE
  2
Standard
  9
$DIMCLRD
 70
     0
  9
$DIMCLRE
 70
     0
  9
$DIMCLRT
 70
     0
  9
$DIMTFAC
 40
1.0
  9
$DIMGAP
 40
0.09
  9
$DIMJUST
 70
     0
  9
$DIMSD1
 70
     0
  9
$DIMSD2
 70
     0
  9
$DIMTOLJ
 70
     1
  9
$DIMTZIN
 70
     0
  9
$DIMALTZ
 70
     0
  9
$DIMALTTZ
 70
     0
  9
$DIMUPT
 70
     0
  9
$DIMDEC
 70
     4
  9
$DIMTDEC
 70
     4
  9
$DIMALTU
 70
     2
  9
$DIMALTTD
 70
     2
  9
$DIMTXSTY
  7
Standard
  9
$DIMAUNIT
 70
     0
  9
$DIMADEC
 70
     0
  9
$DIMALTRND
 40
0.0
  9
$DIMAZIN
 70
     0
  9
$DIMDSEP
 70
    46
  9
$DIMATFIT
 70
     3
  9
$DIMFRAC
 70
     0
  9
$DIMLDRBLK
  1

  9
$DIMLUNIT
 70
     2
  9
$DIMLWD
 70
    -2
  9
$DIMLWE
 70
    -2
  9
$DIMTMOVE
 70
     0
  9
$LUNITS
 70
     2
  9
$LUPREC
 70
     4
  9
$SKETCHINC
 40
0.1
  9
$FILLETRAD
 40
0.5
  9
$AUNITS
 70
     0
  9
$AUPREC
 70
     0
  9
$MENU
  1
.
  9
$ELEVATION
 40
0.0
  9
$PELEVATION
 40
0.0
  9
$THICKNESS
 40
0.0
  9
$LIMCHECK
 70
     0
  9
$CHAMFERA
 40
0.5
  9
$CHAMFERB
 40
0.5
  9
$CHAMFERC
 40
1.0
  9
$CHAMFERD
 40
0.0
  9
$SKPOLY
 70
     0
  9
$TDCREATE
 40
2457126.420059248
  9
$TDUCREATE
 40
2457125.920059248
  9
$TDUPDATE
 40
2457126.420060555
  9
$TDUUPDATE
 40
2457125.920060555
  9
$TDINDWG
 40
0.0000000116
  9
$TDUSRTIMER
 40
0.0000000116
  9
$USRTIMER
 70
     1
  9
$ANGBASE
 50
0.0
  9
$ANGDIR
 70
     0
  9
$PDMODE
 70
     0
  9
$PDSIZE
 40
0.0
  9
$PLINEWID
 40
0.0
  9
$SPLFRAME
 70
     0
  9
$SPLINETYPE
 70
     6
  9
$SPLINESEGS
 70
     8
  9
$HANDSEED
  5
227
  9
$SURFTAB1
 70
     6
  9
$SURFTAB2
 70
     6
  9
$SURFTYPE
 70
     6
  9
$SURFU
 70
     6
  9
$SURFV
 70
     6
  9
$UCSBASE
  2

  9
$UCSNAME
  2

  9
$UCSORG
 10
0.0
 20
0.0
 30
0.0
  9
$UCSXDIR
 10
1.0
 20
0.0
 30
0.0
  9
$UCSYDIR
 10
0.0
 20
1.0
 30
0.0
  9
$UCSORTHOREF
  2

  9
$UCSORTHOVIEW
 70
     0
  9
$UCSORGTOP
 10
0.0
 20
0.0
 30
0.0
  9
$UCSORGBOTTOM
 10
0.0
 20
0.0
 30
0.0
  9
$UCSORGLEFT
 10
0.0
 20
0.0
 30
0.0
  9
$UCSORGRIGHT
 10
0.0
 20
0.0
 30
0.0
  9
$UCSORGFRONT
 10
0.0
 20
0.0
 30
0.0
  9
$UCSORGBACK
 10
0.0
 20
0.0
 30
0.0
  9
$PUCSBASE
  2

  9
$PUCSNAME
  2

  9
$PUCSORG
 10
0.0
 20
0.0
 30
0.0
  9
$PUCSXDIR
 10
1.0
 20
0.0
 30
0.0
  9
$PUCSYDIR
 10
0.0
 20
1.0
 30
0.0
  9
$PUCSORTHOREF
  2

  9
$PUCSORTHOVIEW
 70
     0
  9
$PUCSORGTOP
 10
0.0
 20
0.0
 30
0.0
  9
$PUCSORGBOTTOM
 10
0.0
 20
0.0
 30
0.0
  9
$PUCSORGLEFT
 10
0.0
 20
0.0
 30
0.0
  9
$PUCSORGRIGHT
 10
0.0
 20
0.0
 30
0.0
  9
$PUCSORGFRONT
 10
0.0
 20
0.0
 30
0.0
  9
$PUCSORGBACK
 10
0.0
 20
0.0
 30
0.0
  9
$USERI1
 70
     0
  9
$USERI2
 70
     0
  9
$USERI3
 70
     0
  9
$USERI4
 70
     0
  9
$USERI5
 70
     0
  9
$USERR1
 40
0.0
  9
$USERR2
 40
0.0
  9
$USERR3
 40
0.0
  9
$USERR4
 40
0.0
  9
$USERR5
 40
0.0
  9
$WORLDVIEW
 70
     1
  9
$SHADEDGE
 70
     3
  9
$SHADEDIF
 70
    70
  9
$TILEMODE
 70
     1
  9
$MAXACTVP
 70
    64
  9
$PINSBASE
 10
0.0
 20
0.0
 30
0.0
  9
$PLIMCHECK
 70
     0
  9
$PEXTMIN
 10
1.000000000000000E+20
 20
1.000000000000000E+20
 30
1.000000000000000E+20
  9
$PEXTMAX
 10
-1.000000000000000E+20
 20
-1.000000000000000E+20
 30
-1.000000000000000E+20
  9
$PLIMMIN
 10
0.0
 20
0.0
  9
$PLIMMAX
 10
12.0
 20
9.0
  9
$UNITMODE
 70
     0
  9
$VISRETAIN
 70
     1
  9
$PLINEGEN
 70
     0
  9
$PSLTSCALE
 70
     1
  9
$TREEDEPTH
 70
  3020
  9
$CMLSTYLE
  2
Standard
  9
$CMLJUST
 70
     0
  9
$CMLSCALE
 40
1.0
  9
$PROXYGRAPHICS
 70
     1
  9
$MEASUREMENT
 70
     0
  9
$CELWEIGHT
370
    -1
  9
$ENDCAPS
280
     0
  9
$JOINSTYLE
280
     0
  9
$LWDISPLAY
290
     1
  9
$INSUNITS
 70
     4
  9
$HYPERLINKBASE
  1

  9
$STYLESHEET
  1

  9
$XEDIT
290
     1
  9
$CEPSNTYPE
380
     0
  9
$PSTYLEMODE
290
     1
  9
$FINGERPRINTGUID
  2
{37BACE37-CB0D-49E0-A412-66C816707B9F}
  9
$VERSIONGUID
  2
{FAEB1C32-E019-11D5-929B-00C0DF256EC4}
  9
$EXTNAMES
290
     1
  9
$PSVPSCALE
 40
0.0
  9
$OLESTARTUP
290
     0
  9
$SORTENTS
280
   127
  9
$INDEXCTL
280
     0
  9
$HIDETEXT
280
     1
  9
$XCLIPFRAME
290
     0
  9
$HALOGAP
280
     0
  9
$OBSCOLOR
 70
   257
  9
$OBSLTYPE
280
     0
  9
$INTERSECTIONDISPLAY
280
     0
  9
$INTERSECTIONCOLOR
 70
   257
  9
$DIMASSOC
280
     2
  9
$PROJECTNAME
  1

  0
ENDSEC
  0
SECTION
  2
CLASSES
  0
CLASS
  1
ACDBDICTIONARYWDFLT
  2
AcDbDictionaryWithDefault
  3
ObjectDBX Classes
 90
        0
 91
        4
280
     0
281
     0
  0
CLASS
  1
VISUALSTYLE
  2
AcDbVisualStyle
  3
ObjectDBX Classes
 90
     4095
 91
        4
280
     0
281
     0
  0
CLASS
  1
MATERIAL
  2
AcDbMaterial
  3
ObjectDBX Classes
 90
     1153
 91
        4
280
     0
281
     0
  0
CLASS
  1
WIPEOUT
  2
AcDbWipeout
  3
WipeOut|AutoCAD Express Tool|expresstools@autodesk.com
 90
      127
 91
        4
280
     0
281
     1
  0
CLASS
  1
SCALE
  2
AcDbScale
  3
ObjectDBX Classes
 90
     1153
 91
        4
280
     0
281
     0
  0
CLASS
  1
DICTIONARYVAR
  2
AcDbDictionaryVar
  3
ObjectDBX Classes
 90
        0
 91
        4
280
     0
281
     0
  0
ENDSEC
  0
SECTION
  2
TABLES
  0
TABLE
  2
VPORT
  5
8
330
0
100
AcDbSymbolTable
 70
     1
  0
VPORT
  5
29
330
8
100
AcDbSymbolTableRecord
100
AcDbViewportTableRecord
  2
*Active
 70
     0
 10
0.0
 20
0.0
 11
1.0
 21
1.0
 12
475.6161431277292
 22
-65.2467999806089
 13
0.0
 23
0.0
 14
0.5
 24
0.5
 15
0.5
 25
0.5
 16
0.0
 26
0.0
 36
1.0
 17
0.0
 27
0.0
 37
0.0
 40
1122.929437387276
 41
0.8640408735192372
 42
50.0
 43
0.0
 44
0.0
 50
0.0
 51
0.0
 71
     0
 72
   100
 73
     1
 74
     3
 75
     0
 76
     0
 77
     0
 78
     0
281
     0
 65
     1
110
0.0
120
0.0
130
0.0
111
1.0
121
0.0
131
0.0
112
0.0
122
1.0
132
0.0
 79
     0
146
0.0
  0
ENDTAB
  0
TABLE
  2
LTYPE
  5
5
330
0
100
AcDbSymbolTable
 70
     4
  0
LTYPE
  5
14
330
5
100
AcDbSymbolTableRecord
100
AcDbLinetypeTableRecord
  2
ByBlock
 70
     0
  3

 72
    65
 73
     0
 40
0.0
  0
LTYPE
  5
15
330
5
100
AcDbSymbolTableRecord
100
AcDbLinetypeTableRecord
  2
ByLayer
 70
     0
  3

 72
    65
 73
     0
 40
0.0
  0
LTYPE
  5
16
330
5
100
AcDbSymbolTableRecord
100
AcDbLinetypeTableRecord
  2
Continuous
 70
     0
  3
Solid line
 72
    65
 73
     0
 40
0.0
  0
LTYPE
  5
135
330
5
100
AcDbSymbolTableRecord
100
AcDbLinetypeTableRecord
  2
Above
 70
     0
  3
- - - - - 
 72
    65
 73
     2
 40
15.0
 49
10.0
 74
     0
 49
-4.999999999999999
 74
     0
  0
LTYPE
  5
137
330
5
100
AcDbSymbolTableRecord
100
AcDbLinetypeTableRecord
  2
AStair_dashed
 70
     0
  3
- - - - - 
 72
    65
 73
     2
 40
18.00000000000001
 49
8.000000000000004
 74
     0
 49
-10.0
 74
     0
  0
LTYPE
  5
1A9
330
5
100
AcDbSymbolTableRecord
100
AcDbLinetypeTableRecord
  2
Wipeout_Contour
 70
     0
  3
- - - - - 
 72
    65
 73
     2
 40
1000.0
 49
0.0
 74
     0
 49
-1000.0
 74
     0
  0
ENDTAB
  0
TABLE
  2
LAYER
  5
2
330
0
100
AcDbSymbolTable
 70
     4
  0
LAYER
  5
10
330
2
100
AcDbSymbolTableRecord
100
AcDbLayerTableRecord
  2
0
 70
     0
 62
     7
  6
Continuous
370
    -3
390
F
  0
LAYER
  5
40
330
2
100
AcDbSymbolTableRecord
100
AcDbLayerTableRecord
  2
0_Pen_No__146
 70
     0
 62
     9
420
 13290186
  6
Continuous
370
     5
390
F
  0
LAYER
  5
42
330
2
100
AcDbSymbolTableRecord
100
AcDbLayerTableRecord
  2
0_Pen_No__1
 70
     0
 62
     7
  6
Continuous
370
    13
390
F
  0
LAYER
  5
1AA
330
2
100
AcDbSymbolTableRecord
100
AcDbLayerTableRecord
  2
Key_ Sections_Pen_No__1
 70
     0
 62
     7
  6
Continuous
370
    13
390
F
  0
ENDTAB
  0
TABLE
  2
STYLE
  5
3
330
0
100
AcDbSymbolTable
 70
     2
  0
STYLE
  5
11
330
3
100
AcDbSymbolTableRecord
100
AcDbTextStyleTableRecord
  2
Standard
 70
     0
 40
0.0
 41
1.0
 50
0.0
 71
     0
 42
0.2
  3
txt
  4

  0
STYLE
  5
1A7
330
3
100
AcDbSymbolTableRecord
100
AcDbTextStyleTableRecord
  2
GENERATED_STYLE_1
 70
     0
 40
0.0
 41
1.0
 50
0.0
 71
     0
 42
0.2
  3

  4

1001
ACAD
1000
Arial
1071
       34
  0
ENDTAB
  0
TABLE
  2
VIEW
  5
6
330
0
100
AcDbSymbolTable
 70
     0
  0
ENDTAB
  0
TABLE
  2
UCS
  5
7
330
0
100
AcDbSymbolTable
 70
     0
  0
ENDTAB
  0
TABLE
  2
APPID
  5
9
330
0
100
AcDbSymbolTable
 70
     1
  0
APPID
  5
12
330
9
100
AcDbSymbolTableRecord
100
AcDbRegAppTableRecord
  2
ACAD
 70
     0
  0
ENDTAB
  0
TABLE
  2
DIMSTYLE
  5
A
330
0
100
AcDbSymbolTable
 70
     2
100
AcDbDimStyleTable
  0
DIMSTYLE
105
27
330
A
100
AcDbSymbolTableRecord
100
AcDbDimStyleTableRecord
  2
Standard
 70
     0
178
     0
340
11
  0
DIMSTYLE
105
1AD
330
A
100
AcDbSymbolTableRecord
100
AcDbDimStyleTableRecord
  2
GENERATED_STYLE__1
 70
     0
 41
9.12
172
     1
178
     0
340
0
341
1AE
  0
ENDTAB
  0
TABLE
  2
BLOCK_RECORD
  5
1
330
0
100
AcDbSymbolTable
 70
     5
  0
BLOCK_RECORD
  5
1F
330
1
100
AcDbSymbolTableRecord
100
AcDbBlockTableRecord
  2
*Model_Space
340
22
  0
BLOCK_RECORD
  5
1B
330
1
100
AcDbSymbolTableRecord
100
AcDbBlockTableRecord
  2
*Paper_Space
340
1E
  0
BLOCK_RECORD
  5
23
330
1
100
AcDbSymbolTableRecord
100
AcDbBlockTableRecord
  2
*Paper_Space0
340
26
  0
BLOCK_RECORD
  5
45
330
1
100
AcDbSymbolTableRecord
100
AcDbBlockTableRecord
  2
Fill_1
340
0
102
{BLKREFS
331
E6
102
}
  0
BLOCK_RECORD
  5
48
330
1
100
AcDbSymbolTableRecord
100
AcDbBlockTableRecord
  2
*X2
340
0
102
{BLKREFS
331
E5
102
}
  0
BLOCK_RECORD
  5
1AE
330
1
100
AcDbSymbolTableRecord
100
AcDbBlockTableRecord
  2
ARROWHEAD_5
340
0
  0
BLOCK_RECORD
  5
1D5
330
1
100
AcDbSymbolTableRecord
100
AcDbBlockTableRecord
  2
DC-44-T Door Sill - WANZ Suppor_STORY_MARKER
340
0
  0
ENDTAB
  0
ENDSEC
  0
SECTION
  2
BLOCKS
  0
BLOCK
  5
20
330
1F
100
AcDbEntity
  8
0
100
AcDbBlockBegin
  2
*Model_Space
 70
     0
 10
0.0
 20
0.0
 30
0.0
  3
*Model_Space
  1

  0
ENDBLK
  5
21
330
1F
100
AcDbEntity
  8
0
100
AcDbBlockEnd
  0
BLOCK
  5
1C
330
1B
100
AcDbEntity
 67
     1
  8
0
100
AcDbBlockBegin
  2
*Paper_Space
 70
     0
 10
0.0
 20
0.0
 30
0.0
  3
*Paper_Space
  1

  0
ENDBLK
  5
1D
330
1B
100
AcDbEntity
 67
     1
  8
0
100
AcDbBlockEnd
  0
BLOCK
  5
24
330
23
100
AcDbEntity
  8
0
100
AcDbBlockBegin
  2
*Paper_Space0
 70
     0
 10
0.0
 20
0.0
 30
0.0
  3
*Paper_Space0
  1

  0
ENDBLK
  5
25
330
23
100
AcDbEntity
  8
0
100
AcDbBlockEnd
  0
BLOCK
  5
46
330
45
100
AcDbEntity
  8
0
100
AcDbBlockBegin
  2
Fill_1
 70
     0
 10
0.0
 20
0.0
 30
0.0
  3
Fill_1
  1

  0
INSERT
  5
E5
330
45
100
AcDbEntity
  8
0_Pen_No__146
  6
Continuous
100
AcDbBlockReference
  2
*X2
 10
0.0
 20
0.0
 30
0.0
  0
ENDBLK
  5
47
330
45
100
AcDbEntity
  8
0
100
AcDbBlockEnd
  0
BLOCK
  5
49
330
48
100
AcDbEntity
  8
0
100
AcDbBlockBegin
  2
*X2
 70
     1
 10
0.0
 20
0.0
 30
0.0
  3
*X2
  1

  0
LINE
  5
4B
330
48
100
AcDbEntity
  8
0_Pen_No__146
  6
Continuous
100
AcDbLine
 10
233.847500043128
 20
-415.6206209084088
 30
0.0
 11
241.1945624218451
 21
-406.8647329235589
 31
0.0
  0
LINE
  5
4C
330
48
100
AcDbEntity
  8
0_Pen_No__146
  6
Continuous
100
AcDbLine
 10
233.847500043128
 20
-161.9555042889495
 30
0.0
 11
241.1945624218451
 21
-153.1996163040995
 31
0.0
  0
LINE
  5
4D
330
48
100
AcDbEntity
  8
0_Pen_No__146
  6
Continuous
100
AcDbLine
 10
121.1956157689821
 20
-425.1840722317507
 30
0.0
 11
128.5426781476993
 21
-416.4281842469007
 31
0.0
  0
LINE
  5
4E
330
48
100
AcDbEntity
  8
0_Pen_No__146
  6
Continuous
100
AcDbLine
 10
121.1956157689822
 20
-171.5189556122914
 30
0.0
 11
128.5426781476993
 21
-162.7630676274414
 31
0.0
  0
LINE
  5
4F
330
48
100
AcDbEntity
  8
0_Pen_No__146
  6
Continuous
100
AcDbLine
 10
209.3603643135878
 20
-320.1134164135517
 30
0.0
 11
216.707426692305
 21
-311.3575284287018
 31
0.0
  0
LINE
  5
50
330
48
100
AcDbEntity
  8
0_Pen_No__146
  6
Continuous
100
AcDbLine
 10
209.3600224504016
 20
-320.1134858595309
 30
0.0
 11
218.4692267697525
 21
-320.9104379712156
 31
0.0
  0
LINE
  5
51
330
48
100
AcDbEntity
  8
0_Pen_No__146
  6
Continuous
100
AcDbLine
 10
233.847500043128
 20
-415.6206209084088
 30
0.0
 11
242.9567043624789
 21
-416.4175730200934
 31
0.0
  0
LINE
  5
52
330
48
100
AcDbEntity
  8
0_Pen_No__146
  6
Continuous
100
AcDbLine
 10
233.847500043128
 20
-161.9555042889495
 30
0.0
 11
242.9567043624789
 21
-162.7524564006341
 31
0.0
  0
LINE
  5
53
330
48
100
AcDbEntity
  8
0_Pen_No__146
  6
Continuous
100
AcDbLine
 10
121.1952662035907
 20
-425.1840462486239
 30
0.0
 11
130.3044705229416
 21
-425.9809983603084
 31
0.0
  0
LINE
  5
54
330
48
100
AcDbEntity
  8
0_Pen_No__146
  6
Continuous
100
AcDbLine
 10
121.1952662035907
 20
-171.5189296291645
 30
0.0
 11
130.3044705229416
 21
-172.3158817408491
 31
0.0
  0
LINE
  5
55
330
48
100
AcDbEntity
  8
0_Pen_No__146
  6
Continuous
100
AcDbLine
 10
242.956700043128
 20
-416.4175709084088
 30
0.0
 11
241.1946332075194
 21
-406.8647223035764
 31
0.0
  0
LINE
  5
56
330
48
100
AcDbEntity
  8
0_Pen_No__146
  6
Continuous
100
AcDbLine
 10
242.956700043128
 20
-162.7524542889495
 30
0.0
 11
241.1946332075194
 21
-153.199605684117
 31
0.0
  0
LINE
  5
57
330
48
100
AcDbEntity
  8
0_Pen_No__146
  6
Continuous
100
AcDbLine
 10
130.3043173982582
 20
-425.9817414742225
 30
0.0
 11
128.5422505626497
 21
-416.42889286939
 31
0.0
  0
LINE
  5
58
330
48
100
AcDbEntity
  8
0_Pen_No__146
  6
Continuous
100
AcDbLine
 10
130.3043173982582
 20
-172.3166248547631
 30
0.0
 11
128.5422505626497
 21
-162.7637762499307
 31
0.0
  0
LINE
  5
59
330
48
100
AcDbEntity
  8
0_Pen_No__146
  6
Continuous
100
AcDbLine
 10
218.4698183978339
 20
-320.9117287820474
 30
0.0
 11
216.7077515622253
 21
-311.3588801772149
 31
0.0
  0
LINE
  5
5A
330
48
100
AcDbEntity
  8
0_Pen_No__146
  6
Continuous
100
AcDbLine
 10
233.847500043128
 20
-385.1406209084088
 30
0.0
 11
245.7177067468442
 21
-372.7693146794348
 31
0.0
  0
LINE
  5
5B
330
48
100
AcDbEntity
  8
0_Pen_No__146
  6
Continuous
100
AcDbLine
 10
174.5322389066577
 20
-410.3660176680451
 30
0.0
 11
186.4024456103739
 21
-397.9947114390711
 31
0.0
  0
LINE
  5
5C
330
48
100
AcDbEntity
  8
0_Pen_No__146
  6
Continuous
100
AcDbLine
 10
174.5322389066577
 20
-156.7009010485858
 30
0.0
 11
186.4024456103739
 21
-144.3295948196117
 31
0.0
  0
LINE
  5
5D
330
48
100
AcDbEntity
  8
0_Pen_No__146
  6
Continuous
100
AcDbLine
 10
247.401440043128
 20
-387.2427209084088
 30
0.0
 11
245.7176976423076
 21
-372.7693297187919
 31
0.0
  0
LINE
  5
5E
330
48
100
AcDbEntity
  8
0_Pen_No__146
  6
Continuous
100
AcDbLine
 10
188.0862038609662
 20
-412.4680816497819
 30
0.0
 11
186.4024614601458
 21
-397.994690460165
 31
0.0
  0
LINE
  5
5F
330
48
100
AcDbEntity
  8
0_Pen_No__146
  6
Continuous
100
AcDbLine
 10
188.0862038609662
 20
-158.8029650303226
 30
0.0
 11
186.4024614601458
 21
-144.3295738407057
 31
0.0
  0
LINE
  5
60
330
48
100
AcDbEntity
  8
0_Pen_No__146
  6
Continuous
100
AcDbLine
 10
233.847500043128
 20
-385.1406209084088
 30
0.0
 11
247.4014540236475
 21
-387.242759698774
 31
0.0
  0
LINE
  5
61
330
48
100
AcDbEntity
  8
0_Pen_No__146
  6
Continuous
100
AcDbLine
 10
174.5322621376144
 20
-410.3662863927913
 30
0.0
 11
188.0862161181339
 21
-412.4684251831565
 31
0.0
  0
LINE
  5
62
330
48
100
AcDbEntity
  8
0_Pen_No__146
  6
Continuous
100
AcDbLine
 10
174.5322621376144
 20
-156.7011697733319
 30
0.0
 11
188.0862161181339
 21
-158.8033085636972
 31
0.0
  0
LINE
  5
63
330
48
100
AcDbEntity
  8
0_Pen_No__146
  6
Continuous
100
AcDbLine
 10
286.1684634402542
 20
-535.9126784581773
 30
0.0
 11
288.0837721301602
 21
-535.1774603361316
 31
0.0
  0
LINE
  5
64
330
48
100
AcDbEntity
  8
0_Pen_No__146
  6
Continuous
100
AcDbLine
 10
286.1684634402542
 20
-282.247561838718
 30
0.0
 11
288.0837721301602
 21
-281.5123437166723
 31
0.0
  0
LINE
  5
65
330
48
100
AcDbEntity
  8
0_Pen_No__146
  6
Continuous
100
AcDbLine
 10
155.1747056697359
 20
-343.6068729487754
 30
0.0
 11
165.8455299445989
 21
-339.5107272854727
 31
0.0
  0
LINE
  5
66
330
48
100
AcDbEntity
  8
0_Pen_No__146
  6
Continuous
100
AcDbLine
 10
155.1747056697359
 20
-89.94175632931609
 30
0.0
 11
155.5404907454915
 21
-89.80134459418079
 31
0.0
  0
LINE
  5
67
330
48
100
AcDbEntity
  8
0_Pen_No__146
  6
Continuous
100
AcDbLine
 10
221.9626856717483
 20
-499.4518724396627
 30
0.0
 11
222.6773609208648
 21
-499.177534314797
 31
0.0
  0
LINE
  5
68
330
48
100
AcDbEntity
  8
0_Pen_No__146
  6
Continuous
100
AcDbLine
 10
221.9626856717483
 20
-245.7867558202034
 30
0.0
 11
222.6773609208648
 21
-245.5124176953376
 31
0.0
  0
LINE
  5
69
330
48
100
AcDbEntity
  8
0_Pen_No__146
  6
Continuous
100
AcDbLine
 10
118.0937422726096
 20
-454.1199320184663
 30
0.0
 11
128.7645665474727
 21
-450.0237863551636
 31
0.0
  0
LINE
  5
6A
330
48
100
AcDbEntity
  8
0_Pen_No__146
  6
Continuous
100
AcDbLine
 10
118.0937422726097
 20
-200.454815399007
 30
0.0
 11
128.7645665474727
 21
-196.3586697357042
 31
0.0
  0
LINE
  5
6B
330
48
100
AcDbEntity
  8
0_Pen_No__146
  6
Continuous
100
AcDbLine
 10
286.1687170517162
 20
-535.9129578544765
 30
0.0
 11
288.0837721301602
 21
-537.2046788151093
 31
0.0
  0
LINE
  5
6C
330
48
100
AcDbEntity
  8
0_Pen_No__146
  6
Continuous
100
AcDbLine
 10
286.1687170517162
 20
-282.2478412350173
 30
0.0
 11
288.0837721301602
 21
-283.5395621956501
 31
0.0
  0
LINE
  5
6D
330
48
100
AcDbEntity
  8
0_Pen_No__146
  6
Continuous
100
AcDbLine
 10
155.1746661412875
 20
-343.6069601470554
 30
0.0
 11
162.7553857047308
 21
-348.7202200563918
 31
0.0
  0
LINE
  5
6E
330
48
100
AcDbEntity
  8
0_Pen_No__146
  6
Continuous
100
AcDbLine
 10
155.1746661412875
 20
-89.94184352759602
 30
0.0
 11
162.7553857047308
 21
-95.05510343693253
 31
0.0
  0
LINE
  5
6F
330
48
100
AcDbEntity
  8
0_Pen_No__146
  6
Continuous
100
AcDbLine
 10
118.0934491326993
 20
-454.1197398204469
 30
0.0
 11
125.6741686961426
 21
-459.2329997297834
 31
0.0
  0
LINE
  5
70
330
48
100
AcDbEntity
  8
0_Pen_No__146
  6
Continuous
100
AcDbLine
 10
118.0934491326993
 20
-200.4546232009876
 30
0.0
 11
125.6741686961426
 21
-205.567883110324
 31
0.0
  0
LINE
  5
71
330
48
100
AcDbEntity
  8
0_Pen_No__146
  6
Continuous
100
AcDbLine
 10
221.9626856717483
 20
-501.3060813310717
 30
0.0
 11
222.6769875020542
 21
-499.177260842089
 31
0.0
  0
LINE
  5
72
330
48
100
AcDbEntity
  8
0_Pen_No__146
  6
Continuous
100
AcDbLine
 10
221.9626856717483
 20
-247.6409647116124
 30
0.0
 11
222.6769875020542
 21
-245.5121442226296
 31
0.0
  0
LINE
  5
73
330
48
100
AcDbEntity
  8
0_Pen_No__146
  6
Continuous
100
AcDbLine
 10
125.6740860613739
 20
-459.2329443882436
 30
0.0
 11
128.7641962923806
 21
-450.0235462124544
 31
0.0
  0
LINE
  5
74
330
48
100
AcDbEntity
  8
0_Pen_No__146
  6
Continuous
100
AcDbLine
 10
125.6740860613739
 20
-205.5678277687842
 30
0.0
 11
128.7641962923806
 21
-196.3584295929951
 31
0.0
  0
LINE
  5
75
330
48
100
AcDbEntity
  8
0_Pen_No__146
  6
Continuous
100
AcDbLine
 10
162.7554088334544
 20
-348.7201662787743
 30
0.0
 11
165.8455190644611
 21
-339.5107681029852
 31
0.0
  0
LINE
  5
76
330
48
100
AcDbEntity
  8
0_Pen_No__146
  6
Continuous
100
AcDbLine
 10
162.7554088334544
 20
-95.05504965931499
 30
0.0
 11
163.0612780841738
 21
-94.14347320765972
 31
0.0
  0
POINT
  5
77
330
48
100
AcDbEntity
  8
0_Pen_No__146
  6
Continuous
100
AcDbPoint
 10
239.4069858941932
 20
-517.0866675561924
 30
0.0
  0
POINT
  5
78
330
48
100
AcDbEntity
  8
0_Pen_No__146
  6
Continuous
100
AcDbPoint
 10
239.4069858941933
 20
-263.4215509367332
 30
0.0
  0
POINT
  5
79
330
48
100
AcDbEntity
  8
0_Pen_No__146
  6
Continuous
100
AcDbPoint
 10
237.5538239438382
 20
-314.1545742606251
 30
0.0
  0
POINT
  5
7A
330
48
100
AcDbEntity
  8
0_Pen_No__146
  6
Continuous
100
AcDbPoint
 10
15.59113827208992
 20
-60.4894576411657
 30
0.0
  0
POINT
  5
7B
330
48
100
AcDbEntity
  8
0_Pen_No__146
  6
Continuous
100
AcDbPoint
 10
235.7006619934831
 20
-364.8875975845169
 30
0.0
  0
POINT
  5
7C
330
48
100
AcDbEntity
  8
0_Pen_No__146
  6
Continuous
100
AcDbPoint
 10
233.847500043128
 20
-415.6206209084088
 30
0.0
  0
POINT
  5
7D
330
48
100
AcDbEntity
  8
0_Pen_No__146
  6
Continuous
100
AcDbPoint
 10
233.847500043128
 20
-161.9555042889494
 30
0.0
  0
POINT
  5
7E
330
48
100
AcDbEntity
  8
0_Pen_No__146
  6
Continuous
100
AcDbPoint
 10
90.71621035875027
 20
-101.4660466477837
 30
0.0
  0
POINT
  5
7F
330
48
100
AcDbEntity
  8
0_Pen_No__146
  6
Continuous
100
AcDbPoint
 10
171.7239332292077
 20
-292.9717512740206
 30
0.0
  0
POINT
  5
80
330
48
100
AcDbEntity
  8
0_Pen_No__146
  6
Continuous
100
AcDbPoint
 10
231.9943380927729
 20
-466.3536442323007
 30
0.0
  0
POINT
  5
81
330
48
100
AcDbEntity
  8
0_Pen_No__146
  6
Continuous
100
AcDbPoint
 10
231.9943380927729
 20
-212.6885276128413
 30
0.0
  0
POINT
  5
82
330
48
100
AcDbEntity
  8
0_Pen_No__146
  6
Continuous
100
AcDbPoint
 10
88.86304840839516
 20
-152.1990699716756
 30
0.0
  0
POINT
  5
83
330
48
100
AcDbEntity
  8
0_Pen_No__146
  6
Continuous
100
AcDbPoint
 10
169.8707712788525
 20
-343.7047745979125
 30
0.0
  0
POINT
  5
84
330
48
100
AcDbEntity
  8
0_Pen_No__146
  6
Continuous
100
AcDbPoint
 10
168.0176093284975
 20
-394.4377979218044
 30
0.0
  0
POINT
  5
85
330
48
100
AcDbEntity
  8
0_Pen_No__146
  6
Continuous
100
AcDbPoint
 10
168.0176093284975
 20
-140.772681302345
 30
0.0
  0
POINT
  5
86
330
48
100
AcDbEntity
  8
0_Pen_No__146
  6
Continuous
100
AcDbPoint
 10
166.1644473781424
 20
-445.1708212456962
 30
0.0
  0
POINT
  5
87
330
48
100
AcDbEntity
  8
0_Pen_No__146
  6
Continuous
100
AcDbPoint
 10
166.1644473781424
 20
-191.5057046262369
 30
0.0
  0
POINT
  5
88
330
48
100
AcDbEntity
  8
0_Pen_No__146
  6
Continuous
100
AcDbPoint
 10
164.3112854277873
 20
-495.9038445695882
 30
0.0
  0
POINT
  5
89
330
48
100
AcDbEntity
  8
0_Pen_No__146
  6
Continuous
100
AcDbPoint
 10
164.3112854277873
 20
-242.2387279501288
 30
0.0
  0
POINT
  5
8A
330
48
100
AcDbEntity
  8
0_Pen_No__146
  6
Continuous
100
AcDbPoint
 10
275.8793053449692
 20
-554.0918261489446
 30
0.0
  0
POINT
  5
8B
330
48
100
AcDbEntity
  8
0_Pen_No__146
  6
Continuous
100
AcDbPoint
 10
275.8793053449692
 20
-300.4267095294853
 30
0.0
  0
POINT
  5
8C
330
48
100
AcDbEntity
  8
0_Pen_No__146
  6
Continuous
100
AcDbPoint
 10
53.91661967322098
 20
-46.7615929100259
 30
0.0
  0
POINT
  5
8D
330
48
100
AcDbEntity
  8
0_Pen_No__146
  6
Continuous
100
AcDbPoint
 10
149.7871565893734
 20
-287.8051138994291
 30
0.0
  0
POINT
  5
8E
330
48
100
AcDbEntity
  8
0_Pen_No__146
  6
Continuous
100
AcDbPoint
 10
235.7875078387858
 20
-360.5350544203569
 30
0.0
  0
POINT
  5
8F
330
48
100
AcDbEntity
  8
0_Pen_No__146
  6
Continuous
100
AcDbPoint
 10
273.9392975493114
 20
-355.5122760175371
 30
0.0
  0
POINT
  5
90
330
48
100
AcDbEntity
  8
0_Pen_No__146
  6
Continuous
100
AcDbPoint
 10
51.97661187756314
 20
-101.8471593980778
 30
0.0
  0
POINT
  5
91
330
48
100
AcDbEntity
  8
0_Pen_No__146
  6
Continuous
100
AcDbPoint
 10
109.69535908319
 20
-94.24834217084152
 30
0.0
  0
POINT
  5
92
330
48
100
AcDbEntity
  8
0_Pen_No__146
  6
Continuous
100
AcDbPoint
 10
205.9436364915258
 20
-335.2421326810089
 30
0.0
  0
POINT
  5
93
330
48
100
AcDbEntity
  8
0_Pen_No__146
  6
Continuous
100
AcDbPoint
 10
233.847500043128
 20
-415.6206209084088
 30
0.0
  0
POINT
  5
94
330
48
100
AcDbEntity
  8
0_Pen_No__146
  6
Continuous
100
AcDbPoint
 10
233.847500043128
 20
-161.9555042889495
 30
0.0
  0
POINT
  5
95
330
48
100
AcDbEntity
  8
0_Pen_No__146
  6
Continuous
100
AcDbPoint
 10
165.8518389853424
 20
-395.3504775718806
 30
0.0
  0
POINT
  5
96
330
48
100
AcDbEntity
  8
0_Pen_No__146
  6
Continuous
100
AcDbPoint
 10
165.8518389853424
 20
-141.6853609524212
 30
0.0
  0
POINT
  5
97
330
48
100
AcDbEntity
  8
0_Pen_No__146
  6
Continuous
100
AcDbPoint
 10
204.003628695868
 20
-390.3276991690607
 30
0.0
  0
POINT
  5
98
330
48
100
AcDbEntity
  8
0_Pen_No__146
  6
Continuous
100
AcDbPoint
 10
204.003628695868
 20
-136.6625825496014
 30
0.0
  0
POINT
  5
99
330
48
100
AcDbEntity
  8
0_Pen_No__146
  6
Continuous
100
AcDbPoint
 10
251.4744497425714
 20
-468.1301485720442
 30
0.0
  0
POINT
  5
9A
330
48
100
AcDbEntity
  8
0_Pen_No__146
  6
Continuous
100
AcDbPoint
 10
251.4744497425714
 20
-214.4650319525849
 30
0.0
  0
POINT
  5
9B
330
48
100
AcDbEntity
  8
0_Pen_No__146
  6
Continuous
100
AcDbPoint
 10
125.760041479159
 20
-455.4588224627523
 30
0.0
  0
POINT
  5
9C
330
48
100
AcDbEntity
  8
0_Pen_No__146
  6
Continuous
100
AcDbPoint
 10
125.760041479159
 20
-201.7937058432929
 30
0.0
  0
POINT
  5
9D
330
48
100
AcDbEntity
  8
0_Pen_No__146
  6
Continuous
100
AcDbPoint
 10
163.9118311896846
 20
-450.4360440599325
 30
0.0
  0
POINT
  5
9E
330
48
100
AcDbEntity
  8
0_Pen_No__146
  6
Continuous
100
AcDbPoint
 10
163.9118311896846
 20
-196.7709274404731
 30
0.0
  0
POINT
  5
9F
330
48
100
AcDbEntity
  8
0_Pen_No__146
  6
Continuous
100
AcDbPoint
 10
221.6305783953114
 20
-442.8372268326962
 30
0.0
  0
POINT
  5
A0
330
48
100
AcDbEntity
  8
0_Pen_No__146
  6
Continuous
100
AcDbPoint
 10
221.6305783953114
 20
-189.1721102132368
 30
0.0
  0
POINT
  5
A1
330
48
100
AcDbEntity
  8
0_Pen_No__146
  6
Continuous
100
AcDbPoint
 10
181.538780889128
 20
-502.9455717235679
 30
0.0
  0
POINT
  5
A2
330
48
100
AcDbEntity
  8
0_Pen_No__146
  6
Continuous
100
AcDbPoint
 10
181.538780889128
 20
-249.2804551041085
 30
0.0
  0
POINT
  5
A3
330
48
100
AcDbEntity
  8
0_Pen_No__146
  6
Continuous
100
AcDbPoint
 10
200.6054086261268
 20
-520.8178053570969
 30
0.0
  0
POINT
  5
A4
330
48
100
AcDbEntity
  8
0_Pen_No__146
  6
Continuous
100
AcDbPoint
 10
200.6054086261268
 20
-267.1526887376376
 30
0.0
  0
POINT
  5
A5
330
48
100
AcDbEntity
  8
0_Pen_No__146
  6
Continuous
100
AcDbPoint
 10
119.251051526004
 20
-263.7154423420335
 30
0.0
  0
POINT
  5
A6
330
48
100
AcDbEntity
  8
0_Pen_No__146
  6
Continuous
100
AcDbPoint
 10
151.3842656114749
 20
-284.1865574200475
 30
0.0
  0
POINT
  5
A7
330
48
100
AcDbEntity
  8
0_Pen_No__146
  6
Continuous
100
AcDbPoint
 10
259.8593800976294
 20
-513.9433125658887
 30
0.0
  0
POINT
  5
A8
330
48
100
AcDbEntity
  8
0_Pen_No__146
  6
Continuous
100
AcDbPoint
 10
259.8593800976294
 20
-260.2781959464295
 30
0.0
  0
POINT
  5
A9
330
48
100
AcDbEntity
  8
0_Pen_No__146
  6
Continuous
100
AcDbPoint
 10
170.2855364580214
 20
-344.6191900678471
 30
0.0
  0
POINT
  5
AA
330
48
100
AcDbEntity
  8
0_Pen_No__146
  6
Continuous
100
AcDbPoint
 10
88.93117935789863
 20
-87.5168270527838
 30
0.0
  0
POINT
  5
AB
330
48
100
AcDbEntity
  8
0_Pen_No__146
  6
Continuous
100
AcDbPoint
 10
221.9626856717483
 20
-425.9323600952211
 30
0.0
  0
POINT
  5
AC
330
48
100
AcDbEntity
  8
0_Pen_No__146
  6
Continuous
100
AcDbPoint
 10
221.9626856717483
 20
-172.2672434757618
 30
0.0
  0
POINT
  5
AD
330
48
100
AcDbEntity
  8
0_Pen_No__146
  6
Continuous
100
AcDbPoint
 10
229.539507929524
 20
-337.744697276639
 30
0.0
  0
POINT
  5
AE
330
48
100
AcDbEntity
  8
0_Pen_No__146
  6
Continuous
100
AcDbPoint
 10
140.6083285716254
 20
-422.495113699617
 30
0.0
  0
POINT
  5
AF
330
48
100
AcDbEntity
  8
0_Pen_No__146
  6
Continuous
100
AcDbPoint
 10
140.6083285716254
 20
-168.8299970801576
 30
0.0
  0
POINT
  5
B0
330
48
100
AcDbEntity
  8
0_Pen_No__146
  6
Continuous
100
AcDbPoint
 10
172.7415426570963
 20
-442.966228777631
 30
0.0
  0
POINT
  5
B1
330
48
100
AcDbEntity
  8
0_Pen_No__146
  6
Continuous
100
AcDbPoint
 10
172.7415426570963
 20
-189.3011121581716
 30
0.0
  0
POINT
  5
B2
330
48
100
AcDbEntity
  8
0_Pen_No__146
  6
Continuous
100
AcDbPoint
 10
281.2166571432508
 20
-419.0578673040129
 30
0.0
  0
POINT
  5
B3
330
48
100
AcDbEntity
  8
0_Pen_No__146
  6
Continuous
100
AcDbPoint
 10
281.2166571432508
 20
-165.3927506845536
 30
0.0
  0
POINT
  5
B4
330
48
100
AcDbEntity
  8
0_Pen_No__146
  6
Continuous
100
AcDbPoint
 10
191.6428135036428
 20
-503.3988614254305
 30
0.0
  0
POINT
  5
B5
330
48
100
AcDbEntity
  8
0_Pen_No__146
  6
Continuous
100
AcDbPoint
 10
191.6428135036428
 20
-249.7337448059713
 30
0.0
  0
POINT
  5
B6
330
48
100
AcDbEntity
  8
0_Pen_No__146
  6
Continuous
100
AcDbPoint
 10
231.9955141285989
 20
-436.0917359864228
 30
0.0
  0
POINT
  5
B7
330
48
100
AcDbEntity
  8
0_Pen_No__146
  6
Continuous
100
AcDbPoint
 10
231.9955141285989
 20
-182.4266193669635
 30
0.0
  0
POINT
  5
B8
330
48
100
AcDbEntity
  8
0_Pen_No__146
  6
Continuous
100
AcDbPoint
 10
250.8967849751454
 20
-496.5243686342225
 30
0.0
  0
POINT
  5
B9
330
48
100
AcDbEntity
  8
0_Pen_No__146
  6
Continuous
100
AcDbPoint
 10
250.8967849751454
 20
-242.8592520147631
 30
0.0
  0
POINT
  5
BA
330
48
100
AcDbEntity
  8
0_Pen_No__146
  6
Continuous
100
AcDbPoint
 10
146.706757260763
 20
-294.1773755325489
 30
0.0
  0
POINT
  5
BB
330
48
100
AcDbEntity
  8
0_Pen_No__146
  6
Continuous
100
AcDbPoint
 10
279.7919341009004
 20
-563.098386772008
 30
0.0
  0
POINT
  5
BC
330
48
100
AcDbEntity
  8
0_Pen_No__146
  6
Continuous
100
AcDbPoint
 10
279.7919341009004
 20
-309.4332701525486
 30
0.0
  0
POINT
  5
BD
330
48
100
AcDbEntity
  8
0_Pen_No__146
  6
Continuous
100
AcDbPoint
 10
57.82924842915218
 20
-55.76815353308931
 30
0.0
  0
POINT
  5
BE
330
48
100
AcDbEntity
  8
0_Pen_No__146
  6
Continuous
100
AcDbPoint
 10
140.4146320346014
 20
-385.1088316684092
 30
0.0
  0
POINT
  5
BF
330
48
100
AcDbEntity
  8
0_Pen_No__146
  6
Continuous
100
AcDbPoint
 10
140.4146320346014
 20
-131.4437150489499
 30
0.0
  0
POINT
  5
C0
330
48
100
AcDbEntity
  8
0_Pen_No__146
  6
Continuous
100
AcDbPoint
 10
176.9319785268068
 20
-418.5708146516129
 30
0.0
  0
POINT
  5
C1
330
48
100
AcDbEntity
  8
0_Pen_No__146
  6
Continuous
100
AcDbPoint
 10
176.9319785268068
 20
-164.9056980321535
 30
0.0
  0
POINT
  5
C2
330
48
100
AcDbEntity
  8
0_Pen_No__146
  6
Continuous
100
AcDbPoint
 10
273.4998088747388
 20
-400.364726288409
 30
0.0
  0
POINT
  5
C3
330
48
100
AcDbEntity
  8
0_Pen_No__146
  6
Continuous
100
AcDbPoint
 10
146.2575019504649
 20
-487.1599621494573
 30
0.0
  0
POINT
  5
C4
330
48
100
AcDbEntity
  8
0_Pen_No__146
  6
Continuous
100
AcDbPoint
 10
146.2575019504649
 20
-233.4948455299979
 30
0.0
  0
POINT
  5
C5
330
48
100
AcDbEntity
  8
0_Pen_No__146
  6
Continuous
100
AcDbPoint
 10
279.3426787906023
 20
-502.4158567694571
 30
0.0
  0
POINT
  5
C6
330
48
100
AcDbEntity
  8
0_Pen_No__146
  6
Continuous
100
AcDbPoint
 10
279.3426787906023
 20
-248.7507401499977
 30
0.0
  0
LINE
  5
C7
330
48
100
AcDbEntity
  8
0_Pen_No__146
  6
Continuous
100
AcDbLine
 10
272.7944703140452
 20
-449.4681268889767
 30
0.0
 11
284.1525196357742
 21
-450.7486016467009
 31
0.0
  0
LINE
  5
C8
330
48
100
AcDbEntity
  8
0_Pen_No__146
  6
Continuous
100
AcDbLine
 10
272.7944703140452
 20
-195.8030102695173
 30
0.0
 11
284.1525196357742
 21
-197.0834850272416
 31
0.0
  0
LINE
  5
C9
330
48
100
AcDbEntity
  8
0_Pen_No__146
  6
Continuous
100
AcDbLine
 10
272.7944703140452
 20
-449.4681268889766
 30
0.0
 11
277.1671150647703
 21
-457.4988624644986
 31
0.0
  0
LINE
  5
CA
330
48
100
AcDbEntity
  8
0_Pen_No__146
  6
Continuous
100
AcDbLine
 10
272.7944703140452
 20
-195.8030102695172
 30
0.0
 11
277.1671150647703
 21
-203.8337458450393
 31
0.0
  0
LINE
  5
CB
330
48
100
AcDbEntity
  8
0_Pen_No__146
  6
Continuous
100
AcDbLine
 10
277.1671144360243
 20
-457.498857697877
 30
0.0
 11
284.1525676237308
 21
-450.7486547555677
 31
0.0
  0
LINE
  5
CC
330
48
100
AcDbEntity
  8
0_Pen_No__146
  6
Continuous
100
AcDbLine
 10
277.1671144360243
 20
-203.8337410784176
 30
0.0
 11
284.1525676237308
 21
-197.0835381361083
 31
0.0
  0
LINE
  5
CD
330
48
100
AcDbEntity
  8
0_Pen_No__146
  6
Continuous
100
AcDbLine
 10
94.10049460552098
 20
-126.5189114307908
 30
0.0
 11
98.02846753301795
 21
-115.7850431308324
 31
0.0
  0
LINE
  5
CE
330
48
100
AcDbEntity
  8
0_Pen_No__146
  6
Continuous
100
AcDbLine
 10
94.1001967945882
 20
-126.5190930948502
 30
0.0
 11
102.9367270944897
 21
-124.1678235954257
 31
0.0
  0
LINE
  5
CF
330
48
100
AcDbEntity
  8
0_Pen_No__146
  6
Continuous
100
AcDbLine
 10
102.9377227663724
 20
-124.1688359461022
 30
0.0
 11
98.02923311810135
 21
-115.7862035807401
 31
0.0
  0
LINE
  5
D0
330
48
100
AcDbEntity
  8
0_Pen_No__146
  6
Continuous
100
AcDbLine
 10
171.2050972520578
 20
-275.6132161264622
 30
0.0
 11
181.8759215269209
 21
-271.5170704631594
 31
0.0
  0
LINE
  5
D1
330
48
100
AcDbEntity
  8
0_Pen_No__146
  6
Continuous
100
AcDbLine
 10
171.2050577236095
 20
-275.6133033247421
 30
0.0
 11
178.7857772870528
 21
-280.7265632340786
 31
0.0
  0
LINE
  5
D2
330
48
100
AcDbEntity
  8
0_Pen_No__146
  6
Continuous
100
AcDbLine
 10
178.7858004157764
 20
-280.7265094564611
 30
0.0
 11
181.875910646783
 21
-271.517111280672
 31
0.0
  0
LINE
  5
D3
330
48
100
AcDbEntity
  8
0_Pen_No__146
  6
Continuous
100
AcDbLine
 10
172.6038269375152
 20
-473.7742743132846
 30
0.0
 11
183.2746512123782
 21
-469.6781286499818
 31
0.0
  0
LINE
  5
D4
330
48
100
AcDbEntity
  8
0_Pen_No__146
  6
Continuous
100
AcDbLine
 10
172.6038269375152
 20
-220.1091576938252
 30
0.0
 11
183.2746512123782
 21
-216.0130120305225
 31
0.0
  0
LINE
  5
D5
330
48
100
AcDbEntity
  8
0_Pen_No__146
  6
Continuous
100
AcDbLine
 10
172.6037874090668
 20
-473.7743615115646
 30
0.0
 11
180.1845069725101
 21
-478.887621420901
 31
0.0
  0
LINE
  5
D6
330
48
100
AcDbEntity
  8
0_Pen_No__146
  6
Continuous
100
AcDbLine
 10
172.6037874090668
 20
-220.1092448921052
 30
0.0
 11
180.1845069725101
 21
-225.2225048014417
 31
0.0
  0
LINE
  5
D7
330
48
100
AcDbEntity
  8
0_Pen_No__146
  6
Continuous
100
AcDbLine
 10
180.1845301012337
 20
-478.8875676432835
 30
0.0
 11
183.2746403322404
 21
-469.6781694674944
 31
0.0
  0
LINE
  5
D8
330
48
100
AcDbEntity
  8
0_Pen_No__146
  6
Continuous
100
AcDbLine
 10
180.1845301012337
 20
-225.2224510238242
 30
0.0
 11
183.2746403322404
 21
-216.013052848035
 31
0.0
  0
LINE
  5
D9
330
48
100
AcDbEntity
  8
0_Pen_No__146
  6
Continuous
100
AcDbLine
 10
260.0474984451553
 20
-332.0491694462762
 30
0.0
 11
270.7183227200183
 21
-327.9530237829734
 31
0.0
  0
LINE
  5
DA
330
48
100
AcDbEntity
  8
0_Pen_No__146
  6
Continuous
100
AcDbLine
 10
38.08481277340706
 20
-78.38405282681678
 30
0.0
 11
48.75563704827007
 21
-74.28790716351402
 31
0.0
  0
LINE
  5
DB
330
48
100
AcDbEntity
  8
0_Pen_No__146
  6
Continuous
100
AcDbLine
 10
260.0474589167069
 20
-332.0492566445561
 30
0.0
 11
267.6281784801503
 21
-337.1625165538925
 31
0.0
  0
LINE
  5
DC
330
48
100
AcDbEntity
  8
0_Pen_No__146
  6
Continuous
100
AcDbLine
 10
38.08477324495868
 20
-78.38414002509673
 30
0.0
 11
45.66549280840199
 21
-83.49739993443322
 31
0.0
  0
LINE
  5
DD
330
48
100
AcDbEntity
  8
0_Pen_No__146
  6
Continuous
100
AcDbLine
 10
267.6282016088738
 20
-337.162462776275
 30
0.0
 11
270.7183118398805
 21
-327.9530646004859
 31
0.0
  0
LINE
  5
DE
330
48
100
AcDbEntity
  8
0_Pen_No__146
  6
Continuous
100
AcDbLine
 10
45.66551593712558
 20
-83.4973461568157
 30
0.0
 11
48.75562616813227
 21
-74.28794798102659
 31
0.0
  0
LINE
  5
DF
330
48
100
AcDbEntity
  8
0_Pen_No__146
  6
Continuous
100
AcDbLine
 10
275.9826767695455
 20
-391.5582435184871
 30
0.0
 11
286.6535010444086
 21
-387.4620978551843
 31
0.0
  0
LINE
  5
E0
330
48
100
AcDbEntity
  8
0_Pen_No__146
  6
Continuous
100
AcDbLine
 10
54.01999109779729
 20
-137.8931268990278
 30
0.0
 11
64.69081537266031
 21
-133.796981235725
 31
0.0
  0
LINE
  5
E1
330
48
100
AcDbEntity
  8
0_Pen_No__146
  6
Continuous
100
AcDbLine
 10
275.9826767695455
 20
-391.5582435184871
 30
0.0
 11
283.5633963329889
 21
-396.6715034278236
 31
0.0
  0
LINE
  5
E2
330
48
100
AcDbEntity
  8
0_Pen_No__146
  6
Continuous
100
AcDbLine
 10
54.01999109779729
 20
-137.8931268990277
 30
0.0
 11
61.6007106612406
 21
-143.0063868083643
 31
0.0
  0
LINE
  5
E3
330
48
100
AcDbEntity
  8
0_Pen_No__146
  6
Continuous
100
AcDbLine
 10
283.5633767695456
 20
-396.671503518487
 30
0.0
 11
286.6534870005523
 21
-387.462105342698
 31
0.0
  0
LINE
  5
E4
330
48
100
AcDbEntity
  8
0_Pen_No__146
  6
Continuous
100
AcDbLine
 10
61.60069109779729
 20
-143.0063868990277
 30
0.0
 11
64.69080132880399
 21
-133.7969887232387
 31
0.0
  0
ENDBLK
  5
4A
330
48
100
AcDbEntity
  8
0
100
AcDbBlockEnd
  0
BLOCK
  5
1AF
330
1AE
100
AcDbEntity
  8
0
100
AcDbBlockBegin
  2
ARROWHEAD_5
 70
     0
 10
0.0
 20
0.0
 30
0.0
  3
ARROWHEAD_5
  1

  0
SOLID
  5
1B1
330
1AE
100
AcDbEntity
  8
0
  6
Continuous
 62
     0
370
     0
100
AcDbTrace
 10
-1.0
 20
0.2679
 30
0.0
 11
0.0
 21
0.0
 31
0.0
 12
-1.0
 22
-0.2679
 32
0.0
 13
-1.0
 23
0.2679
 33
0.0
  0
LINE
  5
1B2
330
1AE
100
AcDbEntity
  8
0
  6
Continuous
 62
     0
370
     0
100
AcDbLine
 10
0.0
 20
0.0
 30
0.0
 11
-1.0
 21
0.0
 31
0.0
  0
ENDBLK
  5
1B0
330
1AE
100
AcDbEntity
  8
0
100
AcDbBlockEnd
  0
BLOCK
  5
1D6
330
1D5
100
AcDbEntity
  8
0
100
AcDbBlockBegin
  2
DC-44-T Door Sill - WANZ Suppor_STORY_MARKER
 70
     0
 10
0.0
 20
0.0
 30
0.0
  3
DC-44-T Door Sill - WANZ Suppor_STORY_MARKER
  1

  0
ENDBLK
  5
1D7
330
1D5
100
AcDbEntity
  8
0
100
AcDbBlockEnd
  0
ENDSEC
  0
SECTION
  2
ENTITIES
  0
HATCH
  5
3F
330
1F
100
AcDbEntity
  8
0_Pen_No__146
  6
Continuous
 62
   250
420
  3289650
370
     0
100
AcDbHatch
 10
0.0
 20
0.0
 30
0.0
210
0.0
220
0.0
230
1.0
  2
SOLID
 70
     1
 71
     0
 91
        1
 92
        3
 72
     0
 73
     1
 93
       23
 10
415.0000000000001
 20
391.2162285742248
 10
414.4951347259416
 20
-3.341609278074822
 10
492.4374209813998
 20
-48.34160942554434
 10
493.7069108515653
 20
338.6257605629553
 10
562.9889430786324
 20
378.6257606940525
 10
577.1057593993745
 20
370.475412955554
 10
577.1057593993745
 20
366.1873711782972
 10
583.9497183052305
 20
368.8680200919531
 10
628.8469624729918
 20
363.8872400974663
 10
636.1288587742808
 20
359.7273522291692
 10
641.6796886991523
 20
350.3959971972864
 10
630.9065673772593
 20
343.8220296452105
 10
642.759492221928
 20
307.6873819945561
 10
651.4864670963027
 20
299.3967558638998
 10
672.8411506489496
 20
296.4100688767719
 10
666.3512724681395
 20
314.7980570557334
 10
669.5731820776135
 20
368.1769454316934
 10
632.1099646505402
 20
390.4170815333749
 10
581.2725855675294
 20
404.4784842584629
 10
549.056036168189
 20
400.8371445399536
 10
522.8636819402399
 20
399.0702524411213
 10
514.4150200546562
 20
393.6620206237797
 10
483.9244128553806
 20
399.0702524411213
 97
        0
 75
     0
 76
     1
 98
        0
  0
HATCH
  5
41
330
1F
100
AcDbEntity
  8
0_Pen_No__146
  6
Continuous
 62
   250
420
  3289650
370
     0
100
AcDbHatch
 10
0.0
 20
0.0
 30
0.0
210
0.0
220
0.0
230
1.0
  2
SOLID
 70
     1
 71
     1
 91
        1
 92
        3
 72
     1
 73
     1
 93
       15
 10
513.7050306185813
 20
-69.48466382240125
 42
0.0
 10
336.1196365438039
 20
-172.0136358267158
 42
-0.3668785781546983
 10
332.3628035714219
 20
-172.9845250521235
 42
0.0
 10
331.1552117043101
 20
-172.2966070957518
 42
0.0
 10
304.7995797067285
 20
-187.4803751850863
 42
0.0
 10
304.7995797067285
 20
-200.2805347470841
 42
0.0
 10
310.8617575067277
 20
-203.780534747083
 42
0.0
 10
310.8617575067277
 20
-197.9803751850831
 42
0.0
 10
316.9239353067206
 20
-201.4803751850785
 42
0.0
 10
316.9239353067202
 20
-221.4803751850777
 42
0.0
 10
310.8617575067277
 20
-217.9803751850827
 42
0.0
 10
310.8617575067277
 20
-224.9803751850806
 42
0.0
 10
322.9861131067256
 20
-231.980375185079
 42
0.0
 10
322.9861131067252
 20
-196.2990246010551
 42
0.0
 10
528.1700293817369
 20
-77.83603478862167
 42
0.0
 97
        1
330
43
 75
     0
 76
     1
 98
        0
  0
LWPOLYLINE
  5
43
102
{ACAD_REACTORS
330
41
102
}
330
1F
100
AcDbEntity
  8
0_Pen_No__1
  6
Continuous
100
AcDbPolyline
 90
       15
 70
   129
 43
0.0
 10
513.7050306185813
 20
-69.48466382240125
 10
336.1196365438039
 20
-172.0136358267158
 42
-0.3668785781546983
 10
332.3628035714219
 20
-172.9845250521235
 10
331.1552117043101
 20
-172.2966070957518
 10
304.7995797067285
 20
-187.4803751850863
 10
304.7995797067285
 20
-200.2805347470841
 10
310.8617575067277
 20
-203.780534747083
 10
310.8617575067277
 20
-197.9803751850831
 10
316.9239353067206
 20
-201.4803751850785
 10
316.9239353067202
 20
-221.4803751850777
 10
310.8617575067277
 20
-217.9803751850827
 10
310.8617575067277
 20
-224.9803751850806
 10
322.9861131067256
 20
-231.980375185079
 10
322.9861131067252
 20
-196.2990246010551
 10
528.1700293817369
 20
-77.83603478862167
  0
HATCH
  5
44
330
1F
100
AcDbEntity
  8
0_Pen_No__146
  6
Continuous
 62
   250
420
  3289650
370
     0
100
AcDbHatch
 10
0.0
 20
0.0
 30
0.0
210
0.0
220
0.0
230
1.0
  2
SOLID
 70
     1
 71
     0
 91
        1
 92
        3
 72
     0
 73
     1
 93
       17
 10
1.891544375623333
 20
-72.66873209823423
 10
8.2724511522088
 20
-279.6123187073528
 10
4.734660753938733
 20
-352.7266536049322
 10
29.49919354182966
 20
-425.8409885025117
 10
71.95267832107004
 20
-503.6723772644506
 10
268.8896771581045
 20
-615.7024065429991
 10
364.4100179113963
 20
-609.8060892125493
 10
524.7898492996396
 20
-577.9659756281196
 10
602.7307564561411
 20
-532.9782274486786
 10
624.967489245738
 20
-492.6741492675338
 10
288.0837721301602
 20
-298.1742436553906
 10
288.0837721301602
 20
-576.3252441152649
 10
114.8786915624731
 20
-476.3252437875595
 10
114.8786915624731
 20
-176.3252437875523
 10
50.48975567481455
 20
-139.1502741575434
 10
27.31572378122003
 20
-117.0143241587229
 10
20.2401429846799
 20
-96.96684523519329
 97
        0
 75
     0
 76
     1
 98
        0
  0
INSERT
  5
E6
330
1F
100
AcDbEntity
  8
0_Pen_No__146
  6
Continuous
100
AcDbBlockReference
  2
Fill_1
 10
0.0
 20
0.0
 30
0.0
  0
HATCH
  5
E7
330
1F
100
AcDbEntity
  8
0_Pen_No__146
  6
Continuous
 62
   250
420
  3289650
370
     0
100
AcDbHatch
 10
0.0
 20
0.0
 30
0.0
210
0.0
220
0.0
230
1.0
  2
SOLID
 70
     1
 71
     1
 91
        1
 92
        3
 72
     0
 73
     1
 93
        6
 10
414.4951347259416
 20
-3.341609278074822
 10
210.4279665401273
 20
-121.1598437629192
 10
288.0837721301602
 20
-166.3252441152648
 10
492.4374209813998
 20
-48.34160942554434
 10
492.4374209813998
 20
51.65839057445566
 10
414.6229974995366
 20
96.58456911484826
 97
        1
330
E8
 75
     0
 76
     1
 98
        0
  0
LWPOLYLINE
  5
E8
102
{ACAD_REACTORS
330
E7
102
}
330
1F
100
AcDbEntity
  8
0_Pen_No__146
  6
Continuous
100
AcDbPolyline
 90
        6
 70
   129
 43
0.0
 10
414.4951347259416
 20
-3.341609278074822
 10
210.4279665401273
 20
-121.1598437629192
 10
288.0837721301602
 20
-166.3252441152648
 10
492.4374209813998
 20
-48.34160942554434
 10
492.4374209813998
 20
51.65839057445566
 10
414.6229974995366
 20
96.58456911484826
  0
HATCH
  5
E9
330
1F
100
AcDbEntity
  8
0_Pen_No__146
  6
Continuous
 62
   250
420
  3289650
370
     0
100
AcDbHatch
 10
0.0
 20
0.0
 30
0.0
210
0.0
220
0.0
230
1.0
  2
SOLID
 70
     1
 71
     1
 91
        1
 92
        3
 72
     0
 73
     1
 93
        4
 10
210.4279665401273
 20
-121.1598437629192
 10
288.0837721301602
 20
-166.3252441152648
 10
492.4374209813998
 20
-48.34160942554434
 10
414.4951347259416
 20
-3.341609278074822
 97
        1
330
EA
 75
     0
 76
     1
 98
        0
  0
LWPOLYLINE
  5
EA
102
{ACAD_REACTORS
330
E9
102
}
330
1F
100
AcDbEntity
  8
0_Pen_No__1
  6
Continuous
100
AcDbPolyline
 90
        4
 70
   129
 43
0.0
 10
210.4279665401273
 20
-121.1598437629192
 10
288.0837721301602
 20
-166.3252441152648
 10
492.4374209813998
 20
-48.34160942554434
 10
414.4951347259416
 20
-3.341609278074822
  0
HATCH
  5
EB
330
1F
100
AcDbEntity
  8
0_Pen_No__146
  6
Continuous
100
AcDbHatch
 10
0.0
 20
0.0
 30
0.0
210
0.0
220
0.0
230
1.0
  2
SMALLDOTS
 70
     0
 71
     1
 91
        1
 92
        3
 72
     0
 73
     1
 93
        6
 10
292.5720269197383
 20
-209.870547565829
 10
304.2260462459569
 20
-216.5989989433493
 10
304.2260463804068
 20
-204.0934280742045
 10
303.1868158927568
 20
-203.4934280795888
 10
303.1868158927568
 20
-214.6133581907372
 10
292.5720269197383
 20
-208.4849069197738
 97
        1
330
EC
 75
     0
 76
     2
 52
0.0
 41
1.0
 77
     0
 78
     2
 53
45.0
 43
0.0
 44
0.0
 45
-4.772970773009195
 46
4.772970773009196
 79
     4
 49
0.0
 49
-4.5
 49
0.0
 49
-6.75
 53
110.0
 43
15.0
 44
0.0
 45
6.34292519030488
 46
2.308635967448266
 79
     4
 49
0.0
 49
-3.3
 49
0.0
 49
-5.700000000000001
 98
        0
  0
LWPOLYLINE
  5
EC
102
{ACAD_REACTORS
330
EB
102
}
330
1F
100
AcDbEntity
  8
0_Pen_No__1
  6
Continuous
100
AcDbPolyline
 90
        6
 70
   129
 43
0.0
 10
292.5720269197383
 20
-209.870547565829
 10
304.2260462459569
 20
-216.5989989433493
 10
304.2260463804068
 20
-204.0934280742045
 10
303.1868158927568
 20
-203.4934280795888
 10
303.1868158927568
 20
-214.6133581907372
 10
292.5720269197383
 20
-208.4849069197738
  0
HATCH
  5
ED
330
1F
100
AcDbEntity
  8
0_Pen_No__146
  6
Continuous
 62
   250
420
  3289650
370
     0
100
AcDbHatch
 10
0.0
 20
0.0
 30
0.0
210
0.0
220
0.0
230
1.0
  2
SOLID
 70
     1
 71
     1
 91
        1
 92
        3
 72
     1
 73
     1
 93
       14
 10
322.2418950220974
 20
428.7654032398079
 42
0.0
 10
265.5330326831098
 20
396.024527282958
 42
-0.2984214281192445
 10
253.2237975542133
 20
391.1629729405964
 42
0.0
 10
160.9422021176369
 20
337.8841687412188
 42
0.0
 10
160.9422021176369
 20
286.3658583884458
 42
0.0
 10
185.3413633781942
 20
272.2789960051061
 42
0.0
 10
185.3413633781942
 20
295.6235815912002
 42
0.0
 10
209.7405246387266
 20
281.5367192078747
 42
0.0
 10
209.7405246387248
 20
201.0403627316275
 42
0.0
 10
185.3413633781942
 20
215.1272251149512
 42
0.0
 10
185.3413633781942
 20
186.9535003482718
 42
0.0
 10
234.1396858993072
 20
158.7797755815911
 42
0.0
 10
234.1396858993063
 20
302.3907113898738
 42
0.0
 10
357.7641342683165
 20
373.8009901158673
 42
0.0945045800940211
 97
        1
330
EE
 75
     0
 76
     1
 98
        0
  0
LWPOLYLINE
  5
EE
102
{ACAD_REACTORS
330
ED
102
}
330
1F
100
AcDbEntity
  8
0_Pen_No__1
  6
Continuous
100
AcDbPolyline
 90
       14
 70
   129
 43
0.0
 10
322.2418950220974
 20
428.7654032398079
 10
265.5330326831098
 20
396.024527282958
 42
-0.2984214281192445
 10
253.2237975542133
 20
391.1629729405964
 10
160.9422021176369
 20
337.8841687412188
 10
160.9422021176369
 20
286.3658583884458
 10
185.3413633781942
 20
272.2789960051061
 10
185.3413633781942
 20
295.6235815912002
 10
209.7405246387266
 20
281.5367192078747
 10
209.7405246387248
 20
201.0403627316275
 10
185.3413633781942
 20
215.1272251149512
 10
185.3413633781942
 20
186.9535003482718
 10
234.1396858993072
 20
158.7797755815911
 10
234.1396858993063
 20
302.3907113898738
 10
357.7641342683165
 20
373.8009901158673
 42
0.0945045800940211
  0
HATCH
  5
EF
330
1F
100
AcDbEntity
  8
0_Pen_No__146
  6
Continuous
100
AcDbHatch
 10
0.0
 20
0.0
 30
0.0
210
0.0
220
0.0
230
1.0
  2
SMALLDOTS
 70
     0
 71
     1
 91
        1
 92
        3
 72
     0
 73
     1
 93
        6
 10
111.7285297189521
 20
247.7678038649713
 10
158.6338344221726
 20
220.6870128340707
 10
158.6338349633087
 20
271.0196573651557
 10
154.4511215735658
 20
273.4345480377726
 10
154.4511215735658
 20
228.6788551268725
 10
111.7285297189521
 20
253.3447550346126
 97
        1
330
F0
 75
     0
 76
     2
 52
0.0
 41
1.0
 77
     0
 78
     2
 53
45.0
 43
0.0
 44
0.0
 45
-4.772970773009195
 46
4.772970773009196
 79
     4
 49
0.0
 49
-4.5
 49
0.0
 49
-6.75
 53
110.0
 43
15.0
 44
0.0
 45
6.34292519030488
 46
2.308635967448266
 79
     4
 49
0.0
 49
-3.3
 49
0.0
 49
-5.700000000000001
 98
        0
  0
LWPOLYLINE
  5
F0
102
{ACAD_REACTORS
330
EF
102
}
330
1F
100
AcDbEntity
  8
0_Pen_No__1
  6
Continuous
100
AcDbPolyline
 90
        6
 70
   129
 43
0.0
 10
111.7285297189521
 20
247.7678038649713
 10
158.6338344221726
 20
220.6870128340707
 10
158.6338349633087
 20
271.0196573651557
 10
154.4511215735658
 20
273.4345480377726
 10
154.4511215735658
 20
228.6788551268725
 10
111.7285297189521
 20
253.3447550346126
  0
LWPOLYLINE
  5
F1
330
1F
100
AcDbEntity
  8
0_Pen_No__1
  6
Continuous
100
AcDbPolyline
 90
       25
 70
   129
 43
0.0
 10
415.0000000000001
 20
391.2162285742248
 10
414.4951347259416
 20
-3.341609278074822
 10
492.4374209813998
 20
-48.34160942554434
 10
493.7069108515653
 20
338.6257605629553
 10
562.9889430786324
 20
378.6257606940525
 10
577.1057593993745
 20
370.475412955554
 10
577.1057593993745
 20
366.1873711782972
 10
583.9497183052305
 20
368.8680200919531
 10
628.8469624729918
 20
363.8872400974663
 10
636.1288587742808
 20
359.7273522291692
 10
641.6796886991523
 20
350.3959971972864
 10
630.9065673772593
 20
343.8220296452105
 10
642.759492221928
 20
307.6873819945561
 10
651.4864670963027
 20
299.3967558638998
 10
672.8411506489496
 20
296.4100688767719
 10
688.7544326237269
 20
295.2647435846236
 10
672.8411506489496
 20
296.4100688767719
 10
666.3512724681395
 20
314.7980570557334
 10
669.5731820776135
 20
368.1769454316934
 10
632.1099646505402
 20
390.4170815333749
 10
581.2725855675294
 20
404.4784842584629
 10
549.056036168189
 20
400.8371445399536
 10
522.8636819402399
 20
399.0702524411213
 10
514.4150200546562
 20
393.6620206237797
 10
483.9244128553806
 20
399.0702524411213
  0
LWPOLYLINE
  5
F2
330
1F
100
AcDbEntity
  8
0_Pen_No__1
  6
Continuous
100
AcDbPolyline
 90
       10
 70
   129
 43
0.0
 10
0.0
 20
0.0
 10
1.891544375623333
 20
-72.66873209823423
 10
20.2401429846799
 20
-96.96684523519329
 10
27.31572378122003
 20
-117.0143241587229
 10
50.4897556748145
 20
-139.1502741575434
 10
114.8786915624731
 20
-176.3252437875523
 10
114.8786915624731
 20
-476.3252437875595
 10
288.0837721301602
 20
-576.3252441152649
 10
288.0837721301602
 20
-166.3252441152648
 10
210.6463511487605
 20
-121.5380970006629
  0
LWPOLYLINE
  5
F3
330
1F
100
AcDbEntity
  8
0_Pen_No__1
  6
Continuous
100
AcDbPolyline
 90
        2
 70
   128
 43
0.0
 10
415.0000000000001
 20
443.5985189966071
 10
415.0000000000001
 20
-3.633093381230648
  0
LWPOLYLINE
  5
F4
330
1F
100
AcDbEntity
  8
0_Pen_No__1
  6
Continuous
100
AcDbPolyline
 90
        2
 70
   128
 43
0.0
 10
114.8786915624731
 20
-476.3252437875595
 10
288.0837721301602
 20
-576.3252441152649
  0
LWPOLYLINE
  5
F5
330
1F
100
AcDbEntity
  8
0_Pen_No__1
  6
Continuous
100
AcDbPolyline
 90
        2
 70
   128
 43
0.0
 10
492.9422862554583
 20
399.0457407005293
 10
492.9422862554583
 20
-57.49728772286712
  0
LWPOLYLINE
  5
F6
330
1F
100
AcDbEntity
  8
0_Pen_No__1
  6
Continuous
100
AcDbPolyline
 90
        2
 70
   128
 43
0.0
 10
292.1982906705099
 20
-206.6063784067121
 10
291.0145928793369
 20
-205.9229701653532
  0
LWPOLYLINE
  5
F7
330
1F
100
AcDbEntity
  8
0_Pen_No__1
  6
Continuous
100
AcDbPolyline
 90
        2
 70
   128
 43
0.0
 10
527.5833023689911
 20
358.1843044101832
 10
527.5833023689911
 20
357.5770255480982
  0
LWPOLYLINE
  5
F8
330
1F
100
AcDbEntity
  8
0_Pen_No__1
  6
Continuous
100
AcDbPolyline
 90
        2
 70
   128
 43
0.0
 10
288.0837721301602
 20
-298.1742436553906
 10
624.967489245738
 20
-492.6741492675338
  0
LWPOLYLINE
  5
F9
330
1F
100
AcDbEntity
  8
0_Pen_No__1
  6
Continuous
100
AcDbPolyline
 90
        2
 70
   128
 43
0.0
 10
415.0000000000001
 20
444.0457408479988
 10
492.9422862554583
 20
399.0457407005293
  0
LWPOLYLINE
  5
FA
330
1F
100
AcDbEntity
  8
0_Pen_No__1
  6
Continuous
100
AcDbPolyline
 90
        2
 70
   128
 43
0.0
 10
449.6410161135334
 20
464.0457409135473
 10
527.5833023689911
 20
419.045740766078
  0
LWPOLYLINE
  5
FB
330
1F
100
AcDbEntity
  8
0_Pen_No__1
  6
Continuous
100
AcDbPolyline
 90
        2
 70
   128
 43
0.0
 10
310.784212833438
 20
-205.4671117405512
 10
302.3640917467448
 20
-200.6057525432942
  0
LWPOLYLINE
  5
FC
330
1F
100
AcDbEntity
  8
0_Pen_No__1
  6
Continuous
100
AcDbPolyline
 90
        2
 70
   128
 43
0.0
 10
312.5004528362619
 20
-199.6568027474984
 10
310.784212833438
 20
-205.4671117405512
  0
LWPOLYLINE
  5
FD
330
1F
100
AcDbEntity
  8
0_Pen_No__1
  6
Continuous
100
AcDbPolyline
 90
        2
 70
   128
 43
0.0
 10
311.4183842211929
 20
-207.2490433256139
 10
306.2296729423193
 20
-204.2524317268671
  0
LWPOLYLINE
  5
FE
330
1F
100
AcDbEntity
  8
0_Pen_No__1
  6
Continuous
100
AcDbPolyline
 90
        2
 70
   128
 43
0.0
 10
305.0459751511468
 20
-203.5688164051052
 10
305.0459751511468
 20
-214.8118470639825
  0
LWPOLYLINE
  5
FF
330
1F
100
AcDbEntity
  8
0_Pen_No__1
  6
Continuous
100
AcDbPolyline
 90
        2
 70
   128
 43
0.0
 10
306.2296729423198
 20
-215.4952553053412
 10
305.0459751511468
 20
-214.8118470639825
  0
LWPOLYLINE
  5
100
330
1F
100
AcDbEntity
  8
0_Pen_No__1
  6
Continuous
100
AcDbPolyline
 90
        2
 70
   128
 43
0.0
 10
305.0459751511468
 20
-203.5688164051052
 10
302.3640917467448
 20
-202.0199611144206
  0
LWPOLYLINE
  5
101
330
1F
100
AcDbEntity
  8
0_Pen_No__1
  6
Continuous
100
AcDbPolyline
 90
        2
 70
   128
 43
0.0
 10
306.2296729423193
 20
-204.2524317268671
 10
306.2296729423193
 20
-215.4952553053407
  0
LWPOLYLINE
  5
102
330
1F
100
AcDbEntity
  8
0_Pen_No__1
  6
Continuous
100
AcDbPolyline
 90
        2
 70
   128
 43
0.0
 10
302.3640917467448
 20
-202.0199611144206
 10
302.3640917467448
 20
-213.2634609517493
  0
LWPOLYLINE
  5
103
330
1F
100
AcDbEntity
  8
0_Pen_No__1
  6
Continuous
100
AcDbPolyline
 90
        2
 70
   128
 43
0.0
 10
301.1803939555718
 20
-180.3389609993899
 10
301.1803939555718
 20
-212.5800527103904
  0
LWPOLYLINE
  5
104
330
1F
100
AcDbEntity
  8
0_Pen_No__1
  6
Continuous
100
AcDbPolyline
 90
        2
 70
   128
 43
0.0
 10
302.3640917467448
 20
-181.0223692407488
 10
302.3640917467448
 20
-200.6057525432946
  0
LWPOLYLINE
  5
105
330
1F
100
AcDbEntity
  8
0_Pen_No__1
  6
Continuous
100
AcDbPolyline
 90
        2
 70
   128
 43
0.0
 10
302.3640917467448
 20
-181.0223692407488
 10
301.1803939555718
 20
-180.3389609993899
  0
LWPOLYLINE
  5
106
330
1F
100
AcDbEntity
  8
0_Pen_No__1
  6
Continuous
100
AcDbPolyline
 90
        2
 70
   128
 43
0.0
 10
302.3640917467448
 20
-213.2634609517493
 10
301.1803939555718
 20
-212.5800527103904
  0
LWPOLYLINE
  5
107
330
1F
100
AcDbEntity
  8
0_Pen_No__1
  6
Continuous
100
AcDbPolyline
 90
        2
 70
   128
 43
0.0
 10
313.4709260874651
 20
-200.3001885939907
 10
311.4183842211929
 20
-207.2490433256139
  0
LWPOLYLINE
  5
108
330
1F
100
AcDbEntity
  8
0_Pen_No__1
  6
Continuous
100
AcDbPolyline
 90
        2
 70
   128
 43
0.0
 10
322.9861131067256
 20
-196.2990246010555
 10
316.9239353067206
 20
-192.7990246010532
  0
LWPOLYLINE
  5
109
330
1F
100
AcDbEntity
  8
0_Pen_No__1
  6
Continuous
100
AcDbPolyline
 90
        2
 70
   128
 43
0.0
 10
316.9239353067206
 20
-194.4803751850811
 10
304.7995797067285
 20
-187.4803751850863
  0
LWPOLYLINE
  5
10A
330
1F
100
AcDbEntity
  8
0_Pen_No__1
  6
Continuous
100
AcDbPolyline
 90
        2
 70
   128
 43
0.0
 10
304.7995797067285
 20
-187.4803751850863
 10
304.7995797067285
 20
-200.2805347470841
  0
LWPOLYLINE
  5
10B
330
1F
100
AcDbEntity
  8
0_Pen_No__1
  6
Continuous
100
AcDbPolyline
 90
        2
 70
   128
 43
0.0
 10
304.7995797067285
 20
-200.2805347470841
 10
310.8617575067277
 20
-203.780534747083
  0
LWPOLYLINE
  5
10C
330
1F
100
AcDbEntity
  8
0_Pen_No__1
  6
Continuous
100
AcDbPolyline
 90
        2
 70
   128
 43
0.0
 10
310.8617575067277
 20
-197.9803751850831
 10
316.9239353067206
 20
-201.4803751850785
  0
LWPOLYLINE
  5
10D
330
1F
100
AcDbEntity
  8
0_Pen_No__1
  6
Continuous
100
AcDbPolyline
 90
        2
 70
   128
 43
0.0
 10
316.9239353067206
 20
-201.4803751850785
 10
316.9239353067202
 20
-221.4803751850777
  0
LWPOLYLINE
  5
10E
330
1F
100
AcDbEntity
  8
0_Pen_No__1
  6
Continuous
100
AcDbPolyline
 90
        2
 70
   128
 43
0.0
 10
310.8617575067277
 20
-224.9803751850806
 10
322.9861131067256
 20
-231.980375185079
  0
LWPOLYLINE
  5
10F
330
1F
100
AcDbEntity
  8
0_Pen_No__1
  6
Continuous
100
AcDbPolyline
 90
        2
 70
   128
 43
0.0
 10
322.9861131067256
 20
-196.2990246010555
 10
316.9239353067206
 20
-192.7990246010532
  0
LWPOLYLINE
  5
110
330
1F
100
AcDbEntity
  8
0_Pen_No__1
  6
Continuous
100
AcDbPolyline
 90
        2
 70
   128
 43
0.0
 10
316.9239353067206
 20
-192.7990246010532
 10
316.9239353067206
 20
-194.4803751850811
  0
LWPOLYLINE
  5
111
330
1F
100
AcDbEntity
  8
0_Pen_No__1
  6
Continuous
100
AcDbPolyline
 90
        2
 70
   128
 43
0.0
 10
322.9861131067256
 20
-231.980375185079
 10
322.9861131067256
 20
-196.2990246010553
  0
LWPOLYLINE
  5
112
330
1F
100
AcDbEntity
  8
0_Pen_No__1
  6
Continuous
100
AcDbPolyline
 90
        2
 70
   128
 43
0.0
 10
316.9239353067206
 20
-194.4803751850811
 10
304.7995797067285
 20
-187.4803751850863
  0
LWPOLYLINE
  5
113
330
1F
100
AcDbEntity
  8
0_Pen_No__1
  6
Continuous
100
AcDbPolyline
 90
        2
 70
   128
 43
0.0
 10
304.7995797067285
 20
-200.2805347470841
 10
310.8617575067277
 20
-203.780534747083
  0
LWPOLYLINE
  5
114
330
1F
100
AcDbEntity
  8
0_Pen_No__1
  6
Continuous
100
AcDbPolyline
 90
        2
 70
   128
 43
0.0
 10
310.8617575067277
 20
-203.780534747083
 10
310.8617575067277
 20
-197.9803751850831
  0
LWPOLYLINE
  5
115
330
1F
100
AcDbEntity
  8
0_Pen_No__1
  6
Continuous
100
AcDbPolyline
 90
        2
 70
   128
 43
0.0
 10
310.8617575067277
 20
-197.9803751850831
 10
316.9239353067206
 20
-201.4803751850785
  0
LWPOLYLINE
  5
116
330
1F
100
AcDbEntity
  8
0_Pen_No__1
  6
Continuous
100
AcDbPolyline
 90
        2
 70
   128
 43
0.0
 10
310.8617575067277
 20
-217.9803751850827
 10
310.8617575067277
 20
-224.9803751850806
  0
LWPOLYLINE
  5
117
330
1F
100
AcDbEntity
  8
0_Pen_No__1
  6
Continuous
100
AcDbPolyline
 90
        2
 70
   128
 43
0.0
 10
310.8617575067277
 20
-224.9803751850806
 10
322.9861131067256
 20
-231.980375185079
  0
LWPOLYLINE
  5
118
330
1F
100
AcDbEntity
  8
0_Pen_No__1
  6
Continuous
100
AcDbPolyline
 90
        2
 70
   128
 43
0.0
 10
316.9239353067206
 20
-192.7990246010532
 10
316.9239353067206
 20
-194.4803751850811
  0
LWPOLYLINE
  5
119
330
1F
100
AcDbEntity
  8
0_Pen_No__1
  6
Continuous
100
AcDbPolyline
 90
        2
 70
   128
 43
0.0
 10
316.9239353067202
 20
-221.4803751850777
 10
311.6132920867654
 20
-218.4142738790688
  0
LWPOLYLINE
  5
11A
330
1F
100
AcDbEntity
  8
0_Pen_No__1
  6
Continuous
100
AcDbPolyline
 90
        2
 70
   128
 43
0.0
 10
484.2820322270663
 20
484.0457409790963
 10
562.2243184825239
 20
439.0457408316267
  0
LWPOLYLINE
  5
11B
330
1F
100
AcDbEntity
  8
0_Pen_No__1
  6
Continuous
100
AcDbPolyline
 90
        2
 70
   128
 43
0.0
 10
527.5833023689911
 20
419.045740766078
 10
527.5833023689911
 20
399.3886300856993
  0
LWPOLYLINE
  5
11C
330
1F
100
AcDbEntity
  8
0_Pen_No__1
  6
Continuous
100
AcDbPolyline
 90
        2
 70
   128
 43
0.0
 10
562.2243184825239
 20
439.0457408316267
 10
562.2243184825239
 20
402.325515899076
  0
LWPOLYLINE
  5
11D
330
1F
100
AcDbEntity
  8
0_Pen_No__1
  6
Continuous
100
AcDbPolyline
 90
        2
 70
   128
 43
0.0
 10
492.4374209813998
 20
-48.34160942554434
 10
288.0837721301602
 20
-166.3252441152648
  0
LWPOLYLINE
  5
11E
330
1F
100
AcDbEntity
  8
0_Pen_No__1
  6
Continuous
100
AcDbPolyline
 90
        2
 70
   128
 43
0.0
 10
316.9239353067206
 20
-209.3209200234888
 10
306.2296729423198
 20
-215.4952553053412
  0
LWPOLYLINE
  5
11F
330
1F
100
AcDbEntity
  8
0_Pen_No__1
  6
Continuous
100
AcDbPolyline
 90
        2
 70
   128
 43
0.0
 10
316.9239353067202
 20
-214.4803751850893
 10
310.8617575067277
 20
-217.9803751850827
  0
LWPOLYLINE
  5
120
330
1F
100
AcDbEntity
  8
0_Pen_No__1
  6
Continuous
100
AcDbPolyline
 90
        2
 70
   128
 43
0.0
 10
690.085920156245
 20
-21.01966632302335
 10
322.9861131067256
 20
-231.980375185079
  0
LWPOLYLINE
  5
121
330
1F
100
AcDbEntity
  8
0_Pen_No__1
  6
Continuous
100
AcDbPolyline
 90
        2
 70
   128
 43
0.0
 10
562.9889430786324
 20
378.6257606940525
 10
493.7069108515653
 20
338.6257605629556
  0
LWPOLYLINE
  5
122
330
1F
100
AcDbEntity
  8
0_Pen_No__1
  6
Continuous
100
AcDbPolyline
 90
        2
 70
   128
 43
0.0
 10
577.1057593993745
 20
370.475412955554
 10
507.8237271723078
 20
330.4754128244572
  0
LWPOLYLINE
  5
123
330
1F
100
AcDbEntity
  8
0_Pen_No__1
  6
Continuous
100
AcDbPolyline
 90
        2
 70
   128
 43
0.0
 10
692.8903739272131
 20
251.2782989614021
 10
559.4903630259047
 20
168.8888282060498
  0
LWPOLYLINE
  5
124
330
1F
100
AcDbEntity
  8
0_Pen_No__1
  6
Continuous
100
AcDbPolyline
 90
        2
 70
   128
 43
0.0
 10
692.9422862554582
 20
111.2843857824652
 10
559.4903630259047
 20
34.23588148194399
  0
LWPOLYLINE
  5
125
330
1F
100
AcDbEntity
  8
0_Pen_No__1
  6
Continuous
100
AcDbPolyline
 90
        2
 70
   128
 43
0.0
 10
588.7889441771557
 20
364.6619484639871
 10
527.9056216206728
 20
329.5109456432369
  0
LWPOLYLINE
  5
126
330
1F
100
AcDbEntity
  8
0_Pen_No__1
  6
Continuous
100
AcDbPolyline
 90
        2
 70
   128
 43
0.0
 10
688.9097687381025
 20
-66.75724544095866
 10
288.0837721301602
 20
-298.1742436553906
  0
LWPOLYLINE
  5
127
330
1F
100
AcDbEntity
  8
0_Pen_No__1
  6
Continuous
100
AcDbPolyline
 90
        2
 70
   128
 43
0.0
 10
583.9497183052305
 20
368.8680200919531
 10
521.8434438206732
 20
333.0109456432374
  0
LWPOLYLINE
  5
128
330
1F
100
AcDbEntity
  8
0_Pen_No__1
  6
Continuous
100
AcDbPolyline
 90
        2
 70
   128
 43
0.0
 10
642.759492221928
 20
307.6873819945561
 10
630.9065673772593
 20
343.8220296452105
  0
LWPOLYLINE
  5
129
330
1F
100
AcDbEntity
  8
0_Pen_No__1
  6
Continuous
100
AcDbPolyline
 90
        2
 70
   128
 43
0.0
 10
562.2243184825239
 20
439.0457408316267
 10
492.9422862554583
 20
399.0457407005293
  0
LWPOLYLINE
  5
12A
330
1F
100
AcDbEntity
  8
0_Pen_No__1
  6
Continuous
100
AcDbPolyline
 90
        2
 70
   128
 43
0.0
 10
692.9422862554582
 20
111.2843857824652
 10
680.4831452132596
 20
243.789486143448
  0
LWPOLYLINE
  5
12B
330
1F
100
AcDbEntity
  8
0_Pen_No__1
  6
Continuous
100
AcDbPolyline
 90
        2
 70
   128
 43
0.0
 10
301.3333175137901
 20
-180.2229572709356
 10
301.1563935593449
 20
-180.3251043641066
  0
LWPOLYLINE
  5
12C
330
1F
100
AcDbEntity
  8
0_Pen_No__1
  6
Continuous
100
AcDbPolyline
 90
        2
 70
   128
 43
0.0
 10
315.9899293037745
 20
-204.6096605300388
 10
311.4183842211929
 20
-207.2490433256139
  0
LWPOLYLINE
  5
12D
330
1F
100
AcDbEntity
  8
0_Pen_No__1
  6
Continuous
100
AcDbPolyline
 90
        2
 70
   128
 43
0.0
 10
522.1078515817208
 20
-74.33603478863006
 10
316.9239353067206
 20
-192.7990246010532
  0
LWPOLYLINE
  5
12E
330
1F
100
AcDbEntity
  8
0_Pen_No__1
  6
Continuous
100
AcDbPolyline
 90
        2
 70
   128
 43
0.0
 10
528.4374040514588
 20
-77.68166595040839
 10
322.9861131067256
 20
-196.2990246010555
  0
LWPOLYLINE
  5
12F
330
1F
100
AcDbEntity
  8
0_Pen_No__1
  6
Continuous
100
AcDbPolyline
 90
        2
 70
   128
 43
0.0
 10
484.2820322270663
 20
484.0457409790963
 10
415.0000000000001
 20
444.0457408479988
  0
LWPOLYLINE
  5
130
330
1F
100
AcDbEntity
  8
0_Pen_No__1
  6
Continuous
100
AcDbPolyline
 90
        2
 70
   128
 43
0.0
 10
641.6796886991523
 20
350.3959971972864
 10
559.4903630259047
 20
300.2424767867296
  0
LWPOLYLINE
  5
131
330
1F
100
AcDbEntity
  8
0_Pen_No__1
  6
Continuous
100
AcDbPolyline
 90
        2
 70
   128
 43
0.0
 10
521.720681052194
 20
334.4897337186673
 10
508.7303000521981
 20
326.9897337186699
  0
LWPOLYLINE
  5
132
330
1F
100
AcDbEntity
  8
0_Pen_No__1
  6
Continuous
100
AcDbPolyline
 90
        2
 70
   128
 43
0.0
 10
690.085920156245
 20
-21.01966632302335
 10
678.4333292137939
 20
102.907635492194
  0
LWPOLYLINE
  5
133
330
1F
100
AcDbEntity
  8
0_Pen_No__1
  6
Continuous
100
AcDbPolyline
 90
        2
 70
   128
 43
0.0
 10
530.3809351231625
 20
314.4897336777129
 10
530.3809351231625
 20
-79.11250181916331
  0
LWPOLYLINE
  5
134
330
1F
100
AcDbEntity
  8
0_Pen_No__1
  6
Continuous
100
AcDbPolyline
 90
        2
 70
   128
 43
0.0
 10
530.3809351231625
 20
-79.11250181916331
 10
559.4903630259047
 20
-62.30616571011839
  0
LWPOLYLINE
  5
136
330
1F
100
AcDbEntity
  8
0_Pen_No__1
  6
Above
100
AcDbPolyline
 90
        2
 70
   128
 43
0.0
 10
577.1057593993745
 20
370.475412955554
 10
562.9889430786324
 20
378.6257606940525
  0
LWPOLYLINE
  5
138
330
1F
100
AcDbEntity
  8
0_Pen_No__1
  6
AStair_dashed
100
AcDbPolyline
 90
        2
 70
   128
 43
0.0
 10
507.8237271723083
 20
-66.0890916796867
 10
542.4647432858411
 20
-46.08909161413978
  0
LWPOLYLINE
  5
139
330
1F
100
AcDbEntity
  8
0_Pen_No__1
  6
AStair_dashed
100
AcDbPolyline
 90
        2
 70
   128
 43
0.0
 10
542.4647432858411
 20
-46.08909161413978
 10
577.1057593993745
 20
-26.08909154859286
  0
LWPOLYLINE
  5
13A
330
1F
100
AcDbEntity
  8
0_Pen_No__1
  6
Continuous
100
AcDbPolyline
 90
        2
 70
   128
 43
0.0
 10
492.9422862554583
 20
-57.49728772286712
 10
530.3809351231625
 20
-79.11250181916331
  0
LWPOLYLINE
  5
13B
330
1F
100
AcDbEntity
  8
0_Pen_No__1
  6
Continuous
100
AcDbPolyline
 90
        2
 70
   128
 43
0.0
 10
559.4903630259047
 20
331.2960697867579
 10
559.4903630259047
 20
-62.30616571011839
  0
LWPOLYLINE
  5
13C
330
1F
100
AcDbEntity
  8
0_Pen_No__1
  6
Continuous
100
AcDbPolyline
 90
        2
 70
   128
 43
0.0
 10
577.1057593993745
 20
364.9166585580675
 10
577.1057593993745
 20
370.475412955554
  0
LWPOLYLINE
  5
13D
330
1F
100
AcDbEntity
  8
0_Pen_No__1
  6
AStair_dashed
100
AcDbPolyline
 90
        2
 70
   128
 43
0.0
 10
577.1057593993745
 20
364.9166585580658
 10
577.1057593993745
 20
-26.08909154859286
  0
LWPOLYLINE
  5
13E
330
1F
100
AcDbEntity
  8
0_Pen_No__1
  6
Continuous
100
AcDbPolyline
 90
        2
 70
   128
 43
0.0
 10
553.1264019952258
 20
327.6218351565271
 10
553.1264019952258
 20
-64.9335801432981
  0
LWPOLYLINE
  5
13F
330
1F
100
AcDbEntity
  8
0_Pen_No__1
  6
Above
100
AcDbPolyline
 90
        2
 70
   128
 43
0.0
 10
527.9056216206728
 20
329.5109456432369
 10
521.8434438206732
 20
333.0109456432374
  0
LWPOLYLINE
  5
140
330
1F
100
AcDbEntity
  8
0_Pen_No__1
  6
Above
100
AcDbPolyline
 90
        2
 70
   128
 43
0.0
 10
588.7889441771557
 20
364.6619484639871
 10
582.7267663771556
 20
368.1619484639876
  0
LWPOLYLINE
  5
141
330
1F
100
AcDbEntity
  8
0_Pen_No__1
  6
Continuous
100
AcDbPolyline
 90
        2
 70
   128
 43
0.0
 10
636.1288587742808
 20
359.7273522291692
 10
641.6796886991523
 20
350.3959971972864
  0
LWPOLYLINE
  5
142
330
1F
100
AcDbEntity
  8
0_Pen_No__1
  6
Continuous
100
AcDbPolyline
 90
        2
 70
   128
 43
0.0
 10
542.4647432858411
 20
344.916658492519
 10
542.4647432858411
 20
350.4754128900057
  0
LWPOLYLINE
  5
143
330
1F
100
AcDbEntity
  8
0_Pen_No__1
  6
Continuous
100
AcDbPolyline
 90
        2
 70
   128
 43
0.0
 10
0.0
 20
0.0
 10
64.62703345678554
 20
20.35285516004115
  0
LWPOLYLINE
  5
144
330
1F
100
AcDbEntity
  8
0_Pen_No__1
  6
Continuous
100
AcDbPolyline
 90
        2
 70
   128
 43
0.0
 10
288.0837721301602
 20
-176.3252441152648
 10
288.0837721301602
 20
-576.3252441152649
  0
LWPOLYLINE
  5
145
330
1F
100
AcDbEntity
  8
0_Pen_No__1
  6
Continuous
100
AcDbPolyline
 90
        2
 70
   128
 43
0.0
 10
521.7762645254492
 20
333.3348272081545
 10
521.7762645254492
 20
319.7427381658652
  0
LWPOLYLINE
  5
146
330
1F
100
AcDbEntity
  8
0_Pen_No__1
  6
Continuous
100
AcDbPolyline
 90
        2
 70
   128
 43
0.0
 10
527.9056216206728
 20
329.5109456432369
 10
527.9056216206728
 20
315.9188566009473
  0
LWPOLYLINE
  5
147
330
1F
100
AcDbEntity
  8
0_Pen_No__1
  6
Continuous
100
AcDbPolyline
 90
        2
 70
   128
 43
0.0
 10
688.7544326237269
 20
295.2647435846236
 10
692.8903739272131
 20
251.2782989614021
  0
LWPOLYLINE
  5
148
330
1F
100
AcDbEntity
  8
0_Pen_No__1
  6
Above
100
AcDbPolyline
 90
        2
 70
   128
 43
0.0
 10
635.879631487346
 20
359.8269267311639
 10
628.8469624729918
 20
363.8872400974663
  0
LWPOLYLINE
  5
149
330
1F
100
AcDbEntity
  8
0_Pen_No__1
  6
Continuous
100
AcDbPolyline
 90
        2
 70
   128
 43
0.0
 10
114.8786915624736
 20
-276.3252437875522
 10
114.8786915624731
 20
-476.3252437875595
  0
LWPOLYLINE
  5
14A
330
1F
100
AcDbEntity
  8
0_Pen_No__1
  6
Continuous
100
AcDbPolyline
 90
        2
 70
   128
 43
0.0
 10
688.9097687381025
 20
-66.75724544095887
 10
722.7803200452529
 20
-123.0319648407083
  0
LWPOLYLINE
  5
14B
330
1F
100
AcDbEntity
  8
0_Pen_No__1
  6
Continuous
100
AcDbPolyline
 90
        2
 70
   128
 43
0.0
 10
549.9444214798865
 20
325.784717841412
 10
549.9444214798865
 20
-67.24903299766927
  0
LWPOLYLINE
  5
14C
330
1F
100
AcDbEntity
  8
0_Pen_No__1
  6
Continuous
100
AcDbPolyline
 90
        2
 70
   128
 43
0.0
 10
64.62703345678554
 20
20.35285516004115
 10
94.95457196608984
 20
71.35766776811955
  0
LWPOLYLINE
  5
14D
330
1F
100
AcDbEntity
  8
0_Pen_No__1
  6
Continuous
100
AcDbPolyline
 90
        2
 70
   128
 43
0.0
 10
94.95457196608984
 20
71.35766776811955
 10
169.3290640814272
 20
103.8461730829917
  0
LWPOLYLINE
  5
14E
330
1F
100
AcDbEntity
  8
0_Pen_No__1
  6
Continuous
100
AcDbPolyline
 90
        2
 70
   128
 43
0.0
 10
169.3290640814272
 20
103.8461730829917
 10
286.1468713360056
 20
97.3562949021821
  0
LWPOLYLINE
  5
14F
330
1F
100
AcDbEntity
  8
0_Pen_No__1
  6
Continuous
100
AcDbPolyline
 90
        2
 70
   128
 43
0.0
 10
286.1468713360056
 20
97.3562949021821
 10
359.6988240518511
 20
116.8259294446118
  0
LWPOLYLINE
  5
150
330
1F
100
AcDbEntity
  8
0_Pen_No__1
  6
Continuous
100
AcDbPolyline
 90
        2
 70
   128
 43
0.0
 10
359.6988240518511
 20
116.8259294446118
 10
400.8013858636473
 20
125.479100352358
  0
LWPOLYLINE
  5
151
330
1F
100
AcDbEntity
  8
0_Pen_No__1
  6
Continuous
100
AcDbPolyline
 90
        2
 70
   128
 43
0.0
 10
400.8013858636473
 20
125.479100352358
 10
415.0000000000001
 20
125.479100352358
  0
LWPOLYLINE
  5
152
330
1F
100
AcDbEntity
  8
0_Pen_No__1
  6
Continuous
100
AcDbPolyline
 90
        2
 70
   128
 43
0.0
 10
507.8237271723083
 20
-66.08909167968692
 10
507.8237271723078
 20
330.4754128244572
  0
LWPOLYLINE
  5
153
330
1F
100
AcDbEntity
  8
0_Pen_No__1
  6
Continuous
100
AcDbPolyline
 90
        2
 70
   128
 43
0.0
 10
542.4647432858411
 20
350.4754128900057
 10
528.3479269650986
 20
358.6257606285041
  0
LWPOLYLINE
  5
154
330
1F
100
AcDbEntity
  8
0_Pen_No__1
  6
Continuous
100
AcDbPolyline
 90
        2
 70
   128
 43
0.0
 10
507.8237271723078
 20
330.4754128244572
 10
493.7069108515653
 20
338.6257605629556
  0
LWPOLYLINE
  5
155
330
1F
100
AcDbEntity
  8
0_Pen_No__1
  6
Continuous
100
AcDbPolyline
 90
        2
 70
   128
 43
0.0
 10
722.7803200452529
 20
-123.0319648407083
 10
724.8668292340421
 20
-202.3193140146982
  0
LWPOLYLINE
  5
156
330
1F
100
AcDbEntity
  8
0_Pen_No__1
  6
Continuous
100
AcDbPolyline
 90
        2
 70
   128
 43
0.0
 10
724.8668292340421
 20
-202.3193140146982
 10
710.2612649125175
 20
-267.0010988671634
  0
LWPOLYLINE
  5
157
330
1F
100
AcDbEntity
  8
0_Pen_No__1
  6
Continuous
100
AcDbPolyline
 90
        2
 70
   128
 43
0.0
 10
710.2612649125175
 20
-267.0010988671634
 10
711.3045195069121
 20
-330.639629125234
  0
LWPOLYLINE
  5
158
330
1F
100
AcDbEntity
  8
0_Pen_No__1
  6
Continuous
100
AcDbPolyline
 90
        2
 70
   128
 43
0.0
 10
711.3045195069121
 20
-330.639629125234
 10
703.0861542918911
 20
-353.6557362273868
  0
LWPOLYLINE
  5
159
330
1F
100
AcDbEntity
  8
0_Pen_No__1
  6
Continuous
100
AcDbPolyline
 90
        2
 70
   128
 43
0.0
 10
703.0861542918911
 20
-353.6557362273868
 10
663.4424797048965
 20
-442.3323767509281
  0
LWPOLYLINE
  5
15A
330
1F
100
AcDbEntity
  8
0_Pen_No__1
  6
AStair_dashed
100
AcDbPolyline
 90
        2
 70
   128
 43
0.0
 10
542.4647432858411
 20
344.916658492519
 10
542.4647432858411
 20
-46.08909161413978
  0
LWPOLYLINE
  5
15B
330
1F
100
AcDbEntity
  8
0_Pen_No__1
  6
Continuous
100
AcDbPolyline
 90
        2
 70
   128
 43
0.0
 10
663.4424797048965
 20
-442.3323767509281
 10
624.967489245738
 20
-492.6741492675338
  0
LWPOLYLINE
  5
15C
330
1F
100
AcDbEntity
  8
0_Pen_No__1
  6
Continuous
100
AcDbPolyline
 90
        2
 70
   128
 43
0.0
 10
588.7889441771557
 20
364.6619484639871
 10
636.275643781826
 20
359.168300153547
  0
LWPOLYLINE
  5
15D
330
1F
100
AcDbEntity
  8
0_Pen_No__1
  6
Continuous
100
AcDbPolyline
 90
        2
 70
   128
 43
0.0
 10
530.3809351231625
 20
314.4897336777129
 10
559.4903630259047
 20
331.2960697867579
  0
LWPOLYLINE
  5
15E
330
1F
100
AcDbEntity
  8
0_Pen_No__1
  6
Continuous
100
AcDbPolyline
 90
        2
 70
   128
 43
0.0
 10
508.7303000521981
 20
326.9897337186699
 10
530.3809351231625
 20
314.4897336777129
  0
LWPOLYLINE
  5
15F
330
1F
100
AcDbEntity
  8
0_Pen_No__1
  6
Continuous
100
AcDbPolyline
 90
        2
 70
   128
 43
0.0
 10
556.308382510565
 20
329.4589524716426
 10
556.308382510565
 20
-63.09646282818284
  0
LWPOLYLINE
  5
160
330
1F
100
AcDbEntity
  8
0_Pen_No__1
  6
Continuous
100
AcDbPolyline
 90
        2
 70
   128
 43
0.0
 10
678.6716938651815
 20
-27.60967297355779
 10
678.6716938651815
 20
-73.6526653976446
  0
LWPOLYLINE
  5
161
330
1F
100
AcDbEntity
  8
0_Pen_No__1
  6
Continuous
100
AcDbPolyline
 90
        2
 70
   128
 43
0.0
 10
507.8237271723078
 20
330.4754128244572
 10
528.3479269650986
 20
358.6257606285041
  0
LWPOLYLINE
  5
162
330
1F
100
AcDbEntity
  8
0_Pen_No__1
  6
Continuous
100
AcDbPolyline
 90
        2
 70
   128
 43
0.0
 10
542.4647432858411
 20
350.4754128900057
 10
493.7069108515653
 20
338.6257605629553
  0
LWPOLYLINE
  5
163
330
1F
100
AcDbEntity
  8
0_Pen_No__1
  6
Continuous
100
AcDbPolyline
 90
        2
 70
   128
 43
0.0
 10
449.6410161135334
 20
464.0457409135473
 10
492.9422862554583
 20
399.0457407005293
  0
LWPOLYLINE
  5
164
330
1F
100
AcDbEntity
  8
0_Pen_No__1
  6
Continuous
100
AcDbPolyline
 90
        2
 70
   128
 43
0.0
 10
628.8469624729918
 20
363.8872400974665
 10
583.94971830523
 20
368.8680200919529
  0
LWPOLYLINE
  5
165
330
1F
100
AcDbEntity
  8
0_Pen_No__1
  6
Continuous
100
AcDbPolyline
 90
        2
 70
   128
 43
0.0
 10
527.5833023689911
 20
419.045740766078
 10
415.0000000000001
 20
444.0457408479988
  0
LWPOLYLINE
  5
166
330
1F
100
AcDbEntity
  8
0_Pen_No__1
  6
Continuous
100
AcDbPolyline
 90
        2
 70
   128
 43
0.0
 10
484.2820322270663
 20
484.0457409790963
 10
527.5833023689911
 20
419.045740766078
  0
LWPOLYLINE
  5
167
330
1F
100
AcDbEntity
  8
0_Pen_No__1
  6
Continuous
100
AcDbPolyline
 90
        2
 70
   128
 43
0.0
 10
562.2243184825239
 20
439.0457408316267
 10
449.6410161135334
 20
464.0457409135473
  0
LWPOLYLINE
  5
168
330
1F
100
AcDbEntity
  8
0_Pen_No__1
  6
Continuous
100
AcDbPolyline
 90
        2
 70
   128
 43
0.0
 10
542.4647432858411
 20
350.4754128900057
 10
562.9889430786324
 20
378.6257606940525
  0
LWPOLYLINE
  5
169
330
1F
100
AcDbEntity
  8
0_Pen_No__1
  6
Continuous
100
AcDbPolyline
 90
        2
 70
   128
 43
0.0
 10
577.1057593993745
 20
370.475412955554
 10
528.3479269650986
 20
358.6257606285038
  0
LWPOLYLINE
  5
16A
330
1F
100
AcDbEntity
  8
0_Pen_No__1
  6
Continuous
100
AcDbPolyline
 90
        2
 70
   128
 43
0.0
 10
306.1837296291038
 20
-215.4687299209729
 10
304.2260462459569
 20
-216.5989989433493
  0
LWPOLYLINE
  5
16B
330
1F
100
AcDbEntity
  8
0_Pen_No__1
  6
Continuous
100
AcDbPolyline
 90
        2
 70
   128
 43
0.0
 10
301.1803939555718
 20
-203.5148639148301
 10
292.5720269197383
 20
-208.4849069197738
  0
LWPOLYLINE
  5
16C
330
1F
100
AcDbEntity
  8
0_Pen_No__1
  6
Continuous
100
AcDbPolyline
 90
        2
 70
   128
 43
0.0
 10
305.0459751511466
 20
-203.6200419801607
 10
304.2260463804068
 20
-204.0934280742045
  0
LWPOLYLINE
  5
16D
330
1F
100
AcDbEntity
  8
0_Pen_No__1
  6
Continuous
100
AcDbPolyline
 90
        2
 70
   128
 43
0.0
 10
304.0067446634966
 20
-203.020041985545
 10
303.1868158927568
 20
-203.4934280795888
  0
LWPOLYLINE
  5
16E
330
1F
100
AcDbEntity
  8
0_Pen_No__1
  6
Continuous
100
AcDbPolyline
 90
        2
 70
   128
 43
0.0
 10
69.02139968568386
 20
437.2571996699875
 10
93.66412184404638
 20
423.029717336125
  0
LWPOLYLINE
  5
16F
330
1F
100
AcDbEntity
  8
0_Pen_No__1
  6
Continuous
100
AcDbPolyline
 90
        2
 70
   128
 43
0.0
 10
200.9201024200424
 20
484.9539868644793
 10
93.66412184404638
 20
423.029717336125
  0
LWPOLYLINE
  5
170
330
1F
100
AcDbEntity
  8
0_Pen_No__1
  6
Continuous
100
AcDbPolyline
 90
        2
 70
   128
 43
0.0
 10
220.225455323377
 20
127.5406981948118
 10
292.1107286695061
 20
-149.3223213520592
  0
LWPOLYLINE
  5
171
330
1F
100
AcDbEntity
  8
0_Pen_No__1
  6
Continuous
100
AcDbPolyline
 90
        2
 70
   128
 43
0.0
 10
93.66412184404638
 20
423.029717336125
 10
93.66412184404598
 20
154.0191266422172
  0
LWPOLYLINE
  5
172
330
1F
100
AcDbEntity
  8
0_Pen_No__1
  6
Continuous
100
AcDbPolyline
 90
        2
 70
   129
 43
0.0
 10
257.8247913110944
 20
-200.4027572097293
 42
0.9999999999999999
 10
365.3084573793192
 20
-200.4027572097293
 42
0.9999999999999999
  0
LWPOLYLINE
  5
173
330
1F
100
AcDbEntity
  8
0_Pen_No__1
  6
Continuous
100
AcDbPolyline
 90
        2
 70
   128
 43
0.0
 10
110.22430940165
 20
260.9054900765232
 10
105.4601414337312
 20
263.6560837472854
  0
LWPOLYLINE
  5
174
330
1F
100
AcDbEntity
  8
0_Pen_No__1
  6
Continuous
100
AcDbPolyline
 90
        2
 70
   128
 43
0.0
 10
105.4601414337312
 20
370.1528329953396
 10
105.4601414337312
 20
263.6560837472854
  0
LWPOLYLINE
  5
175
330
1F
100
AcDbEntity
  8
0_Pen_No__1
  6
Continuous
100
AcDbPolyline
 90
        2
 70
   128
 43
0.0
 10
185.0292601949972
 20
265.4908308605634
 10
151.1398067666146
 20
285.0569160056386
  0
LWPOLYLINE
  5
176
330
1F
100
AcDbEntity
  8
0_Pen_No__1
  6
Continuous
100
AcDbPolyline
 90
        2
 70
   128
 43
0.0
 10
191.936813548301
 20
288.8762660576606
 10
185.0292601949972
 20
265.4908308605634
  0
LWPOLYLINE
  5
177
330
1F
100
AcDbEntity
  8
0_Pen_No__1
  6
Continuous
100
AcDbPolyline
 90
        2
 70
   128
 43
0.0
 10
187.581684499785
 20
258.3188808561886
 10
166.6980668619576
 20
270.3796966298679
  0
LWPOLYLINE
  5
178
330
1F
100
AcDbEntity
  8
0_Pen_No__1
  6
Continuous
100
AcDbPolyline
 90
        2
 70
   128
 43
0.0
 10
161.9338988940388
 20
273.1311237615267
 10
161.9338988940388
 20
227.8799735720065
  0
LWPOLYLINE
  5
179
330
1F
100
AcDbEntity
  8
0_Pen_No__1
  6
Continuous
100
AcDbPolyline
 90
        2
 70
   128
 43
0.0
 10
166.6980668619576
 20
225.1293799012457
 10
161.9338988940388
 20
227.8799735720065
  0
LWPOLYLINE
  5
17A
330
1F
100
AcDbEntity
  8
0_Pen_No__1
  6
Continuous
100
AcDbPolyline
 90
        2
 70
   128
 43
0.0
 10
161.9338988940388
 20
273.1311237615267
 10
151.1398067666146
 20
279.3649841419807
  0
LWPOLYLINE
  5
17B
330
1F
100
AcDbEntity
  8
0_Pen_No__1
  6
Continuous
100
AcDbPolyline
 90
        2
 70
   128
 43
0.0
 10
166.6980668619576
 20
270.3796966298679
 10
166.6980668619576
 20
225.1293799012475
  0
LWPOLYLINE
  5
17C
330
1F
100
AcDbEntity
  8
0_Pen_No__1
  6
Continuous
100
AcDbPolyline
 90
        2
 70
   128
 43
0.0
 10
151.1398067666146
 20
279.3649841419807
 10
151.1398067666146
 20
234.1119455946667
  0
LWPOLYLINE
  5
17D
330
1F
100
AcDbEntity
  8
0_Pen_No__1
  6
Continuous
100
AcDbPolyline
 90
        2
 70
   128
 43
0.0
 10
146.3756387986949
 20
366.6270598430376
 10
146.3756387986949
 20
236.8625392654284
  0
LWPOLYLINE
  5
17E
330
1F
100
AcDbEntity
  8
0_Pen_No__1
  6
Continuous
100
AcDbPolyline
 90
        2
 70
   128
 43
0.0
 10
151.1398067666146
 20
363.8764661722759
 10
151.1398067666146
 20
285.0569160056368
  0
LWPOLYLINE
  5
17F
330
1F
100
AcDbEntity
  8
0_Pen_No__1
  6
Continuous
100
AcDbPolyline
 90
        2
 70
   128
 43
0.0
 10
151.1398067666146
 20
363.8764661722759
 10
146.3756387986949
 20
366.6270598430376
  0
LWPOLYLINE
  5
180
330
1F
100
AcDbEntity
  8
0_Pen_No__1
  6
Continuous
100
AcDbPolyline
 90
        2
 70
   128
 43
0.0
 10
151.1398067666146
 20
234.1119455946667
 10
146.3756387986949
 20
236.8625392654284
  0
LWPOLYLINE
  5
181
330
1F
100
AcDbEntity
  8
0_Pen_No__1
  6
Continuous
100
AcDbPolyline
 90
        2
 70
   128
 43
0.0
 10
195.842791587279
 20
286.2867552351098
 10
187.581684499785
 20
258.3188808561886
  0
LWPOLYLINE
  5
182
330
1F
100
AcDbEntity
  8
0_Pen_No__1
  6
Continuous
100
AcDbPolyline
 90
        2
 70
   128
 43
0.0
 10
234.1396858993072
 20
302.390711389872
 10
209.7405246387274
 20
316.477573773225
  0
LWPOLYLINE
  5
183
330
1F
100
AcDbEntity
  8
0_Pen_No__1
  6
Continuous
100
AcDbPolyline
 90
        2
 70
   128
 43
0.0
 10
209.7405246387266
 20
309.7104439745523
 10
160.9422021176369
 20
337.8841687412188
  0
LWPOLYLINE
  5
184
330
1F
100
AcDbEntity
  8
0_Pen_No__1
  6
Continuous
100
AcDbPolyline
 90
        2
 70
   128
 43
0.0
 10
160.9422021176369
 20
337.8841687412188
 10
160.9422021176369
 20
286.3658583884458
  0
LWPOLYLINE
  5
185
330
1F
100
AcDbEntity
  8
0_Pen_No__1
  6
Continuous
100
AcDbPolyline
 90
        2
 70
   128
 43
0.0
 10
160.9422021176369
 20
286.3658583884458
 10
185.3413633781942
 20
272.2789960051061
  0
LWPOLYLINE
  5
186
330
1F
100
AcDbEntity
  8
0_Pen_No__1
  6
Continuous
100
AcDbPolyline
 90
        2
 70
   128
 43
0.0
 10
185.3413633781942
 20
295.6235815912002
 10
209.7405246387266
 20
281.5367192078747
  0
LWPOLYLINE
  5
187
330
1F
100
AcDbEntity
  8
0_Pen_No__1
  6
Continuous
100
AcDbPolyline
 90
        2
 70
   128
 43
0.0
 10
209.7405246387266
 20
281.5367192078747
 10
209.7405246387248
 20
201.0403627316275
  0
LWPOLYLINE
  5
188
330
1F
100
AcDbEntity
  8
0_Pen_No__1
  6
Continuous
100
AcDbPolyline
 90
        2
 70
   128
 43
0.0
 10
185.3413633781942
 20
186.9535003482718
 10
234.1396858993072
 20
158.7797755815911
  0
LWPOLYLINE
  5
189
330
1F
100
AcDbEntity
  8
0_Pen_No__1
  6
Continuous
100
AcDbPolyline
 90
        2
 70
   128
 43
0.0
 10
234.1396858993072
 20
302.390711389872
 10
209.7405246387274
 20
316.477573773225
  0
LWPOLYLINE
  5
18A
330
1F
100
AcDbEntity
  8
0_Pen_No__1
  6
Continuous
100
AcDbPolyline
 90
        2
 70
   128
 43
0.0
 10
209.7405246387274
 20
316.477573773225
 10
209.7405246387266
 20
309.7104439745523
  0
LWPOLYLINE
  5
18B
330
1F
100
AcDbEntity
  8
0_Pen_No__1
  6
Continuous
100
AcDbPolyline
 90
        2
 70
   128
 43
0.0
 10
209.7405246387266
 20
309.7104439745523
 10
160.9422021176369
 20
337.8841687412188
  0
LWPOLYLINE
  5
18C
330
1F
100
AcDbEntity
  8
0_Pen_No__1
  6
Continuous
100
AcDbPolyline
 90
        2
 70
   128
 43
0.0
 10
160.9422021176369
 20
286.3658583884458
 10
185.3413633781942
 20
272.2789960051061
  0
LWPOLYLINE
  5
18D
330
1F
100
AcDbEntity
  8
0_Pen_No__1
  6
Continuous
100
AcDbPolyline
 90
        2
 70
   128
 43
0.0
 10
185.3413633781942
 20
272.2789960051061
 10
185.3413633781942
 20
295.6235815912002
  0
LWPOLYLINE
  5
18E
330
1F
100
AcDbEntity
  8
0_Pen_No__1
  6
Continuous
100
AcDbPolyline
 90
        2
 70
   128
 43
0.0
 10
185.3413633781942
 20
295.6235815912002
 10
209.7405246387266
 20
281.5367192078747
  0
LWPOLYLINE
  5
18F
330
1F
100
AcDbEntity
  8
0_Pen_No__1
  6
Continuous
100
AcDbPolyline
 90
        2
 70
   128
 43
0.0
 10
185.3413633781942
 20
215.1272251149512
 10
185.3413633781942
 20
186.9535003482718
  0
LWPOLYLINE
  5
190
330
1F
100
AcDbEntity
  8
0_Pen_No__1
  6
Continuous
100
AcDbPolyline
 90
        2
 70
   128
 43
0.0
 10
185.3413633781942
 20
186.9535003482718
 10
234.1396858993072
 20
158.7797755815911
  0
LWPOLYLINE
  5
191
330
1F
100
AcDbEntity
  8
0_Pen_No__1
  6
Continuous
100
AcDbPolyline
 90
        2
 70
   128
 43
0.0
 10
209.7405246387274
 20
316.477573773225
 10
209.7405246387266
 20
309.7104439745523
  0
LWPOLYLINE
  5
192
330
1F
100
AcDbEntity
  8
0_Pen_No__1
  6
Continuous
100
AcDbPolyline
 90
        2
 70
   128
 43
0.0
 10
209.7405246387248
 20
201.0403627316275
 10
188.3661531511416
 20
213.3808619176671
  0
LWPOLYLINE
  5
193
330
1F
100
AcDbEntity
  8
0_Pen_No__1
  6
Continuous
100
AcDbPolyline
 90
        2
 70
   128
 43
0.0
 10
209.7405246387257
 20
249.979954593839
 10
166.6980668619576
 20
225.1293799012457
  0
LWPOLYLINE
  5
194
330
1F
100
AcDbEntity
  8
0_Pen_No__1
  6
Continuous
100
AcDbPolyline
 90
        2
 70
   128
 43
0.0
 10
166.5131533960435
 20
225.2361397410343
 10
158.6338344221726
 20
220.6870128340707
  0
LWPOLYLINE
  5
195
330
1F
100
AcDbEntity
  8
0_Pen_No__1
  6
Continuous
100
AcDbPolyline
 90
        2
 70
   128
 43
0.0
 10
146.3756387986939
 20
281.7774699266768
 10
110.22430940165
 20
260.9054900765232
  0
LWPOLYLINE
  5
196
330
1F
100
AcDbEntity
  8
0_Pen_No__1
  6
Continuous
100
AcDbPolyline
 90
        2
 70
   128
 43
0.0
 10
205.9813206305219
 20
268.9419157756833
 10
187.581684499785
 20
258.3188808561886
  0
LWPOLYLINE
  5
197
330
1F
100
AcDbEntity
  8
0_Pen_No__1
  6
Continuous
100
AcDbPolyline
 90
        2
 70
   128
 43
0.0
 10
146.3756387986949
 20
273.3482727060249
 10
111.7285297189521
 20
253.3447550346126
  0
LWPOLYLINE
  5
198
330
1F
100
AcDbEntity
  8
0_Pen_No__1
  6
Continuous
100
AcDbPolyline
 90
        2
 70
   128
 43
0.0
 10
161.9338988940388
 20
272.9249501540078
 10
158.6338349633087
 20
271.0196573651557
  0
LWPOLYLINE
  5
199
330
1F
100
AcDbEntity
  8
0_Pen_No__1
  6
Continuous
100
AcDbPolyline
 90
        2
 70
   128
 43
0.0
 10
157.7511855042961
 20
275.3398408266247
 10
154.4511215735658
 20
273.4345480377726
  0
LWPOLYLINE
  5
19A
330
1F
100
AcDbEntity
  8
0_Pen_No__1
  6
Continuous
100
AcDbPolyline
 90
        2
 70
   128
 43
0.0
 10
154.4398706973447
 20
236.0172383835188
 10
151.1398067666146
 20
234.1119455946667
  0
LWPOLYLINE
  5
19B
330
1F
100
AcDbEntity
  8
0_Pen_No__1
  6
Continuous
100
AcDbPolyline
 90
        2
 70
   128
 43
0.0
 10
234.1396858993072
 20
158.7797755815911
 10
353.9129413941103
 20
227.9308968832335
  0
LWPOLYLINE
  5
19C
330
1F
100
AcDbEntity
  8
0_Pen_No__1
  6
Continuous
100
AcDbPolyline
 90
        2
 70
   128
 43
0.0
 10
191.936813548301
 20
288.8762660576606
 10
195.842791587279
 20
286.2867552351098
  0
LWPOLYLINE
  5
19D
330
1F
100
AcDbEntity
  8
0_Pen_No__1
  6
Continuous
100
AcDbPolyline
 90
        2
 70
   128
 43
0.0
 10
209.7405246387274
 20
316.477573773225
 10
346.9145320563729
 20
395.7560668855818
  0
LWPOLYLINE
  5
19E
330
1F
100
AcDbEntity
  8
0_Pen_No__1
  6
Continuous
100
AcDbPolyline
 90
        6
 70
   129
 43
0.0
 10
336.1196365438039
 20
-172.0136358267158
 10
513.7050306185813
 20
-69.48466382240125
 10
487.9984943061305
 20
-54.6429881039826
 10
310.531500402095
 20
-157.1036014628574
 42
-0.3033439264365636
 10
310.8086887611901
 20
-157.0854349823304
 10
336.0403903397032
 20
-171.6529646807975
 42
-0.4411354715961
  0
LWPOLYLINE
  5
19F
330
1F
100
AcDbEntity
  8
0_Pen_No__1
  6
Continuous
100
AcDbPolyline
 90
        2
 70
   128
 43
0.0
 10
296.5025031607962
 20
-166.2964037465865
 10
310.6467985406404
 20
-158.1301910015358
  0
LWPOLYLINE
  5
1A0
330
1F
100
AcDbEntity
  8
0_Pen_No__1
  6
Continuous
100
AcDbPolyline
 90
        2
 70
   128
 43
0.0
 10
312.3481737801677
 20
-177.3923163307227
 10
326.1647063481971
 20
-169.4153374850075
  0
LWPOLYLINE
  5
1A1
330
1F
100
AcDbEntity
  8
0_Pen_No__1
  6
Continuous
100
AcDbPolyline
 90
        6
 70
   129
 43
0.0
 10
265.5330326831098
 20
396.024527282958
 10
322.2418950220974
 20
428.7654032398079
 42
0.1777947969175216
 10
211.1782797379427
 20
484.1128779268118
 10
162.5454462618176
 20
456.0346993442732
 42
-0.3033439264365636
 10
163.6610789100568
 20
456.1078161188942
 10
265.2140811483757
 20
397.4761629395853
 42
-0.4411354715961
  0
LWPOLYLINE
  5
1A2
330
1F
100
AcDbEntity
  8
0_Pen_No__1
  6
Continuous
100
AcDbPolyline
 90
        2
 70
   128
 43
0.0
 10
106.0812881148207
 20
419.0353448619356
 10
163.0095002648872
 20
451.9028634712604
  0
LWPOLYLINE
  5
1A3
330
1F
100
AcDbEntity
  8
0_Pen_No__1
  6
Continuous
100
AcDbPolyline
 90
        2
 70
   128
 43
0.0
 10
169.8572256539303
 20
374.3763181218382
 10
225.4662521970215
 20
406.4822047602485
  0
LWPOLYLINE
  5
1A4
330
1F
100
AcDbEntity
  8
0_Pen_No__1
  6
Continuous
100
AcDbPolyline
 90
        2
 70
   128
 43
0.0
 10
307.1355348628879
 20
-176.9007587784642
 10
301.1803939555718
 20
-180.3389609993899
  0
LWPOLYLINE
  5
1A5
330
1F
100
AcDbEntity
  8
0_Pen_No__1
  6
Continuous
100
AcDbPolyline
 90
        2
 70
   128
 43
0.0
 10
305.8639006428556
 20
-179.0017536236371
 10
302.3640917467448
 20
-181.0223692407488
  0
CIRCLE
  5
1A6
330
1F
100
AcDbEntity
  8
0_Pen_No__1
  6
Continuous
100
AcDbCircle
 10
191.3456486423914
 20
305.2088065817813
 30
0.0
 40
180.0
  0
WIPEOUT
  5
1A8
330
1F
100
AcDbEntity
  8
Key_ Sections_Pen_No__1
  6
Wipeout_Contour
 48
3591.179575236688
 92
      296
310
28010000060000000C0000000E000000120000000C00000016000000000000C20C00000014000000010000006C0000000700000004000000505560CD89378740C36F6C1FDCC87D4000000000000000006859B6DBB6E58840C36F6C1FDCC87D4000000000000000006859B6DBB6E58840FD2335969AE87B4000000000000000
310
00505560CD89378740FD2335969AE87B4000000000000000000C0000000E00000007000000840000000600000005000000505560CD89378740C36F6C1FDCC87D4000000000000000006859B6DBB6E58840C36F6C1FDCC87D4000000000000000006859B6DBB6E58840FD2335969AE87B400000000000000000505560CD8937
310
8740FD2335969AE87B400000000000000000505560CD89378740C36F6C1FDCC87D400000000000000000
100
AcDbWipeout
 90
        0
 10
742.9422862554584
 20
446.5377409053615
 30
0.0
 11
53.77199999999993
 21
0.0
 31
0.0
 12
0.0
 22
30.01599999999996
 32
0.0
 13
1.0
 23
1.0
340
0
 70
    15
280
     1
281
    50
282
    50
283
     0
360
0
 71
     2
 91
        5
 14
-0.5
 24
-0.5
 14
0.5
 24
-0.5
 14
0.5
 24
0.5
 14
-0.5
 24
0.5
 14
-0.5
 24
-0.5
  0
MTEXT
  5
1AB
102
{ACAD_REACTORS
330
1AC
102
}
330
1F
100
AcDbEntity
  8
Key_ Sections_Pen_No__1
  6
Continuous
100
AcDbMText
 10
747.9422862554584
 20
462.3437409053615
 30
0.0
 40
12.5
 41
43.77199999999999
 71
     4
 72
     1
  1
{Studs}
  7
GENERATED_STYLE_1
 73
     1
 44
1.0
  0
LEADER
  5
1AC
330
1F
100
AcDbEntity
  8
Key_ Sections_Pen_No__1
  6
Continuous
100
AcDbLeader
  3
GENERATED_STYLE__1
 72
     1
 73
     0
 74
     0
 40
12.925
 41
43.1375
 76
     2
 10
523.2531753547951
 20
461.5457409053615
 30
0.0
 10
747.8522862554584
 20
462.3437409053615
 30
0.0
340
1AB
  0
WIPEOUT
  5
1B3
330
1F
100
AcDbEntity
  8
Key_ Sections_Pen_No__1
  6
Wipeout_Contour
 48
3608.92741286201
 92
      296
310
28010000060000000C0000000E000000120000000C00000016000000000000C20C00000014000000010000006C0000000700000004000000505560CD893787401A08BDF8EFB07A400000000000000000F3C59DD760E98A401A08BDF8EFB07A400000000000000000F3C59DD760E98A4054BC856FAED0784000000000000000
310
00505560CD8937874054BC856FAED0784000000000000000000C0000000E00000007000000840000000600000005000000505560CD893787401A08BDF8EFB07A400000000000000000F3C59DD760E98A401A08BDF8EFB07A400000000000000000F3C59DD760E98A4054BC856FAED078400000000000000000505560CD8937
310
874054BC856FAED078400000000000000000505560CD893787401A08BDF8EFB07A400000000000000000
100
AcDbWipeout
 90
        0
 10
742.9422862554584
 20
397.0425868248033
 30
0.0
 11
118.2299999999999
 21
0.0
 31
0.0
 12
0.0
 22
30.01599999999996
 32
0.0
 13
1.0
 23
1.0
340
0
 70
    15
280
     1
281
    50
282
    50
283
     0
360
0
 71
     2
 91
        5
 14
-0.5000000000000004
 24
-0.5
 14
0.4999999999999995
 24
-0.5
 14
0.4999999999999995
 24
0.5
 14
-0.5000000000000004
 24
0.5
 14
-0.5000000000000004
 24
-0.5
  0
MTEXT
  5
1B4
102
{ACAD_REACTORS
330
1B5
102
}
330
1F
100
AcDbEntity
  8
Key_ Sections_Pen_No__1
  6
Continuous
100
AcDbMText
 10
747.9422862554584
 20
411.1514439676604
 30
0.0
 40
12.5
 41
108.23
 71
     4
 72
     1
  1
{Cavity battens}
  7
GENERATED_STYLE_1
 73
     1
 44
1.0
  0
LEADER
  5
1B5
330
1F
100
AcDbEntity
  8
Key_ Sections_Pen_No__1
  6
Continuous
100
AcDbLeader
  3
GENERATED_STYLE__1
 72
     1
 73
     0
 74
     0
 40
33.74583333333334
 41
55.41250000000001
 76
     3
 10
570.0473512390034
 20
374.5505868248032
 30
0.0
 10
637.4241795085362
 20
400.8704027706033
 30
0.0
 10
747.8522862554584
 20
411.1514439676604
 30
0.0
340
1B4
  0
WIPEOUT
  5
1B6
330
1F
100
AcDbEntity
  8
Key_ Sections_Pen_No__1
  6
Wipeout_Contour
 48
3571.439698496634
 92
      296
310
28010000060000000C0000000E000000120000000C00000016000000000000C20C00000014000000010000006C0000000700000004000000505560CD89378740EB67A22DD08F76400000000000000000CB690E156BDE8C40EB67A22DD08F76400000000000000000CB690E156BDE8C408DAD5821CEEE704000000000000000
310
00505560CD893787408DAD5821CEEE704000000000000000000C0000000E00000007000000840000000600000005000000505560CD89378740EB67A22DD08F76400000000000000000CB690E156BDE8C40EB67A22DD08F76400000000000000000CB690E156BDE8C408DAD5821CEEE70400000000000000000505560CD8937
310
87408DAD5821CEEE70400000000000000000505560CD89378740EB67A22DD08F76400000000000000000
100
AcDbWipeout
 90
        0
 10
742.9422862554584
 20
270.9253247703535
 30
0.0
 11
180.86
 21
0.0
 31
0.0
 12
0.0
 22
90.06299999999999
 32
0.0
 13
1.0
 23
1.0
340
0
 70
    15
280
     1
281
    50
282
    50
283
     0
360
0
 71
     2
 91
        5
 14
-0.5000000000000003
 24
-0.5
 14
0.4999999999999997
 24
-0.5
 14
0.4999999999999997
 24
0.5
 14
-0.5000000000000003
 24
0.5
 14
-0.5000000000000003
 24
-0.5
  0
MTEXT
  5
1B7
102
{ACAD_REACTORS
330
1B8
102
}
330
1F
100
AcDbEntity
  8
Key_ Sections_Pen_No__1
  6
Continuous
100
AcDbMText
 10
747.9422862554584
 20
315.1561389180589
 30
0.0
 40
12.5
 41
170.86
 71
     4
 72
     1
  1
{Breather type building \Punderlay dressed into \Popening with flexible \Ptape installed over }
  7
GENERATED_STYLE_1
 73
     1
 44
0.9565903936735453
  0
LEADER
  5
1B8
330
1F
100
AcDbEntity
  8
Key_ Sections_Pen_No__1
  6
Continuous
100
AcDbLeader
  3
GENERATED_STYLE__1
 72
     1
 73
     0
 74
     0
 40
75.95267506325222
 41
167.275
 76
     3
 10
669.5962115585445
 20
305.6040629662526
 30
0.0
 10
708.5722478547871
 20
313.5550929641674
 30
0.0
 10
747.8522862554584
 20
315.1561389180589
 30
0.0
340
1B7
  0
WIPEOUT
  5
1B9
330
1F
100
AcDbEntity
  8
Key_ Sections_Pen_No__1
  6
Wipeout_Contour
 48
3474.045909647249
 92
      296
310
28010000060000000C0000000E000000120000000C00000016000000000000C20C00000014000000010000006C0000000700000004000000505560CD8937874089B2D0161DC66B4000000000000000000874E5B8DBB98D4089B2D0161DC66B4000000000000000000874E5B8DBB98D40E1EB84DF9304634000000000000000
310
00505560CD89378740E1EB84DF9304634000000000000000000C0000000E00000007000000840000000600000005000000505560CD8937874089B2D0161DC66B4000000000000000000874E5B8DBB98D4089B2D0161DC66B4000000000000000000874E5B8DBB98D40E1EB84DF930463400000000000000000505560CD8937
310
8740E1EB84DF930463400000000000000000505560CD8937874089B2D0161DC66B400000000000000000
100
AcDbWipeout
 90
        0
 10
742.9422862554584
 20
152.1430509182092
 30
0.0
 11
208.29
 21
0.0
 31
0.0
 12
0.0
 22
70.048
 32
0.0
 13
1.0
 23
1.0
340
0
 70
    15
280
     1
281
    50
282
    50
283
     0
360
0
 71
     2
 91
        5
 14
-0.5
 24
-0.5
 14
0.5
 24
-0.5
 14
0.5
 24
0.5
 14
-0.5
 24
0.5
 14
-0.5
 24
-0.5
  0
MTEXT
  5
1BA
102
{ACAD_REACTORS
330
1BB
102
}
330
1F
100
AcDbEntity
  8
Key_ Sections_Pen_No__1
  6
Continuous
100
AcDbMText
 10
747.9422862554584
 20
187.9695936833461
 30
0.0
 40
12.5
 41
198.29
 71
     4
 72
     1
  1
{Palliside Traditional Bevel\PBack weatherboard profile\Pfixed with Palliside nails}
  7
GENERATED_STYLE_1
 73
     1
 44
0.6361488808910039
  0
LEADER
  5
1BB
330
1F
100
AcDbEntity
  8
Key_ Sections_Pen_No__1
  6
Continuous
100
AcDbLeader
  3
GENERATED_STYLE__1
 72
     1
 73
     0
 74
     0
 40
52.80698669287708
 41
197.175
 76
     3
 10
653.9399498278265
 20
226.1693872550712
 30
0.0
 10
696.9697324596224
 20
196.3575804011427
 30
0.0
 10
747.8522862554584
 20
187.9695936833461
 30
0.0
340
1BA
  0
WIPEOUT
  5
1BC
330
1F
100
AcDbEntity
  8
Key_ Sections_Pen_No__1
  6
Wipeout_Contour
 48
3334.522326976201
 92
      296
310
28010000060000000C0000000E000000120000000C00000016000000000000C20C00000014000000010000006C0000000700000004000000505560CD89378740A25C72E02AF05E400000000000000000505560CD897D8C40A25C72E02AF05E400000000000000000505560CD897D8C406DFEB7961E6E524000000000000000
310
00505560CD893787406DFEB7961E6E524000000000000000000C0000000E00000007000000840000000600000005000000505560CD89378740A25C72E02AF05E400000000000000000505560CD897D8C40A25C72E02AF05E400000000000000000505560CD897D8C406DFEB7961E6E52400000000000000000505560CD8937
310
87406DFEB7961E6E52400000000000000000505560CD89378740A25C72E02AF05E400000000000000000
100
AcDbWipeout
 90
        0
 10
742.9422862554584
 20
73.72061698883199
 30
0.0
 11
168.75
 21
0.0
 31
0.0
 12
0.0
 22
50.032
 32
0.0
 13
1.0
 23
1.0
340
0
 70
    15
280
     1
281
    50
282
    50
283
     0
360
0
 71
     2
 91
        5
 14
-0.5
 24
-0.4999999999999998
 14
0.5
 24
-0.4999999999999998
 14
0.5
 24
0.5000000000000001
 14
-0.5
 24
0.5000000000000001
 14
-0.5
 24
-0.4999999999999998
  0
MTEXT
  5
1BD
102
{ACAD_REACTORS
330
1BE
102
}
330
1F
100
AcDbEntity
  8
Key_ Sections_Pen_No__1
  6
Continuous
100
AcDbMText
 10
747.9422862554584
 20
97.83760265711474
 30
0.0
 40
12.5
 41
158.75
 71
     4
 72
     1
  1
{Palliside 2 part jamb \Pflashing base}
  7
GENERATED_STYLE_1
 73
     1
 44
0.9459980913343251
  0
LEADER
  5
1BE
330
1F
100
AcDbEntity
  8
Key_ Sections_Pen_No__1
  6
Continuous
100
AcDbLeader
  3
GENERATED_STYLE__1
 72
     1
 73
     0
 74
     0
 40
36.13059347403182
 41
155.0249999999999
 76
     3
 10
559.4903630259047
 20
134.4949520383197
 30
0.0
 10
693.8573585115674
 20
103.4312361606958
 30
0.0
 10
747.8522862554584
 20
97.83760265711474
 30
0.0
340
1BD
  0
WIPEOUT
  5
1BF
330
1F
100
AcDbEntity
  8
Key_ Sections_Pen_No__1
  6
Wipeout_Contour
 48
3218.989115367229
 92
      296
310
28010000060000000C0000000E000000120000000C00000016000000000000C20C00000014000000010000006C0000000700000004000000505560CD89378740DFDAABF8EE6947400000000000000000F3C59DD760098B40DFDAABF8EE6947400000000000000000F3C59DD760098B40A0188EAC99A209C000000000000000
310
00505560CD89378740A0188EAC99A209C000000000000000000C0000000E00000007000000840000000600000005000000505560CD89378740DFDAABF8EE6947400000000000000000F3C59DD760098B40DFDAABF8EE6947400000000000000000F3C59DD760098B40A0188EAC99A209C00000000000000000505560CD8937
310
8740A0188EAC99A209C00000000000000000505560CD89378740DFDAABF8EE6947400000000000000000
100
AcDbWipeout
 90
        0
 10
742.9422862554584
 20
-3.204394672476227
 30
0.0
 11
122.2299999999999
 21
0.0
 31
0.0
 12
0.0
 22
50.03199999999999
 32
0.0
 13
1.0
 23
1.0
340
0
 70
    15
280
     1
281
    50
282
    50
283
     0
360
0
 71
     2
 91
        5
 14
-0.5000000000000004
 24
-0.5
 14
0.4999999999999996
 24
-0.5
 14
0.4999999999999996
 24
0.5
 14
-0.5000000000000004
 24
0.5
 14
-0.5000000000000004
 24
-0.5
  0
MTEXT
  5
1C0
102
{ACAD_REACTORS
330
1C1
102
}
330
1F
100
AcDbEntity
  8
Key_ Sections_Pen_No__1
  6
Continuous
100
AcDbMText
 10
747.9422862554584
 20
22.61401956723509
 30
0.0
 40
12.5
 41
112.23
 71
     4
 72
     1
  1
{Concrete floor \Pconstruction}
  7
GENERATED_STYLE_1
 73
     1
 44
0.9509258056594952
  0
LEADER
  5
1C1
330
1F
100
AcDbEntity
  8
Key_ Sections_Pen_No__1
  6
Continuous
100
AcDbLeader
  3
GENERATED_STYLE__1
 72
     1
 73
     0
 74
     0
 40
32.71302601827546
 41
108.9375
 76
     2
 10
355.0016479971456
 20
21.81160532752381
 30
0.0
 10
747.8522862554584
 20
22.61401956723509
 30
0.0
340
1C0
  0
WIPEOUT
  5
1C2
330
1F
100
AcDbEntity
  8
Key_ Sections_Pen_No__1
  6
Wipeout_Contour
 48
3558.276560162109
 92
      296
310
28010000060000000C0000000E000000120000000C00000016000000000000C20C00000014000000010000006C0000000700000004000000505560CD893787400FEB9EBDA8C677C000000000000000000874E5B8DB8E8A400FEB9EBDA8C677C000000000000000000874E5B8DB8E8A40D636D646EAA679C000000000000000
310
00505560CD89378740D636D646EAA679C000000000000000000C0000000E00000007000000840000000600000005000000505560CD893787400FEB9EBDA8C677C000000000000000000874E5B8DB8E8A400FEB9EBDA8C677C000000000000000000874E5B8DB8E8A40D636D646EAA679C00000000000000000505560CD8937
310
8740D636D646EAA679C00000000000000000505560CD893787400FEB9EBDA8C677C00000000000000000
100
AcDbWipeout
 90
        0
 10
742.9422862554584
 20
-410.4321964614622
 30
0.0
 11
106.915
 21
0.0
 31
0.0
 12
0.0
 22
30.01600000000002
 32
0.0
 13
1.0
 23
1.0
340
0
 70
    15
280
     1
281
    50
282
    50
283
     0
360
0
 71
     2
 91
        5
 14
-0.5
 24
-0.4999999999999991
 14
0.5
 24
-0.4999999999999991
 14
0.5
 24
0.500000000000001
 14
-0.5
 24
0.500000000000001
 14
-0.5
 24
-0.4999999999999991
  0
MTEXT
  5
1C3
102
{ACAD_REACTORS
330
1C4
102
}
330
1F
100
AcDbEntity
  8
Key_ Sections_Pen_No__1
  6
Continuous
100
AcDbMText
 10
747.9422862554584
 20
-394.6261964614623
 30
0.0
 40
12.5
 41
96.915
 71
     4
 72
     1
  1
{Ground level}
  7
GENERATED_STYLE_1
 73
     1
 44
1.0
  0
LEADER
  5
1C4
330
1F
100
AcDbEntity
  8
Key_ Sections_Pen_No__1
  6
Continuous
100
AcDbLeader
  3
GENERATED_STYLE__1
 72
     1
 73
     0
 74
     0
 40
12.925
 41
96.76250000000003
 76
     2
 10
456.5256306879491
 20
-395.4241964614622
 30
0.0
 10
747.8522862554584
 20
-394.6261964614623
 30
0.0
340
1C3
  0
WIPEOUT
  5
1C5
330
1F
100
AcDbEntity
  8
Key_ Sections_Pen_No__1
  6
Wipeout_Contour
 48
3901.032918028238
 92
      296
310
28010000060000000C0000000E000000120000000C00000016000000000000C20C00000014000000010000006C0000000700000004000000505560CD893787404C5F48B7894A80C00000000000000000E9EEF96623A18B404C5F48B7894A80C00000000000000000E9EEF96623A18B403005E47BAA3A81C000000000000000
310
00505560CD893787403005E47BAA3A81C000000000000000000C0000000E00000007000000840000000600000005000000505560CD893787404C5F48B7894A80C00000000000000000E9EEF96623A18B404C5F48B7894A80C00000000000000000E9EEF96623A18B403005E47BAA3A81C00000000000000000505560CD8937
310
87403005E47BAA3A81C00000000000000000505560CD893787404C5F48B7894A80C00000000000000000
100
AcDbWipeout
 90
        0
 10
742.9422862554584
 20
-551.3332441152652
 30
0.0
 11
141.1999999999999
 21
0.0
 31
0.0
 12
0.0
 22
30.01600000000008
 32
0.0
 13
1.0
 23
1.0
340
0
 70
    15
280
     1
281
    50
282
    50
283
     0
360
0
 71
     2
 91
        5
 14
-0.4999999999999996
 24
-0.5
 14
0.5000000000000004
 24
-0.5
 14
0.5000000000000004
 24
0.5
 14
-0.4999999999999996
 24
0.5
 14
-0.4999999999999996
 24
-0.5
  0
MTEXT
  5
1C6
102
{ACAD_REACTORS
330
1C7
102
}
330
1F
100
AcDbEntity
  8
Key_ Sections_Pen_No__1
  6
Continuous
100
AcDbMText
 10
747.9422862554584
 20
-537.224386972408
 30
0.0
 40
12.5
 41
131.2
 71
     4
 72
     1
  1
{Concrete Footing}
  7
GENERATED_STYLE_1
 73
     1
 44
1.0
  0
LEADER
  5
1C7
330
1F
100
AcDbEntity
  8
Key_ Sections_Pen_No__1
  6
Continuous
100
AcDbLeader
  3
GENERATED_STYLE__1
 72
     1
 73
     0
 74
     0
 40
37.20833333333334
 41
69.18750000000001
 76
     3
 10
288.0837721301602
 20
-496.325244115265
 30
0.0
 10
358.8452610611125
 20
-519.501658024899
 30
0.0
 10
747.8522862554584
 20
-537.224386972408
 30
0.0
340
1C6
  0
WIPEOUT
  5
1C8
330
1F
100
AcDbEntity
  8
Key_ Sections_Pen_No__1
  6
Wipeout_Contour
 48
3577.607950748685
 92
      296
310
28010000060000000C0000000E000000120000000C00000016000000000000C20C00000014000000010000006C0000000700000004000000505560CD8937874070F46E3B0EF26EC000000000000000006EDA4B1F42808D4070F46E3B0EF26EC000000000000000006EDA4B1F42808D409734012A091A75C000000000000000
310
00505560CD893787409734012A091A75C000000000000000000C0000000E00000007000000840000000600000005000000505560CD8937874070F46E3B0EF26EC000000000000000006EDA4B1F42808D4070F46E3B0EF26EC000000000000000006EDA4B1F42808D409734012A091A75C00000000000000000505560CD8937
310
87409734012A091A75C00000000000000000505560CD8937874070F46E3B0EF26EC00000000000000000
100
AcDbWipeout
 90
        0
 10
742.9422862554584
 20
-337.6272373244369
 30
0.0
 11
201.0899999999999
 21
0.0
 31
0.0
 12
0.0
 22
90.06300000000005
 32
0.0
 13
1.0
 23
1.0
340
0
 70
    15
280
     1
281
    50
282
    50
283
     0
360
0
 71
     2
 91
        5
 14
-0.5
 24
-0.5000000000000003
 14
0.5
 24
-0.5000000000000003
 14
0.5
 24
0.4999999999999997
 14
-0.5
 24
0.4999999999999997
 14
-0.5
 24
-0.5000000000000003
  0
MTEXT
  5
1C9
102
{ACAD_REACTORS
330
1CA
102
}
330
1F
100
AcDbEntity
  8
Key_ Sections_Pen_No__1
  6
Continuous
100
AcDbMText
 10
747.9422862554584
 20
-293.4949946053028
 30
0.0
 40
12.5
 41
191.09
 71
     4
 72
     1
  1
{Modified Palliside starter \Pstrip with additional \PCavity base closure\PMitre guard at corners}
  7
GENERATED_STYLE_1
 73
     1
 44
0.9533197673736268
  0
LEADER
  5
1CA
330
1F
100
AcDbEntity
  8
Key_ Sections_Pen_No__1
  6
Continuous
100
AcDbLeader
  3
GENERATED_STYLE__1
 72
     1
 73
     0
 74
     0
 40
76.15014636198546
 41
188.9875
 76
     3
 10
311.5768041245195
 20
-212.4080876644151
 30
0.0
 10
496.5719255222597
 20
-270.0854575163751
 30
0.0
 10
747.8522862554584
 20
-293.4949946053028
 30
0.0
340
1C9
  0
WIPEOUT
  5
1CB
330
1F
100
AcDbEntity
  8
Key_ Sections_Pen_No__1
  6
Wipeout_Contour
 48
3395.364347117009
 92
      296
310
28010000060000000C0000000E000000120000000C00000016000000000000C20C00000014000000010000006C0000000700000004000000505560CD893787408C7FE51252F268C00000000000000000E9EEF96623178C408C7FE51252F268C00000000000000000E9EEF96623178C4019175425D5B26CC000000000000000
310
00505560CD8937874019175425D5B26CC000000000000000000C0000000E00000007000000840000000600000005000000505560CD893787408C7FE51252F268C00000000000000000E9EEF96623178C408C7FE51252F268C00000000000000000E9EEF96623178C4019175425D5B26CC00000000000000000505560CD8937
310
874019175425D5B26CC00000000000000000505560CD893787408C7FE51252F268C00000000000000000
100
AcDbWipeout
 90
        0
 10
742.9422862554584
 20
-229.5885187761676
 30
0.0
 11
155.9499999999999
 21
0.0
 31
0.0
 12
0.0
 22
30.01599999999999
 32
0.0
 13
1.0
 23
1.0
340
0
 70
    15
280
     1
281
    50
282
    50
283
     0
360
0
 71
     2
 91
        5
 14
-0.4999999999999996
 24
-0.4999999999999995
 14
0.5000000000000003
 24
-0.4999999999999995
 14
0.5000000000000003
 24
0.5000000000000004
 14
-0.4999999999999996
 24
0.5000000000000004
 14
-0.4999999999999996
 24
-0.4999999999999995
  0
MTEXT
  5
1CC
102
{ACAD_REACTORS
330
1CD
102
}
330
1F
100
AcDbEntity
  8
Key_ Sections_Pen_No__1
  6
Continuous
100
AcDbMText
 10
747.9422862554584
 20
-215.381090204739
 30
0.0
 40
12.5
 41
145.95
 71
     4
 72
     1
  1
{WANZ Support Bar}
  7
GENERATED_STYLE_1
 73
     1
 44
1.0
  0
LEADER
  5
1CD
330
1F
100
AcDbEntity
  8
Key_ Sections_Pen_No__1
  6
Continuous
100
AcDbLeader
  3
GENERATED_STYLE__1
 72
     1
 73
     0
 74
     0
 40
33.74583333333334
 41
116.9875
 76
     3
 10
296.2448273239618
 20
-186.7738780324838
 30
0.0
 10
556.5819463882517
 20
-208.7913273031025
 30
0.0
 10
747.8522862554584
 20
-215.381090204739
 30
0.0
340
1CC
  0
WIPEOUT
  5
1CE
330
1F
100
AcDbEntity
  8
Key_ Sections_Pen_No__1
  6
Wipeout_Contour
 48
3378.210259710523
 92
      296
310
28010000060000000C0000000E000000120000000C00000016000000000000C20C00000014000000010000006C0000000700000004000000505560CD8937874013406A7A081F62C000000000000000001C222D9A56748C4013406A7A081F62C000000000000000001C222D9A56748C402D6F479F0E6068C000000000000000
310
00505560CD893787402D6F479F0E6068C000000000000000000C0000000E00000007000000840000000600000005000000505560CD8937874013406A7A081F62C000000000000000001C222D9A56748C4013406A7A081F62C000000000000000001C222D9A56748C402D6F479F0E6068C00000000000000000505560CD8937
310
87402D6F479F0E6068C00000000000000000505560CD8937874013406A7A081F62C00000000000000000
100
AcDbWipeout
 90
        0
 10
742.9422862554584
 20
-195.0017849345399
 30
0.0
 11
167.5999999999999
 21
0.0
 31
0.0
 12
0.0
 22
50.03199999999998
 32
0.0
 13
1.0
 23
1.0
340
0
 70
    15
280
     1
281
    50
282
    50
283
     0
360
0
 71
     2
 91
        5
 14
-0.5
 24
-0.5
 14
0.5
 24
-0.5
 14
0.5
 24
0.5
 14
-0.5
 24
0.5
 14
-0.5
 24
-0.5
  0
MTEXT
  5
1CF
102
{ACAD_REACTORS
330
1D0
102
}
330
1F
100
AcDbEntity
  8
Key_ Sections_Pen_No__1
  6
Continuous
100
AcDbMText
 10
747.9422862554584
 20
-170.8847992662571
 30
0.0
 40
12.49999999999999
 41
157.6
 71
     4
 72
     1
  1
{Screw to support bar\Pbelow opening}
  7
GENERATED_STYLE_1
 73
     1
 44
0.4772281251535569
  0
LEADER
  5
1D0
330
1F
100
AcDbEntity
  8
Key_ Sections_Pen_No__1
  6
Continuous
100
AcDbLeader
  3
GENERATED_STYLE__1
 72
     1
 73
     0
 74
     0
 40
36.14841619132666
 41
129.9874999999999
 76
     3
 10
449.865218990831
 20
-143.0599099161812
 30
0.0
 10
587.9894906181493
 20
-162.8977083453996
 30
0.0
 10
747.8522862554584
 20
-170.8847992662571
 30
0.0
340
1CF
  0
HATCH
  5
1D1
330
1F
100
AcDbEntity
  8
0_Pen_No__146
  6
Continuous
 62
   250
420
  3289650
370
     0
100
AcDbHatch
 10
0.0
 20
0.0
 30
0.0
210
0.0
220
0.0
230
1.0
  2
SOLID
 70
     1
 71
     1
 91
        1
 92
        3
 72
     1
 73
     1
 93
       32
 10
312.3481737801677
 20
-177.3923163307227
 42
0.0
 10
312.3481737801677
 20
-176.7929527460093
 42
-0.1316524975876324
 10
312.7500975688152
 20
-175.2929527460093
 42
0.0
 10
315.9462501452458
 20
-169.7570540948884
 42
0.1316525001226435
 10
316.3481739338932
 20
-168.2570541247902
 42
0.0
 10
316.3481739615742
 20
-165.4798106798377
 42
-0.414213559453727
 10
317.7744824624972
 20
-164.5712394660376
 42
0.0
 10
332.1686820945764
 20
-172.8817344983876
 42
0.3877945824086894
 10
336.1196365438039
 20
-172.0136358267158
 42
0.4411354715964016
 10
336.0403903397032
 20
-171.6529646807975
 42
0.0
 10
310.8086887611901
 20
-157.0854349823304
 42
0.6681786379192896
 10
310.4422073046182
 20
-157.3666460945523
 42
0.0
 10
311.3572708140788
 20
-160.7817096040133
 42
0.1989123673791761
 10
311.4737522706507
 20
-160.9335111936837
 42
0.0
 10
312.2500978075331
 20
-161.3817344983869
 42
-0.1922935421256892
 10
313.3481740188864
 20
-165.47981070974
 42
0.0
 10
313.3481740188864
 20
-167.4532063703801
 42
-0.1316524975870725
 10
312.9462502302408
 20
-168.9532063703801
 42
0.0
 10
308.5702164781424
 20
-176.5327191646503
 42
-0.3152987888789753
 10
307.1756603576621
 20
-176.9239252436735
 42
0.0
 10
298.3481740188877
 20
-171.8273736297143
 42
0.0
 10
298.3481740188877
 20
-168.7522473638675
 42
0.1989123673796733
 10
297.7623875812607
 20
-167.3380338014941
 42
0.0
 10
296.7749507141845
 20
-166.350596934418
 42
0.6681786379196963
 10
296.3481740188871
 20
-166.5273736297147
 42
0.0
 10
296.3481740188871
 20
-204.9016942010661
 42
0.266649925125407
 10
297.5149210848092
 20
-204.9082229136517
 42
0.2325333671303287
 10
299.3481740188872
 20
-201.4172709199534
 42
0.0
 10
299.3481740188872
 20
-177.1921207315757
 42
-0.4663076581549968
 10
300.7059365321293
 20
-176.023801655839
 42
0.0
 10
306.8691183131685
 20
-179.5821163161864
 42
-0.1110831833567394
 10
307.6101139253477
 20
-180.1278364752935
 42
0.0
 97
        1
330
1D2
 75
     0
 76
     1
 98
        0
  0
LWPOLYLINE
  5
1D2
102
{ACAD_REACTORS
330
1D1
102
}
330
1F
100
AcDbEntity
  8
0_Pen_No__1
  6
Continuous
100
AcDbPolyline
 90
       32
 70
   129
 43
0.0
 10
312.3481737801677
 20
-177.3923163307227
 10
312.3481737801677
 20
-176.7929527460093
 42
-0.1316524975876324
 10
312.7500975688152
 20
-175.2929527460093
 10
315.9462501452458
 20
-169.7570540948884
 42
0.1316525001226435
 10
316.3481739338932
 20
-168.2570541247902
 10
316.3481739615742
 20
-165.4798106798377
 42
-0.414213559453727
 10
317.7744824624972
 20
-164.5712394660376
 10
332.1686820945764
 20
-172.8817344983876
 42
0.3877945824086894
 10
336.1196365438039
 20
-172.0136358267158
 42
0.4411354715964016
 10
336.0403903397032
 20
-171.6529646807975
 10
310.8086887611901
 20
-157.0854349823304
 42
0.6681786379192896
 10
310.4422073046182
 20
-157.3666460945523
 10
311.3572708140788
 20
-160.7817096040133
 42
0.1989123673791761
 10
311.4737522706507
 20
-160.9335111936837
 10
312.2500978075331
 20
-161.3817344983869
 42
-0.1922935421256892
 10
313.3481740188864
 20
-165.47981070974
 10
313.3481740188864
 20
-167.4532063703801
 42
-0.1316524975870725
 10
312.9462502302408
 20
-168.9532063703801
 10
308.5702164781424
 20
-176.5327191646503
 42
-0.3152987888789753
 10
307.1756603576621
 20
-176.9239252436735
 10
298.3481740188877
 20
-171.8273736297143
 10
298.3481740188877
 20
-168.7522473638675
 42
0.1989123673796733
 10
297.7623875812607
 20
-167.3380338014941
 10
296.7749507141845
 20
-166.350596934418
 42
0.6681786379196963
 10
296.3481740188871
 20
-166.5273736297147
 10
296.3481740188871
 20
-204.9016942010661
 42
0.266649925125407
 10
297.5149210848092
 20
-204.9082229136517
 42
0.2325333671303287
 10
299.3481740188872
 20
-201.4172709199534
 10
299.3481740188872
 20
-177.1921207315757
 42
-0.4663076581549968
 10
300.7059365321293
 20
-176.023801655839
 10
306.8691183131685
 20
-179.5821163161864
 42
-0.1110831833567394
 10
307.6101139253477
 20
-180.1278364752935
  0
HATCH
  5
1D3
330
1F
100
AcDbEntity
  8
0_Pen_No__146
  6
Continuous
 62
   250
420
  3289650
370
     0
100
AcDbHatch
 10
0.0
 20
0.0
 30
0.0
210
0.0
220
0.0
230
1.0
  2
SOLID
 70
     1
 71
     1
 91
        1
 92
        3
 72
     1
 73
     1
 93
       32
 10
169.8572256539303
 20
374.3763181218382
 42
0.0
 10
169.8572256539303
 20
376.7886473605363
 42
-0.1316524975876324
 10
171.4748956822928
 20
382.8258740962555
 42
0.0
 10
184.338827539535
 20
405.1068576581069
 42
0.1316525001226435
 10
185.9564975678976
 20
411.1440842734766
 42
0.0
 10
185.9564976793084
 20
422.3219831917879
 42
-0.414213559453727
 10
191.6971295560789
 20
425.9788168072937
 42
0.0
 10
249.6311607947871
 20
392.5305882763853
 42
0.3877945824086894
 10
265.5330326831098
 20
396.024527282958
 42
0.4411354715964016
 10
265.2140811483757
 20
397.4761629395853
 42
0.0
 10
163.6610789100568
 20
456.1078161188942
 42
0.6681786379192896
 10
162.1860578115493
 20
454.9759926221697
 42
0.0
 10
165.8690217343467
 20
441.2309841398391
 42
0.1989123673791761
 10
166.3378383769012
 20
440.6200103960504
 42
0.0
 10
169.4624877311825
 20
438.8159932502329
 42
-0.1922935421256892
 10
173.8820444385422
 20
422.3219830714366
 42
0.0
 10
173.8820444385422
 20
414.3794250430581
 42
-0.1316524975870725
 10
172.2643744101868
 20
408.3421983073389
 42
0.0
 10
154.6516357671358
 20
377.8360401171452
 42
-0.3152987888789753
 10
149.0388014371201
 20
376.2615069175085
 42
0.0
 10
113.509777081359
 20
396.7741986933523
 42
0.0
 10
113.509777081359
 20
409.1510216986067
 42
0.1989123673796733
 10
111.1520933862499
 20
414.8429736511245
 42
0.0
 10
107.1778398837522
 20
418.8172271536221
 42
0.6681786379196963
 10
105.4601414337312
 20
418.1057331595574
 42
0.0
 10
105.4601414337312
 20
263.6560837472854
 42
0.266649925125407
 10
110.1560858205356
 20
263.6298068685041
 42
0.2325333671303287
 10
117.5345949051694
 20
277.6802526748147
 42
0.0
 10
117.5345949051694
 20
375.1820689375338
 42
-0.4663076581549968
 10
122.9993416689709
 20
379.8843403774594
 42
0.0
 10
147.8050255526941
 20
365.5627721097591
 42
-0.1110831833567394
 10
150.7873978999599
 20
363.3663478865714
 42
0.0
 97
        1
330
1D4
 75
     0
 76
     1
 98
        0
  0
LWPOLYLINE
  5
1D4
102
{ACAD_REACTORS
330
1D3
102
}
330
1F
100
AcDbEntity
  8
0_Pen_No__1
  6
Continuous
100
AcDbPolyline
 90
       32
 70
   129
 43
0.0
 10
169.8572256539303
 20
374.3763181218382
 10
169.8572256539303
 20
376.7886473605363
 42
-0.1316524975876324
 10
171.4748956822928
 20
382.8258740962555
 10
184.338827539535
 20
405.1068576581069
 42
0.1316525001226435
 10
185.9564975678976
 20
411.1440842734766
 10
185.9564976793084
 20
422.3219831917879
 42
-0.414213559453727
 10
191.6971295560789
 20
425.9788168072937
 10
249.6311607947871
 20
392.5305882763853
 42
0.3877945824086894
 10
265.5330326831098
 20
396.024527282958
 42
0.4411354715964016
 10
265.2140811483757
 20
397.4761629395853
 10
163.6610789100568
 20
456.1078161188942
 42
0.6681786379192896
 10
162.1860578115493
 20
454.9759926221697
 10
165.8690217343467
 20
441.2309841398391
 42
0.1989123673791761
 10
166.3378383769012
 20
440.6200103960504
 10
169.4624877311825
 20
438.8159932502329
 42
-0.1922935421256892
 10
173.8820444385422
 20
422.3219830714366
 10
173.8820444385422
 20
414.3794250430581
 42
-0.1316524975870725
 10
172.2643744101868
 20
408.3421983073389
 10
154.6516357671358
 20
377.8360401171452
 42
-0.3152987888789753
 10
149.0388014371201
 20
376.2615069175085
 10
113.509777081359
 20
396.7741986933523
 10
113.509777081359
 20
409.1510216986067
 42
0.1989123673796733
 10
111.1520933862499
 20
414.8429736511245
 10
107.1778398837522
 20
418.8172271536221
 42
0.6681786379196963
 10
105.4601414337312
 20
418.1057331595574
 10
105.4601414337312
 20
263.6560837472854
 42
0.266649925125407
 10
110.1560858205356
 20
263.6298068685041
 42
0.2325333671303287
 10
117.5345949051694
 20
277.6802526748147
 10
117.5345949051694
 20
375.1820689375338
 42
-0.4663076581549968
 10
122.9993416689709
 20
379.8843403774594
 10
147.8050255526941
 20
365.5627721097591
 42
-0.1110831833567394
 10
150.7873978999599
 20
363.3663478865714
  0
ENDSEC
  0
SECTION
  2
OBJECTS
  0
DICTIONARY
  5
C
330
0
100
AcDbDictionary
281
     1
  3
ACAD_GROUP
350
D
  3
ACAD_LAYOUT
350
1A
  3
ACAD_MATERIAL
350
3B
  3
ACAD_MLEADERSTYLE
350
225
  3
ACAD_MLINESTYLE
350
17
  3
ACAD_PLOTSETTINGS
350
19
  3
ACAD_PLOTSTYLENAME
350
E
  3
ACAD_SCALELIST
350
1D8
  3
ACAD_TABLESTYLE
350
224
  3
ACAD_VISUALSTYLE
350
2A
  3
AcDbVariableDictionary
350
1FC
  3
WATERMARKS
350
1FA
  0
DICTIONARY
  5
D
102
{ACAD_REACTORS
330
C
102
}
330
C
100
AcDbDictionary
281
     1
  0
DICTIONARY
  5
1A
102
{ACAD_REACTORS
330
C
102
}
330
C
100
AcDbDictionary
281
     1
  3
Layout1
350
1E
  3
Layout2
350
26
  3
Model
350
22
  0
DICTIONARY
  5
3B
102
{ACAD_REACTORS
330
C
102
}
330
C
100
AcDbDictionary
281
     1
  3
ByBlock
350
3D
  3
ByLayer
350
3C
  3
Global
350
3E
  0
DICTIONARY
  5
225
102
{ACAD_REACTORS
330
C
102
}
330
C
100
AcDbDictionary
281
     1
  0
DICTIONARY
  5
17
102
{ACAD_REACTORS
330
C
102
}
330
C
100
AcDbDictionary
281
     1
  3
Standard
350
18
  0
DICTIONARY
  5
19
102
{ACAD_REACTORS
330
C
102
}
330
C
100
AcDbDictionary
281
     1
  0
ACDBDICTIONARYWDFLT
  5
E
102
{ACAD_REACTORS
330
C
102
}
330
C
100
AcDbDictionary
281
     1
  3
Normal
350
F
100
AcDbDictionaryWithDefault
340
F
  0
DICTIONARY
  5
1D8
102
{ACAD_REACTORS
330
C
102
}
330
C
100
AcDbDictionary
281
     1
  3
A0
350
1D9
  3
A1
350
1DA
  3
A2
350
1DB
  3
A3
350
1DC
  3
A4
350
1DD
  3
A5
350
1DE
  3
A6
350
1DF
  3
A7
350
1E0
  3
A8
350
1E1
  3
A9
350
1E2
  3
B0
350
1E3
  3
B1
350
1E4
  3
B2
350
1E5
  3
B3
350
1E6
  3
B4
350
1E7
  3
B5
350
1E8
  3
B6
350
1E9
  3
B7
350
1EA
  3
B8
350
1EB
  3
B9
350
1EC
  3
C0
350
1ED
  3
C1
350
1EE
  3
C2
350
1EF
  3
C3
350
1F0
  3
C4
350
1F1
  3
C5
350
1F2
  3
C6
350
1F3
  3
C7
350
1F4
  3
C8
350
1F5
  3
C9
350
1F6
  3
D0
350
1F7
  3
D1
350
1F8
  3
D2
350
1F9
  0
DICTIONARY
  5
224
102
{ACAD_REACTORS
330
C
102
}
330
C
100
AcDbDictionary
281
     1
  0
DICTIONARY
  5
2A
102
{ACAD_REACTORS
330
C
102
}
330
C
100
AcDbDictionary
281
     1
  3
2dWireframe
350
2F
  3
3D Hidden
350
31
  3
3dWireframe
350
30
  3
Basic
350
32
  3
Brighten
350
36
  3
ColorChange
350
3A
  3
Conceptual
350
34
  3
Dim
350
35
  3
Facepattern
350
39
  3
Flat
350
2B
  3
FlatWithEdges
350
2C
  3
Gouraud
350
2D
  3
GouraudWithEdges
350
2E
  3
Linepattern
350
38
  3
Realistic
350
33
  3
Thicken
350
37
  0
DICTIONARY
  5
1FC
102
{ACAD_REACTORS
330
C
102
}
330
C
100
AcDbDictionary
281
     1
  3
CANNOSCALE
350
1FD
  3
XCLIPFRAME
350
226
  0
DICTIONARY
  5
1FA
102
{ACAD_REACTORS
330
C
102
}
330
C
100
AcDbDictionary
281
     1
  3
AC_WATERMARK
350
1FB
  0
LAYOUT
  5
1E
102
{ACAD_REACTORS
330
1A
102
}
330
1A
100
AcDbPlotSettings
  1

  2
none_device
  4

  6

 40
0.0
 41
0.0
 42
0.0
 43
0.0
 44
0.0
 45
0.0
 46
0.0
 47
0.0
 48
0.0
 49
0.0
140
0.0
141
0.0
142
1.0
143
1.0
 70
   688
 72
     0
 73
     0
 74
     5
  7

 75
    16
 76
     0
 77
     2
 78
   300
147
1.0
148
0.0
149
0.0
100
AcDbLayout
  1
Layout1
 70
     1
 71
     1
 10
0.0
 20
0.0
 11
12.0
 21
9.0
 12
0.0
 22
0.0
 32
0.0
 14
1.000000000000000E+20
 24
1.000000000000000E+20
 34
1.000000000000000E+20
 15
-1.000000000000000E+20
 25
-1.000000000000000E+20
 35
-1.000000000000000E+20
146
0.0
 13
0.0
 23
0.0
 33
0.0
 16
1.0
 26
0.0
 36
0.0
 17
0.0
 27
1.0
 37
0.0
 76
     0
330
1B
  0
LAYOUT
  5
26
102
{ACAD_REACTORS
330
1A
102
}
330
1A
100
AcDbPlotSettings
  1

  2
none_device
  4

  6

 40
0.0
 41
0.0
 42
0.0
 43
0.0
 44
0.0
 45
0.0
 46
0.0
 47
0.0
 48
0.0
 49
0.0
140
0.0
141
0.0
142
1.0
143
1.0
 70
   688
 72
     0
 73
     0
 74
     5
  7

 75
    16
 76
     0
 77
     2
 78
   300
147
1.0
148
0.0
149
0.0
100
AcDbLayout
  1
Layout2
 70
     1
 71
     2
 10
0.0
 20
0.0
 11
0.0
 21
0.0
 12
0.0
 22
0.0
 32
0.0
 14
0.0
 24
0.0
 34
0.0
 15
0.0
 25
0.0
 35
0.0
146
0.0
 13
0.0
 23
0.0
 33
0.0
 16
1.0
 26
0.0
 36
0.0
 17
0.0
 27
1.0
 37
0.0
 76
     0
330
23
  0
LAYOUT
  5
22
102
{ACAD_REACTORS
330
1A
102
}
330
1A
100
AcDbPlotSettings
  1

  2
none_device
  4

  6

 40
0.0
 41
0.0
 42
0.0
 43
0.0
 44
0.0
 45
0.0
 46
0.0
 47
0.0
 48
0.0
 49
0.0
140
0.0
141
0.0
142
1.0
143
1.0
 70
  1712
 72
     0
 73
     0
 74
     0
  7

 75
     0
 76
     0
 77
     2
 78
   300
147
1.0
148
0.0
149
0.0
100
AcDbLayout
  1
Model
 70
     1
 71
     0
 10
0.0
 20
0.0
 11
12.0
 21
9.0
 12
0.0
 22
0.0
 32
0.0
 14
1.000000000000000E+20
 24
1.000000000000000E+20
 34
1.000000000000000E+20
 15
-1.000000000000000E+20
 25
-1.000000000000000E+20
 35
-1.000000000000000E+20
146
0.0
 13
0.0
 23
0.0
 33
0.0
 16
1.0
 26
0.0
 36
0.0
 17
0.0
 27
1.0
 37
0.0
 76
     0
330
1F
331
29
  0
MATERIAL
  5
3D
102
{ACAD_REACTORS
330
3B
102
}
102
{ACAD_XDICTIONARY
360
220
102
}
330
3B
100
AcDbMaterial
  1
ByBlock
  0
MATERIAL
  5
3C
102
{ACAD_REACTORS
330
3B
102
}
102
{ACAD_XDICTIONARY
360
21E
102
}
330
3B
100
AcDbMaterial
  1
ByLayer
  0
MATERIAL
  5
3E
102
{ACAD_REACTORS
330
3B
102
}
102
{ACAD_XDICTIONARY
360
222
102
}
330
3B
100
AcDbMaterial
  1
Global
  0
MLINESTYLE
  5
18
102
{ACAD_REACTORS
330
17
102
}
330
17
100
AcDbMlineStyle
  2
Standard
 70
     0
  3

 62
   256
 51
90.0
 52
90.0
 71
     2
 49
0.5
 62
   256
  6
BYLAYER
 49
-0.5
 62
   256
  6
BYLAYER
  0
ACDBPLACEHOLDER
  5
F
102
{ACAD_REACTORS
330
E
102
}
330
E
  0
SCALE
  5
1D9
102
{ACAD_REACTORS
330
1D8
102
}
330
1D8
100
AcDbScale
 70
     0
300
1:1
140
1.0
141
1.0
290
     1
  0
SCALE
  5
1DA
102
{ACAD_REACTORS
330
1D8
102
}
330
1D8
100
AcDbScale
 70
     0
300
1:2
140
1.0
141
2.0
290
     0
  0
SCALE
  5
1DB
102
{ACAD_REACTORS
330
1D8
102
}
330
1D8
100
AcDbScale
 70
     0
300
1:4
140
1.0
141
4.0
290
     0
  0
SCALE
  5
1DC
102
{ACAD_REACTORS
330
1D8
102
}
330
1D8
100
AcDbScale
 70
     0
300
1:5
140
1.0
141
5.0
290
     0
  0
SCALE
  5
1DD
102
{ACAD_REACTORS
330
1D8
102
}
330
1D8
100
AcDbScale
 70
     0
300
1:8
140
1.0
141
8.0
290
     0
  0
SCALE
  5
1DE
102
{ACAD_REACTORS
330
1D8
102
}
330
1D8
100
AcDbScale
 70
     0
300
1:10
140
1.0
141
10.0
290
     0
  0
SCALE
  5
1DF
102
{ACAD_REACTORS
330
1D8
102
}
330
1D8
100
AcDbScale
 70
     0
300
1:16
140
1.0
141
16.0
290
     0
  0
SCALE
  5
1E0
102
{ACAD_REACTORS
330
1D8
102
}
330
1D8
100
AcDbScale
 70
     0
300
1:20
140
1.0
141
20.0
290
     0
  0
SCALE
  5
1E1
102
{ACAD_REACTORS
330
1D8
102
}
330
1D8
100
AcDbScale
 70
     0
300
1:30
140
1.0
141
30.0
290
     0
  0
SCALE
  5
1E2
102
{ACAD_REACTORS
330
1D8
102
}
330
1D8
100
AcDbScale
 70
     0
300
1:40
140
1.0
141
40.0
290
     0
  0
SCALE
  5
1E3
102
{ACAD_REACTORS
330
1D8
102
}
330
1D8
100
AcDbScale
 70
     0
300
1:50
140
1.0
141
50.0
290
     0
  0
SCALE
  5
1E4
102
{ACAD_REACTORS
330
1D8
102
}
330
1D8
100
AcDbScale
 70
     0
300
1:100
140
1.0
141
100.0
290
     0
  0
SCALE
  5
1E5
102
{ACAD_REACTORS
330
1D8
102
}
330
1D8
100
AcDbScale
 70
     0
300
2:1
140
2.0
141
1.0
290
     0
  0
SCALE
  5
1E6
102
{ACAD_REACTORS
330
1D8
102
}
330
1D8
100
AcDbScale
 70
     0
300
4:1
140
4.0
141
1.0
290
     0
  0
SCALE
  5
1E7
102
{ACAD_REACTORS
330
1D8
102
}
330
1D8
100
AcDbScale
 70
     0
300
8:1
140
8.0
141
1.0
290
     0
  0
SCALE
  5
1E8
102
{ACAD_REACTORS
330
1D8
102
}
330
1D8
100
AcDbScale
 70
     0
300
10:1
140
10.0
141
1.0
290
     0
  0
SCALE
  5
1E9
102
{ACAD_REACTORS
330
1D8
102
}
330
1D8
100
AcDbScale
 70
     0
300
100:1
140
100.0
141
1.0
290
     0
  0
SCALE
  5
1EA
102
{ACAD_REACTORS
330
1D8
102
}
330
1D8
100
AcDbScale
 70
     0
300
1/128" = 1'-0"
140
0.0078125
141
12.0
290
     0
  0
SCALE
  5
1EB
102
{ACAD_REACTORS
330
1D8
102
}
330
1D8
100
AcDbScale
 70
     0
300
1/64" = 1'-0"
140
0.015625
141
12.0
290
     0
  0
SCALE
  5
1EC
102
{ACAD_REACTORS
330
1D8
102
}
330
1D8
100
AcDbScale
 70
     0
300
1/32" = 1'-0"
140
0.03125
141
12.0
290
     0
  0
SCALE
  5
1ED
102
{ACAD_REACTORS
330
1D8
102
}
330
1D8
100
AcDbScale
 70
     0
300
1/16" = 1'-0"
140
0.0625
141
12.0
290
     0
  0
SCALE
  5
1EE
102
{ACAD_REACTORS
330
1D8
102
}
330
1D8
100
AcDbScale
 70
     0
300
3/32" = 1'-0"
140
0.09375
141
12.0
290
     0
  0
SCALE
  5
1EF
102
{ACAD_REACTORS
330
1D8
102
}
330
1D8
100
AcDbScale
 70
     0
300
1/8" = 1'-0"
140
0.125
141
12.0
290
     0
  0
SCALE
  5
1F0
102
{ACAD_REACTORS
330
1D8
102
}
330
1D8
100
AcDbScale
 70
     0
300
3/16" = 1'-0"
140
0.1875
141
12.0
290
     0
  0
SCALE
  5
1F1
102
{ACAD_REACTORS
330
1D8
102
}
330
1D8
100
AcDbScale
 70
     0
300
1/4" = 1'-0"
140
0.25
141
12.0
290
     0
  0
SCALE
  5
1F2
102
{ACAD_REACTORS
330
1D8
102
}
330
1D8
100
AcDbScale
 70
     0
300
3/8" = 1'-0"
140
0.375
141
12.0
290
     0
  0
SCALE
  5
1F3
102
{ACAD_REACTORS
330
1D8
102
}
330
1D8
100
AcDbScale
 70
     0
300
1/2" = 1'-0"
140
0.5
141
12.0
290
     0
  0
SCALE
  5
1F4
102
{ACAD_REACTORS
330
1D8
102
}
330
1D8
100
AcDbScale
 70
     0
300
3/4" = 1'-0"
140
0.75
141
12.0
290
     0
  0
SCALE
  5
1F5
102
{ACAD_REACTORS
330
1D8
102
}
330
1D8
100
AcDbScale
 70
     0
300
1" = 1'-0"
140
1.0
141
12.0
290
     0
  0
SCALE
  5
1F6
102
{ACAD_REACTORS
330
1D8
102
}
330
1D8
100
AcDbScale
 70
     0
300
1-1/2" = 1'-0"
140
1.5
141
12.0
290
     0
  0
SCALE
  5
1F7
102
{ACAD_REACTORS
330
1D8
102
}
330
1D8
100
AcDbScale
 70
     0
300
3" = 1'-0"
140
3.0
141
12.0
290
     0
  0
SCALE
  5
1F8
102
{ACAD_REACTORS
330
1D8
102
}
330
1D8
100
AcDbScale
 70
     0
300
6" = 1'-0"
140
6.0
141
12.0
290
     0
  0
SCALE
  5
1F9
102
{ACAD_REACTORS
330
1D8
102
}
330
1D8
100
AcDbScale
 70
     0
300
1'-0" = 1'-0"
140
12.0
141
12.0
290
     0
  0
VISUALSTYLE
  5
2F
102
{ACAD_REACTORS
330
2A
102
}
102
{ACAD_XDICTIONARY
360
206
102
}
330
2A
100
AcDbVisualStyle
  2
2dWireframe
 70
     4
 71
     0
 72
     2
 73
     0
 90
        0
 40
-0.6
 41
-30.0
 62
     5
 63
     7
421
 16777215
 74
     1
 91
        4
 64
     7
 65
   257
 75
     1
175
     1
 42
1.0
 92
        0
 66
   257
 43
1.0
 76
     1
 77
     6
 78
     2
 67
     7
 79
     5
170
     0
171
     0
290
     0
174
     0
 93
        1
 44
0.0
173
     0
291
     0
 45
0.0
1001
ACAD
1000
AcDbSavedByObjectVersion
1070
     0
  0
VISUALSTYLE
  5
31
102
{ACAD_REACTORS
330
2A
102
}
102
{ACAD_XDICTIONARY
360
20A
102
}
330
2A
100
AcDbVisualStyle
  2
3D Hidden
 70
     6
 71
     1
 72
     2
 73
     2
 90
        0
 40
-0.6
 41
-30.0
 62
     5
 63
     7
421
 16777215
 74
     2
 91
        2
 64
     7
 65
   257
 75
     2
175
     1
 42
40.0
 92
        0
 66
   257
 43
1.0
 76
     1
 77
     6
 78
     2
 67
     7
 79
     3
170
     0
171
     0
290
     0
174
     0
 93
        1
 44
0.0
173
     0
291
     0
 45
0.0
1001
ACAD
1000
AcDbSavedByObjectVersion
1070
     0
  0
VISUALSTYLE
  5
30
102
{ACAD_REACTORS
330
2A
102
}
102
{ACAD_XDICTIONARY
360
208
102
}
330
2A
100
AcDbVisualStyle
  2
3dWireframe
 70
     5
 71
     0
 72
     2
 73
     0
 90
        0
 40
-0.6
 41
-30.0
 62
     5
 63
     7
421
 16777215
 74
     1
 91
        4
 64
     7
 65
   257
 75
     1
175
     1
 42
1.0
 92
        0
 66
   257
 43
1.0
 76
     1
 77
     6
 78
     2
 67
     7
 79
     5
170
     0
171
     0
290
     0
174
     0
 93
        1
 44
0.0
173
     0
291
     0
 45
0.0
1001
ACAD
1000
AcDbSavedByObjectVersion
1070
     0
  0
VISUALSTYLE
  5
32
102
{ACAD_REACTORS
330
2A
102
}
102
{ACAD_XDICTIONARY
360
20C
102
}
330
2A
100
AcDbVisualStyle
  2
Basic
 70
     7
 71
     1
 72
     0
 73
     1
 90
        0
 40
-0.6
 41
-30.0
 62
     5
 63
     7
421
 16777215
 74
     0
 91
        4
 64
     7
 65
   257
 75
     1
175
     1
 42
1.0
 92
        8
 66
     7
 43
1.0
 76
     1
 77
     6
 78
     2
 67
     7
 79
     5
170
     0
171
     0
290
     0
174
     0
 93
        1
 44
0.0
173
     0
291
     1
 45
0.0
1001
ACAD
1000
AcDbSavedByObjectVersion
1070
     0
  0
VISUALSTYLE
  5
36
102
{ACAD_REACTORS
330
2A
102
}
102
{ACAD_XDICTIONARY
360
214
102
}
330
2A
100
AcDbVisualStyle
  2
Brighten
 70
    12
 71
     2
 72
     2
 73
     0
 90
        0
 40
-0.6
 41
-30.0
 62
     5
 63
     7
421
 16777215
 74
     1
 91
        4
 64
     7
 65
   257
 75
     1
175
     1
 42
1.0
 92
        8
 66
     7
 43
1.0
 76
     1
 77
     6
 78
     2
 67
     7
 79
     5
170
     0
171
     0
290
     0
174
     0
 93
        1
 44
50.0
173
     0
291
     1
 45
0.0
1001
ACAD
1000
AcDbSavedByObjectVersion
1070
     0
  0
VISUALSTYLE
  5
3A
102
{ACAD_REACTORS
330
2A
102
}
102
{ACAD_XDICTIONARY
360
21C
102
}
330
2A
100
AcDbVisualStyle
  2
ColorChange
 70
    16
 71
     2
 72
     2
 73
     3
 90
        0
 40
-0.6
 41
-30.0
 62
     5
 63
     8
421
  8421504
 74
     1
 91
        4
 64
     7
 65
   257
 75
     1
175
     1
 42
1.0
 92
        8
 66
     8
424
  8421504
 43
1.0
 76
     1
 77
     6
 78
     2
 67
     7
 79
     5
170
     0
171
     0
290
     0
174
     0
 93
        1
 44
0.0
173
     0
291
     1
 45
0.0
1001
ACAD
1000
AcDbSavedByObjectVersion
1070
     0
  0
VISUALSTYLE
  5
34
102
{ACAD_REACTORS
330
2A
102
}
102
{ACAD_XDICTIONARY
360
210
102
}
330
2A
100
AcDbVisualStyle
  2
Conceptual
 70
     9
 71
     3
 72
     2
 73
     0
 90
        0
 40
-0.6
 41
-30.0
 62
     5
 63
     7
421
 16777215
 74
     2
 91
        2
 64
     7
 65
   257
 75
     1
175
     1
 42
40.0
 92
        8
 66
     7
 43
1.0
 76
     1
 77
     6
 78
     2
 67
     7
 79
     3
170
     0
171
     0
290
     0
174
     0
 93
        1
 44
0.0
173
     0
291
     0
 45
0.0
1001
ACAD
1000
AcDbSavedByObjectVersion
1070
     0
  0
VISUALSTYLE
  5
35
102
{ACAD_REACTORS
330
2A
102
}
102
{ACAD_XDICTIONARY
360
212
102
}
330
2A
100
AcDbVisualStyle
  2
Dim
 70
    11
 71
     2
 72
     2
 73
     0
 90
        0
 40
-0.6
 41
-30.0
 62
     5
 63
     7
421
 16777215
 74
     1
 91
        4
 64
     7
 65
   257
 75
     1
175
     1
 42
1.0
 92
        8
 66
     7
 43
1.0
 76
     1
 77
     6
 78
     2
 67
     7
 79
     5
170
     0
171
     0
290
     0
174
     0
 93
        1
 44
-50.0
173
     0
291
     1
 45
0.0
1001
ACAD
1000
AcDbSavedByObjectVersion
1070
     0
  0
VISUALSTYLE
  5
39
102
{ACAD_REACTORS
330
2A
102
}
102
{ACAD_XDICTIONARY
360
21A
102
}
330
2A
100
AcDbVisualStyle
  2
Facepattern
 70
    15
 71
     2
 72
     2
 73
     0
 90
        0
 40
-0.6
 41
-30.0
 62
     5
 63
     7
421
 16777215
 74
     1
 91
        4
 64
     7
 65
   257
 75
     1
175
     1
 42
1.0
 92
        8
 66
     7
 43
1.0
 76
     1
 77
     6
 78
     2
 67
     7
 79
     5
170
     0
171
     0
290
     0
174
     0
 93
        1
 44
0.0
173
     0
291
     1
 45
0.0
1001
ACAD
1000
AcDbSavedByObjectVersion
1070
     0
  0
VISUALSTYLE
  5
2B
102
{ACAD_REACTORS
330
2A
102
}
102
{ACAD_XDICTIONARY
360
1FE
102
}
330
2A
100
AcDbVisualStyle
  2
Flat
 70
     0
 71
     2
 72
     1
 73
     1
 90
        2
 40
-0.6
 41
30.0
 62
     5
 63
     7
421
 16777215
 74
     0
 91
        4
 64
     7
 65
   257
 75
     1
175
     1
 42
1.0
 92
        8
 66
     7
 43
1.0
 76
     1
 77
     6
 78
     2
 67
     7
 79
     5
170
     0
171
     0
290
     0
174
     0
 93
       13
 44
0.0
173
     0
291
     1
 45
0.0
1001
ACAD
1000
AcDbSavedByObjectVersion
1070
     0
  0
VISUALSTYLE
  5
2C
102
{ACAD_REACTORS
330
2A
102
}
102
{ACAD_XDICTIONARY
360
200
102
}
330
2A
100
AcDbVisualStyle
  2
FlatWithEdges
 70
     1
 71
     2
 72
     1
 73
     1
 90
        2
 40
-0.6
 41
30.0
 62
     5
 63
     7
421
 16777215
 74
     1
 91
        4
 64
     7
 65
   257
 75
     1
175
     1
 42
1.0
 92
        0
 66
   257
 43
1.0
 76
     1
 77
     6
 78
     2
 67
     7
 79
     5
170
     0
171
     0
290
     0
174
     0
 93
       13
 44
0.0
173
     0
291
     1
 45
0.0
1001
ACAD
1000
AcDbSavedByObjectVersion
1070
     0
  0
VISUALSTYLE
  5
2D
102
{ACAD_REACTORS
330
2A
102
}
102
{ACAD_XDICTIONARY
360
202
102
}
330
2A
100
AcDbVisualStyle
  2
Gouraud
 70
     2
 71
     2
 72
     2
 73
     1
 90
        2
 40
-0.6
 41
30.0
 62
     5
 63
     7
421
 16777215
 74
     0
 91
        4
 64
     7
 65
   257
 75
     1
175
     1
 42
1.0
 92
        0
 66
     7
 43
1.0
 76
     1
 77
     6
 78
     2
 67
     7
 79
     5
170
     0
171
     0
290
     0
174
     0
 93
       13
 44
0.0
173
     0
291
     1
 45
0.0
1001
ACAD
1000
AcDbSavedByObjectVersion
1070
     0
  0
VISUALSTYLE
  5
2E
102
{ACAD_REACTORS
330
2A
102
}
102
{ACAD_XDICTIONARY
360
204
102
}
330
2A
100
AcDbVisualStyle
  2
GouraudWithEdges
 70
     3
 71
     2
 72
     2
 73
     1
 90
        2
 40
-0.6
 41
30.0
 62
     5
 63
     7
421
 16777215
 74
     1
 91
        4
 64
     7
 65
   257
 75
     1
175
     1
 42
1.0
 92
        0
 66
   257
 43
1.0
 76
     1
 77
     6
 78
     2
 67
     7
 79
     5
170
     0
171
     0
290
     0
174
     0
 93
       13
 44
0.0
173
     0
291
     1
 45
0.0
1001
ACAD
1000
AcDbSavedByObjectVersion
1070
     0
  0
VISUALSTYLE
  5
38
102
{ACAD_REACTORS
330
2A
102
}
102
{ACAD_XDICTIONARY
360
218
102
}
330
2A
100
AcDbVisualStyle
  2
Linepattern
 70
    14
 71
     2
 72
     2
 73
     0
 90
        0
 40
-0.6
 41
-30.0
 62
     5
 63
     7
421
 16777215
 74
     1
 91
        4
 64
     7
 65
   257
 75
     7
175
     7
 42
1.0
 92
        8
 66
     7
 43
1.0
 76
     1
 77
     6
 78
     2
 67
     7
 79
     5
170
     0
171
     0
290
     0
174
     0
 93
        1
 44
0.0
173
     0
291
     1
 45
0.0
1001
ACAD
1000
AcDbSavedByObjectVersion
1070
     0
  0
VISUALSTYLE
  5
33
102
{ACAD_REACTORS
330
2A
102
}
102
{ACAD_XDICTIONARY
360
20E
102
}
330
2A
100
AcDbVisualStyle
  2
Realistic
 70
     8
 71
     2
 72
     2
 73
     0
 90
        0
 40
-0.6
 41
-30.0
 62
     5
 63
     7
421
 16777215
 74
     1
 91
        0
 64
     7
 65
   257
 75
     1
175
     1
 42
1.0
 92
        8
 66
     8
424
  7895160
 43
1.0
 76
     1
 77
     6
 78
     2
 67
     7
 79
     5
170
     0
171
     0
290
     0
174
     0
 93
       13
 44
0.0
173
     0
291
     0
 45
0.0
1001
ACAD
1000
AcDbSavedByObjectVersion
1070
     0
  0
VISUALSTYLE
  5
37
102
{ACAD_REACTORS
330
2A
102
}
102
{ACAD_XDICTIONARY
360
216
102
}
330
2A
100
AcDbVisualStyle
  2
Thicken
 70
    13
 71
     2
 72
     2
 73
     0
 90
        0
 40
-0.6
 41
-30.0
 62
     5
 63
     7
421
 16777215
 74
     1
 91
        4
 64
     7
 65
   257
 75
     1
175
     1
 42
1.0
 92
       12
 66
     7
 43
1.0
 76
     1
 77
     6
 78
     2
 67
     7
 79
     5
170
     0
171
     0
290
     0
174
     0
 93
        1
 44
0.0
173
     0
291
     1
 45
0.0
1001
ACAD
1000
AcDbSavedByObjectVersion
1070
     0
  0
DICTIONARYVAR
  5
1FD
102
{ACAD_REACTORS
330
1FC
102
}
330
1FC
100
DictionaryVariables
280
     0
  1
1:1
  0
DICTIONARYVAR
  5
226
102
{ACAD_REACTORS
330
1FC
102
}
330
1FC
100
DictionaryVariables
280
     0
  1
0
  0
XRECORD
  5
1FB
102
{ACAD_REACTORS
330
1FA
102
}
330
1FA
100
AcDbXrecord
280
     1
1000
This DWG file was created in ArchiCAD(TM)®
  0
DICTIONARY
  5
220
330
3D
100
AcDbDictionary
280
     1
281
     1
  3
ACAD_XREC_ROUNDTRIP
360
221
  0
DICTIONARY
  5
21E
330
3C
100
AcDbDictionary
280
     1
281
     1
  3
ACAD_XREC_ROUNDTRIP
360
21F
  0
DICTIONARY
  5
222
330
3E
100
AcDbDictionary
280
     1
281
     1
  3
ACAD_XREC_ROUNDTRIP
360
223
  0
DICTIONARY
  5
206
330
2F
100
AcDbDictionary
280
     1
281
     1
  3
ACAD_XREC_ROUNDTRIP
360
207
  0
DICTIONARY
  5
20A
330
31
100
AcDbDictionary
280
     1
281
     1
  3
ACAD_XREC_ROUNDTRIP
360
20B
  0
DICTIONARY
  5
208
330
30
100
AcDbDictionary
280
     1
281
     1
  3
ACAD_XREC_ROUNDTRIP
360
209
  0
DICTIONARY
  5
20C
330
32
100
AcDbDictionary
280
     1
281
     1
  3
ACAD_XREC_ROUNDTRIP
360
20D
  0
DICTIONARY
  5
214
330
36
100
AcDbDictionary
280
     1
281
     1
  3
ACAD_XREC_ROUNDTRIP
360
215
  0
DICTIONARY
  5
21C
330
3A
100
AcDbDictionary
280
     1
281
     1
  3
ACAD_XREC_ROUNDTRIP
360
21D
  0
DICTIONARY
  5
210
330
34
100
AcDbDictionary
280
     1
281
     1
  3
ACAD_XREC_ROUNDTRIP
360
211
  0
DICTIONARY
  5
212
330
35
100
AcDbDictionary
280
     1
281
     1
  3
ACAD_XREC_ROUNDTRIP
360
213
  0
DICTIONARY
  5
21A
330
39
100
AcDbDictionary
280
     1
281
     1
  3
ACAD_XREC_ROUNDTRIP
360
21B
  0
DICTIONARY
  5
1FE
330
2B
100
AcDbDictionary
280
     1
281
     1
  3
ACAD_XREC_ROUNDTRIP
360
1FF
  0
DICTIONARY
  5
200
330
2C
100
AcDbDictionary
280
     1
281
     1
  3
ACAD_XREC_ROUNDTRIP
360
201
  0
DICTIONARY
  5
202
330
2D
100
AcDbDictionary
280
     1
281
     1
  3
ACAD_XREC_ROUNDTRIP
360
203
  0
DICTIONARY
  5
204
330
2E
100
AcDbDictionary
280
     1
281
     1
  3
ACAD_XREC_ROUNDTRIP
360
205
  0
DICTIONARY
  5
218
330
38
100
AcDbDictionary
280
     1
281
     1
  3
ACAD_XREC_ROUNDTRIP
360
219
  0
DICTIONARY
  5
20E
330
33
100
AcDbDictionary
280
     1
281
     1
  3
ACAD_XREC_ROUNDTRIP
360
20F
  0
DICTIONARY
  5
216
330
37
100
AcDbDictionary
280
     1
281
     1
  3
ACAD_XREC_ROUNDTRIP
360
217
  0
XRECORD
  5
221
102
{ACAD_REACTORS
330
220
102
}
330
220
100
AcDbXrecord
280
     1
102
MATERIAL
148
0.0
149
0.0
149
0.0
 93
        0
 94
      127
282
     0
 72
     1
 77
     1
171
     1
175
     1
179
     1
273
     0
  0
XRECORD
  5
21F
102
{ACAD_REACTORS
330
21E
102
}
330
21E
100
AcDbXrecord
280
     1
102
MATERIAL
148
0.0
149
0.0
149
0.0
 93
        0
 94
      127
282
     0
 72
     1
 77
     1
171
     1
175
     1
179
     1
273
     0
  0
XRECORD
  5
223
102
{ACAD_REACTORS
330
222
102
}
330
222
100
AcDbXrecord
280
     1
102
MATERIAL
148
0.0
149
0.0
149
0.0
 93
        0
 94
      127
282
     0
 72
     1
 77
     1
171
     1
175
     1
179
     1
273
     0
  0
XRECORD
  5
207
102
{ACAD_REACTORS
330
206
102
}
330
206
100
AcDbXrecord
280
     1
102
RTVSPropertyOp0
 70
     1
102
RTVSPropertyOp1
 70
     1
102
RTVSPropertyOp2
 70
     1
102
RTVSPropertyOp3
 70
     1
102
RTVSPropertyOp4
 70
     1
102
RTVSPropertyOp5
 70
     1
102
RTVSPropertyOp6
 70
     1
102
RTVSPropertyOp7
 70
     1
102
RTVSPropertyOp8
 70
     1
102
RTVSPropertyOp9
 70
     1
102
RTVSPropertyOp10
 70
     1
102
RTVSPropertyOp11
 70
     1
102
RTVSPropertyOp12
 70
     1
102
RTVSPropertyOp13
 70
     1
102
RTVSPropertyOp14
 70
     1
102
RTVSPropertyOp15
 70
     1
102
RTVSPropertyOp16
 70
     1
102
RTVSPropertyOp17
 70
     1
102
RTVSPropertyOp18
 70
     1
102
RTVSPropertyOp19
 70
     1
102
RTVSPropertyOp20
 70
     1
102
RTVSPropertyOp21
 70
     1
102
RTVSPropertyOp22
 70
     1
102
RTVSPropertyOp23
 70
     1
102
RTVSPropertyOp24
 70
     1
102
RTVSPropertyOp25
 70
     1
102
RTVSPropertyOp26
 70
     1
102
RTVSPropertyOp27
 70
     1
102
RTVSPropertyOp28
 70
     1
102
RTVSPropertyOp29
 70
     1
102
RTVSPropertyOp30
 70
     1
102
RTVSPropertyOp31
 70
     1
102
RTVSPropertyOp32
 70
     1
  0
XRECORD
  5
20B
102
{ACAD_REACTORS
330
20A
102
}
330
20A
100
AcDbXrecord
280
     1
102
RTVSPropertyOp0
 70
     1
102
RTVSPropertyOp1
 70
     1
102
RTVSPropertyOp2
 70
     1
102
RTVSPropertyOp3
 70
     1
102
RTVSPropertyOp4
 70
     1
102
RTVSPropertyOp5
 70
     1
102
RTVSPropertyOp6
 70
     1
102
RTVSPropertyOp7
 70
     1
102
RTVSPropertyOp8
 70
     1
102
RTVSPropertyOp9
 70
     1
102
RTVSPropertyOp10
 70
     1
102
RTVSPropertyOp11
 70
     1
102
RTVSPropertyOp12
 70
     1
102
RTVSPropertyOp13
 70
     1
102
RTVSPropertyOp14
 70
     1
102
RTVSPropertyOp15
 70
     1
102
RTVSPropertyOp16
 70
     1
102
RTVSPropertyOp17
 70
     1
102
RTVSPropertyOp18
 70
     1
102
RTVSPropertyOp19
 70
     1
102
RTVSPropertyOp20
 70
     1
102
RTVSPropertyOp21
 70
     1
102
RTVSPropertyOp22
 70
     1
102
RTVSPropertyOp23
 70
     1
102
RTVSPropertyOp24
 70
     1
102
RTVSPropertyOp25
 70
     1
102
RTVSPropertyOp26
 70
     1
102
RTVSPropertyOp27
 70
     1
102
RTVSPropertyOp28
 70
     1
102
RTVSPropertyOp29
 70
     1
102
RTVSPropertyOp30
 70
     1
102
RTVSPropertyOp31
 70
     1
102
RTVSPropertyOp32
 70
     1
  0
XRECORD
  5
209
102
{ACAD_REACTORS
330
208
102
}
330
208
100
AcDbXrecord
280
     1
102
RTVSPropertyOp0
 70
     1
102
RTVSPropertyOp1
 70
     1
102
RTVSPropertyOp2
 70
     1
102
RTVSPropertyOp3
 70
     1
102
RTVSPropertyOp4
 70
     1
102
RTVSPropertyOp5
 70
     1
102
RTVSPropertyOp6
 70
     1
102
RTVSPropertyOp7
 70
     1
102
RTVSPropertyOp8
 70
     1
102
RTVSPropertyOp9
 70
     1
102
RTVSPropertyOp10
 70
     1
102
RTVSPropertyOp11
 70
     1
102
RTVSPropertyOp12
 70
     1
102
RTVSPropertyOp13
 70
     1
102
RTVSPropertyOp14
 70
     1
102
RTVSPropertyOp15
 70
     1
102
RTVSPropertyOp16
 70
     1
102
RTVSPropertyOp17
 70
     1
102
RTVSPropertyOp18
 70
     1
102
RTVSPropertyOp19
 70
     1
102
RTVSPropertyOp20
 70
     1
102
RTVSPropertyOp21
 70
     1
102
RTVSPropertyOp22
 70
     1
102
RTVSPropertyOp23
 70
     1
102
RTVSPropertyOp24
 70
     1
102
RTVSPropertyOp25
 70
     1
102
RTVSPropertyOp26
 70
     1
102
RTVSPropertyOp27
 70
     1
102
RTVSPropertyOp28
 70
     1
102
RTVSPropertyOp29
 70
     1
102
RTVSPropertyOp30
 70
     1
102
RTVSPropertyOp31
 70
     1
102
RTVSPropertyOp32
 70
     1
  0
XRECORD
  5
20D
102
{ACAD_REACTORS
330
20C
102
}
330
20C
100
AcDbXrecord
280
     1
102
RTVSPropertyOp0
 70
     1
102
RTVSPropertyOp1
 70
     1
102
RTVSPropertyOp2
 70
     1
102
RTVSPropertyOp3
 70
     1
102
RTVSPropertyOp4
 70
     1
102
RTVSPropertyOp5
 70
     1
102
RTVSPropertyOp6
 70
     1
102
RTVSPropertyOp7
 70
     1
102
RTVSPropertyOp8
 70
     1
102
RTVSPropertyOp9
 70
     1
102
RTVSPropertyOp10
 70
     1
102
RTVSPropertyOp11
 70
     1
102
RTVSPropertyOp12
 70
     1
102
RTVSPropertyOp13
 70
     1
102
RTVSPropertyOp14
 70
     1
102
RTVSPropertyOp15
 70
     1
102
RTVSPropertyOp16
 70
     1
102
RTVSPropertyOp17
 70
     1
102
RTVSPropertyOp18
 70
     1
102
RTVSPropertyOp19
 70
     1
102
RTVSPropertyOp20
 70
     1
102
RTVSPropertyOp21
 70
     1
102
RTVSPropertyOp22
 70
     1
102
RTVSPropertyOp23
 70
     1
102
RTVSPropertyOp24
 70
     1
102
RTVSPropertyOp25
 70
     1
102
RTVSPropertyOp26
 70
     1
102
RTVSPropertyOp27
 70
     1
102
RTVSPropertyOp28
 70
     1
102
RTVSPropertyOp29
 70
     1
102
RTVSPropertyOp30
 70
     1
102
RTVSPropertyOp31
 70
     1
102
RTVSPropertyOp32
 70
     1
  0
XRECORD
  5
215
102
{ACAD_REACTORS
330
214
102
}
330
214
100
AcDbXrecord
280
     1
102
RTVSPropertyOp0
 70
     1
102
RTVSPropertyOp1
 70
     1
102
RTVSPropertyOp2
 70
     1
102
RTVSPropertyOp3
 70
     1
102
RTVSPropertyOp4
 70
     1
102
RTVSPropertyOp5
 70
     1
102
RTVSPropertyOp6
 70
     1
102
RTVSPropertyOp7
 70
     1
102
RTVSPropertyOp8
 70
     1
102
RTVSPropertyOp9
 70
     1
102
RTVSPropertyOp10
 70
     1
102
RTVSPropertyOp11
 70
     1
102
RTVSPropertyOp12
 70
     1
102
RTVSPropertyOp13
 70
     1
102
RTVSPropertyOp14
 70
     1
102
RTVSPropertyOp15
 70
     1
102
RTVSPropertyOp16
 70
     1
102
RTVSPropertyOp17
 70
     1
102
RTVSPropertyOp18
 70
     1
102
RTVSPropertyOp19
 70
     1
102
RTVSPropertyOp20
 70
     1
102
RTVSPropertyOp21
 70
     1
102
RTVSPropertyOp22
 70
     1
102
RTVSPropertyOp23
 70
     1
102
RTVSPropertyOp24
 70
     1
102
RTVSPropertyOp25
 70
     1
102
RTVSPropertyOp26
 70
     1
102
RTVSPropertyOp27
 70
     1
102
RTVSPropertyOp28
 70
     1
102
RTVSPropertyOp29
 70
     1
102
RTVSPropertyOp30
 70
     1
102
RTVSPropertyOp31
 70
     1
102
RTVSPropertyOp32
 70
     1
  0
XRECORD
  5
21D
102
{ACAD_REACTORS
330
21C
102
}
330
21C
100
AcDbXrecord
280
     1
102
RTVSPropertyOp0
 70
     1
102
RTVSPropertyOp1
 70
     1
102
RTVSPropertyOp2
 70
     1
102
RTVSPropertyOp3
 70
     1
102
RTVSPropertyOp4
 70
     1
102
RTVSPropertyOp5
 70
     1
102
RTVSPropertyOp6
 70
     1
102
RTVSPropertyOp7
 70
     1
102
RTVSPropertyOp8
 70
     1
102
RTVSPropertyOp9
 70
     1
102
RTVSPropertyOp10
 70
     1
102
RTVSPropertyOp11
 70
     1
102
RTVSPropertyOp12
 70
     1
102
RTVSPropertyOp13
 70
     1
102
RTVSPropertyOp14
 70
     1
102
RTVSPropertyOp15
 70
     1
102
RTVSPropertyOp16
 70
     1
102
RTVSPropertyOp17
 70
     1
102
RTVSPropertyOp18
 70
     1
102
RTVSPropertyOp19
 70
     1
102
RTVSPropertyOp20
 70
     1
102
RTVSPropertyOp21
 70
     1
102
RTVSPropertyOp22
 70
     1
102
RTVSPropertyOp23
 70
     1
102
RTVSPropertyOp24
 70
     1
102
RTVSPropertyOp25
 70
     1
102
RTVSPropertyOp26
 70
     1
102
RTVSPropertyOp27
 70
     1
102
RTVSPropertyOp28
 70
     1
102
RTVSPropertyOp29
 70
     1
102
RTVSPropertyOp30
 70
     1
102
RTVSPropertyOp31
 70
     1
102
RTVSPropertyOp32
 70
     1
  0
XRECORD
  5
211
102
{ACAD_REACTORS
330
210
102
}
330
210
100
AcDbXrecord
280
     1
102
RTVSPropertyOp0
 70
     1
102
RTVSPropertyOp1
 70
     1
102
RTVSPropertyOp2
 70
     1
102
RTVSPropertyOp3
 70
     1
102
RTVSPropertyOp4
 70
     1
102
RTVSPropertyOp5
 70
     1
102
RTVSPropertyOp6
 70
     1
102
RTVSPropertyOp7
 70
     1
102
RTVSPropertyOp8
 70
     1
102
RTVSPropertyOp9
 70
     1
102
RTVSPropertyOp10
 70
     1
102
RTVSPropertyOp11
 70
     1
102
RTVSPropertyOp12
 70
     1
102
RTVSPropertyOp13
 70
     1
102
RTVSPropertyOp14
 70
     1
102
RTVSPropertyOp15
 70
     1
102
RTVSPropertyOp16
 70
     1
102
RTVSPropertyOp17
 70
     1
102
RTVSPropertyOp18
 70
     1
102
RTVSPropertyOp19
 70
     1
102
RTVSPropertyOp20
 70
     1
102
RTVSPropertyOp21
 70
     1
102
RTVSPropertyOp22
 70
     1
102
RTVSPropertyOp23
 70
     1
102
RTVSPropertyOp24
 70
     1
102
RTVSPropertyOp25
 70
     1
102
RTVSPropertyOp26
 70
     1
102
RTVSPropertyOp27
 70
     1
102
RTVSPropertyOp28
 70
     1
102
RTVSPropertyOp29
 70
     1
102
RTVSPropertyOp30
 70
     1
102
RTVSPropertyOp31
 70
     1
102
RTVSPropertyOp32
 70
     1
  0
XRECORD
  5
213
102
{ACAD_REACTORS
330
212
102
}
330
212
100
AcDbXrecord
280
     1
102
RTVSPropertyOp0
 70
     1
102
RTVSPropertyOp1
 70
     1
102
RTVSPropertyOp2
 70
     1
102
RTVSPropertyOp3
 70
     1
102
RTVSPropertyOp4
 70
     1
102
RTVSPropertyOp5
 70
     1
102
RTVSPropertyOp6
 70
     1
102
RTVSPropertyOp7
 70
     1
102
RTVSPropertyOp8
 70
     1
102
RTVSPropertyOp9
 70
     1
102
RTVSPropertyOp10
 70
     1
102
RTVSPropertyOp11
 70
     1
102
RTVSPropertyOp12
 70
     1
102
RTVSPropertyOp13
 70
     1
102
RTVSPropertyOp14
 70
     1
102
RTVSPropertyOp15
 70
     1
102
RTVSPropertyOp16
 70
     1
102
RTVSPropertyOp17
 70
     1
102
RTVSPropertyOp18
 70
     1
102
RTVSPropertyOp19
 70
     1
102
RTVSPropertyOp20
 70
     1
102
RTVSPropertyOp21
 70
     1
102
RTVSPropertyOp22
 70
     1
102
RTVSPropertyOp23
 70
     1
102
RTVSPropertyOp24
 70
     1
102
RTVSPropertyOp25
 70
     1
102
RTVSPropertyOp26
 70
     1
102
RTVSPropertyOp27
 70
     1
102
RTVSPropertyOp28
 70
     1
102
RTVSPropertyOp29
 70
     1
102
RTVSPropertyOp30
 70
     1
102
RTVSPropertyOp31
 70
     1
102
RTVSPropertyOp32
 70
     1
  0
XRECORD
  5
21B
102
{ACAD_REACTORS
330
21A
102
}
330
21A
100
AcDbXrecord
280
     1
102
RTVSPropertyOp0
 70
     1
102
RTVSPropertyOp1
 70
     1
102
RTVSPropertyOp2
 70
     1
102
RTVSPropertyOp3
 70
     1
102
RTVSPropertyOp4
 70
     1
102
RTVSPropertyOp5
 70
     1
102
RTVSPropertyOp6
 70
     1
102
RTVSPropertyOp7
 70
     1
102
RTVSPropertyOp8
 70
     1
102
RTVSPropertyOp9
 70
     1
102
RTVSPropertyOp10
 70
     1
102
RTVSPropertyOp11
 70
     1
102
RTVSPropertyOp12
 70
     1
102
RTVSPropertyOp13
 70
     1
102
RTVSPropertyOp14
 70
     1
102
RTVSPropertyOp15
 70
     1
102
RTVSPropertyOp16
 70
     1
102
RTVSPropertyOp17
 70
     1
102
RTVSPropertyOp18
 70
     1
102
RTVSPropertyOp19
 70
     1
102
RTVSPropertyOp20
 70
     1
102
RTVSPropertyOp21
 70
     1
102
RTVSPropertyOp22
 70
     1
102
RTVSPropertyOp23
 70
     1
102
RTVSPropertyOp24
 70
     1
102
RTVSPropertyOp25
 70
     1
102
RTVSPropertyOp26
 70
     1
102
RTVSPropertyOp27
 70
     1
102
RTVSPropertyOp28
 70
     1
102
RTVSPropertyOp29
 70
     1
102
RTVSPropertyOp30
 70
     1
102
RTVSPropertyOp31
 70
     1
102
RTVSPropertyOp32
 70
     1
  0
XRECORD
  5
1FF
102
{ACAD_REACTORS
330
1FE
102
}
330
1FE
100
AcDbXrecord
280
     1
102
RTVSPropertyOp0
 70
     1
102
RTVSPropertyOp1
 70
     1
102
RTVSPropertyOp2
 70
     1
102
RTVSPropertyOp3
 70
     1
102
RTVSPropertyOp4
 70
     1
102
RTVSPropertyOp5
 70
     1
102
RTVSPropertyOp6
 70
     1
102
RTVSPropertyOp7
 70
     1
102
RTVSPropertyOp8
 70
     1
102
RTVSPropertyOp9
 70
     1
102
RTVSPropertyOp10
 70
     1
102
RTVSPropertyOp11
 70
     1
102
RTVSPropertyOp12
 70
     1
102
RTVSPropertyOp13
 70
     1
102
RTVSPropertyOp14
 70
     1
102
RTVSPropertyOp15
 70
     1
102
RTVSPropertyOp16
 70
     1
102
RTVSPropertyOp17
 70
     1
102
RTVSPropertyOp18
 70
     1
102
RTVSPropertyOp19
 70
     1
102
RTVSPropertyOp20
 70
     1
102
RTVSPropertyOp21
 70
     1
102
RTVSPropertyOp22
 70
     1
102
RTVSPropertyOp23
 70
     1
102
RTVSPropertyOp24
 70
     1
102
RTVSPropertyOp25
 70
     1
102
RTVSPropertyOp26
 70
     1
102
RTVSPropertyOp27
 70
     1
102
RTVSPropertyOp28
 70
     1
102
RTVSPropertyOp29
 70
     1
102
RTVSPropertyOp30
 70
     1
102
RTVSPropertyOp31
 70
     1
102
RTVSPropertyOp32
 70
     1
  0
XRECORD
  5
201
102
{ACAD_REACTORS
330
200
102
}
330
200
100
AcDbXrecord
280
     1
102
RTVSPropertyOp0
 70
     1
102
RTVSPropertyOp1
 70
     1
102
RTVSPropertyOp2
 70
     1
102
RTVSPropertyOp3
 70
     1
102
RTVSPropertyOp4
 70
     1
102
RTVSPropertyOp5
 70
     1
102
RTVSPropertyOp6
 70
     1
102
RTVSPropertyOp7
 70
     1
102
RTVSPropertyOp8
 70
     1
102
RTVSPropertyOp9
 70
     1
102
RTVSPropertyOp10
 70
     1
102
RTVSPropertyOp11
 70
     1
102
RTVSPropertyOp12
 70
     1
102
RTVSPropertyOp13
 70
     1
102
RTVSPropertyOp14
 70
     1
102
RTVSPropertyOp15
 70
     1
102
RTVSPropertyOp16
 70
     1
102
RTVSPropertyOp17
 70
     1
102
RTVSPropertyOp18
 70
     1
102
RTVSPropertyOp19
 70
     1
102
RTVSPropertyOp20
 70
     1
102
RTVSPropertyOp21
 70
     1
102
RTVSPropertyOp22
 70
     1
102
RTVSPropertyOp23
 70
     1
102
RTVSPropertyOp24
 70
     1
102
RTVSPropertyOp25
 70
     1
102
RTVSPropertyOp26
 70
     1
102
RTVSPropertyOp27
 70
     1
102
RTVSPropertyOp28
 70
     1
102
RTVSPropertyOp29
 70
     1
102
RTVSPropertyOp30
 70
     1
102
RTVSPropertyOp31
 70
     1
102
RTVSPropertyOp32
 70
     1
  0
XRECORD
  5
203
102
{ACAD_REACTORS
330
202
102
}
330
202
100
AcDbXrecord
280
     1
102
RTVSPropertyOp0
 70
     1
102
RTVSPropertyOp1
 70
     1
102
RTVSPropertyOp2
 70
     1
102
RTVSPropertyOp3
 70
     1
102
RTVSPropertyOp4
 70
     1
102
RTVSPropertyOp5
 70
     1
102
RTVSPropertyOp6
 70
     1
102
RTVSPropertyOp7
 70
     1
102
RTVSPropertyOp8
 70
     1
102
RTVSPropertyOp9
 70
     1
102
RTVSPropertyOp10
 70
     1
102
RTVSPropertyOp11
 70
     1
102
RTVSPropertyOp12
 70
     1
102
RTVSPropertyOp13
 70
     1
102
RTVSPropertyOp14
 70
     1
102
RTVSPropertyOp15
 70
     1
102
RTVSPropertyOp16
 70
     1
102
RTVSPropertyOp17
 70
     1
102
RTVSPropertyOp18
 70
     1
102
RTVSPropertyOp19
 70
     1
102
RTVSPropertyOp20
 70
     1
102
RTVSPropertyOp21
 70
     1
102
RTVSPropertyOp22
 70
     1
102
RTVSPropertyOp23
 70
     1
102
RTVSPropertyOp24
 70
     1
102
RTVSPropertyOp25
 70
     1
102
RTVSPropertyOp26
 70
     1
102
RTVSPropertyOp27
 70
     1
102
RTVSPropertyOp28
 70
     1
102
RTVSPropertyOp29
 70
     1
102
RTVSPropertyOp30
 70
     1
102
RTVSPropertyOp31
 70
     1
102
RTVSPropertyOp32
 70
     1
  0
XRECORD
  5
205
102
{ACAD_REACTORS
330
204
102
}
330
204
100
AcDbXrecord
280
     1
102
RTVSPropertyOp0
 70
     1
102
RTVSPropertyOp1
 70
     1
102
RTVSPropertyOp2
 70
     1
102
RTVSPropertyOp3
 70
     1
102
RTVSPropertyOp4
 70
     1
102
RTVSPropertyOp5
 70
     1
102
RTVSPropertyOp6
 70
     1
102
RTVSPropertyOp7
 70
     1
102
RTVSPropertyOp8
 70
     1
102
RTVSPropertyOp9
 70
     1
102
RTVSPropertyOp10
 70
     1
102
RTVSPropertyOp11
 70
     1
102
RTVSPropertyOp12
 70
     1
102
RTVSPropertyOp13
 70
     1
102
RTVSPropertyOp14
 70
     1
102
RTVSPropertyOp15
 70
     1
102
RTVSPropertyOp16
 70
     1
102
RTVSPropertyOp17
 70
     1
102
RTVSPropertyOp18
 70
     1
102
RTVSPropertyOp19
 70
     1
102
RTVSPropertyOp20
 70
     1
102
RTVSPropertyOp21
 70
     1
102
RTVSPropertyOp22
 70
     1
102
RTVSPropertyOp23
 70
     1
102
RTVSPropertyOp24
 70
     1
102
RTVSPropertyOp25
 70
     1
102
RTVSPropertyOp26
 70
     1
102
RTVSPropertyOp27
 70
     1
102
RTVSPropertyOp28
 70
     1
102
RTVSPropertyOp29
 70
     1
102
RTVSPropertyOp30
 70
     1
102
RTVSPropertyOp31
 70
     1
102
RTVSPropertyOp32
 70
     1
  0
XRECORD
  5
219
102
{ACAD_REACTORS
330
218
102
}
330
218
100
AcDbXrecord
280
     1
102
RTVSPropertyOp0
 70
     1
102
RTVSPropertyOp1
 70
     1
102
RTVSPropertyOp2
 70
     1
102
RTVSPropertyOp3
 70
     1
102
RTVSPropertyOp4
 70
     1
102
RTVSPropertyOp5
 70
     1
102
RTVSPropertyOp6
 70
     1
102
RTVSPropertyOp7
 70
     1
102
RTVSPropertyOp8
 70
     1
102
RTVSPropertyOp9
 70
     1
102
RTVSPropertyOp10
 70
     1
102
RTVSPropertyOp11
 70
     1
102
RTVSPropertyOp12
 70
     1
102
RTVSPropertyOp13
 70
     1
102
RTVSPropertyOp14
 70
     1
102
RTVSPropertyOp15
 70
     1
102
RTVSPropertyOp16
 70
     1
102
RTVSPropertyOp17
 70
     1
102
RTVSPropertyOp18
 70
     1
102
RTVSPropertyOp19
 70
     1
102
RTVSPropertyOp20
 70
     1
102
RTVSPropertyOp21
 70
     1
102
RTVSPropertyOp22
 70
     1
102
RTVSPropertyOp23
 70
     1
102
RTVSPropertyOp24
 70
     1
102
RTVSPropertyOp25
 70
     1
102
RTVSPropertyOp26
 70
     1
102
RTVSPropertyOp27
 70
     1
102
RTVSPropertyOp28
 70
     1
102
RTVSPropertyOp29
 70
     1
102
RTVSPropertyOp30
 70
     1
102
RTVSPropertyOp31
 70
     1
102
RTVSPropertyOp32
 70
     1
  0
XRECORD
  5
20F
102
{ACAD_REACTORS
330
20E
102
}
330
20E
100
AcDbXrecord
280
     1
102
RTVSPropertyOp0
 70
     1
102
RTVSPropertyOp1
 70
     1
102
RTVSPropertyOp2
 70
     1
102
RTVSPropertyOp3
 70
     1
102
RTVSPropertyOp4
 70
     1
102
RTVSPropertyOp5
 70
     1
102
RTVSPropertyOp6
 70
     1
102
RTVSPropertyOp7
 70
     1
102
RTVSPropertyOp8
 70
     1
102
RTVSPropertyOp9
 70
     1
102
RTVSPropertyOp10
 70
     1
102
RTVSPropertyOp11
 70
     1
102
RTVSPropertyOp12
 70
     1
102
RTVSPropertyOp13
 70
     1
102
RTVSPropertyOp14
 70
     1
102
RTVSPropertyOp15
 70
     1
102
RTVSPropertyOp16
 70
     1
102
RTVSPropertyOp17
 70
     1
102
RTVSPropertyOp18
 70
     1
102
RTVSPropertyOp19
 70
     1
102
RTVSPropertyOp20
 70
     1
102
RTVSPropertyOp21
 70
     1
102
RTVSPropertyOp22
 70
     1
102
RTVSPropertyOp23
 70
     1
102
RTVSPropertyOp24
 70
     1
102
RTVSPropertyOp25
 70
     1
102
RTVSPropertyOp26
 70
     1
102
RTVSPropertyOp27
 70
     1
102
RTVSPropertyOp28
 70
     1
102
RTVSPropertyOp29
 70
     1
102
RTVSPropertyOp30
 70
     1
102
RTVSPropertyOp31
 70
     1
102
RTVSPropertyOp32
 70
     1
  0
XRECORD
  5
217
102
{ACAD_REACTORS
330
216
102
}
330
216
100
AcDbXrecord
280
     1
102
RTVSPropertyOp0
 70
     1
102
RTVSPropertyOp1
 70
     1
102
RTVSPropertyOp2
 70
     1
102
RTVSPropertyOp3
 70
     1
102
RTVSPropertyOp4
 70
     1
102
RTVSPropertyOp5
 70
     1
102
RTVSPropertyOp6
 70
     1
102
RTVSPropertyOp7
 70
     1
102
RTVSPropertyOp8
 70
     1
102
RTVSPropertyOp9
 70
     1
102
RTVSPropertyOp10
 70
     1
102
RTVSPropertyOp11
 70
     1
102
RTVSPropertyOp12
 70
     1
102
RTVSPropertyOp13
 70
     1
102
RTVSPropertyOp14
 70
     1
102
RTVSPropertyOp15
 70
     1
102
RTVSPropertyOp16
 70
     1
102
RTVSPropertyOp17
 70
     1
102
RTVSPropertyOp18
 70
     1
102
RTVSPropertyOp19
 70
     1
102
RTVSPropertyOp20
 70
     1
102
RTVSPropertyOp21
 70
     1
102
RTVSPropertyOp22
 70
     1
102
RTVSPropertyOp23
 70
     1
102
RTVSPropertyOp24
 70
     1
102
RTVSPropertyOp25
 70
     1
102
RTVSPropertyOp26
 70
     1
102
RTVSPropertyOp27
 70
     1
102
RTVSPropertyOp28
 70
     1
102
RTVSPropertyOp29
 70
     1
102
RTVSPropertyOp30
 70
     1
102
RTVSPropertyOp31
 70
     1
102
RTVSPropertyOp32
 70
     1
  0
ENDSEC
  0
EOF
