  0
SECTION
  2
HEADER
  9
$ACADVER
  1
AC1018
  9
$ACADMAINTVER
 70
     0
  9
$DWGCODEPAGE
  3
ANSI_1252
  9
$INSBASE
 10
0.0
 20
0.0
 30
0.0
  9
$EXTMIN
 10
1.000000000000000E+20
 20
1.000000000000000E+20
 30
1.000000000000000E+20
  9
$EXTMAX
 10
-1.000000000000000E+20
 20
-1.000000000000000E+20
 30
-1.000000000000000E+20
  9
$LIMMIN
 10
0.0
 20
0.0
  9
$LIMMAX
 10
12.0
 20
9.0
  9
$ORTHOMODE
 70
     0
  9
$REGENMODE
 70
     1
  9
$FILLMODE
 70
     1
  9
$QTEXTMODE
 70
     0
  9
$MIRRTEXT
 70
     1
  9
$LTSCALE
 40
1.0
  9
$ATTMODE
 70
     1
  9
$TEXTSIZE
 40
0.2
  9
$TRACEWID
 40
0.05
  9
$TEXTSTYLE
  7
Standard
  9
$CLAYER
  8
0
  9
$CELTYPE
  6
ByLayer
  9
$CECOLOR
 62
   256
  9
$CELTSCALE
 40
1.0
  9
$DISPSILH
 70
     0
  9
$DIMSCALE
 40
1.0
  9
$DIMASZ
 40
0.18
  9
$DIMEXO
 40
0.0625
  9
$DIMDLI
 40
0.38
  9
$DIMRND
 40
0.0
  9
$DIMDLE
 40
0.0
  9
$DIMEXE
 40
0.18
  9
$DIMTP
 40
0.0
  9
$DIMTM
 40
0.0
  9
$DIMTXT
 40
0.18
  9
$DIMCEN
 40
0.09
  9
$DIMTSZ
 40
0.0
  9
$DIMTOL
 70
     0
  9
$DIMLIM
 70
     0
  9
$DIMTIH
 70
     1
  9
$DIMTOH
 70
     1
  9
$DIMSE1
 70
     0
  9
$DIMSE2
 70
     0
  9
$DIMTAD
 70
     0
  9
$DIMZIN
 70
     0
  9
$DIMBLK
  1

  9
$DIMASO
 70
     1
  9
$DIMSHO
 70
     1
  9
$DIMPOST
  1

  9
$DIMAPOST
  1

  9
$DIMALT
 70
     0
  9
$DIMALTD
 70
     2
  9
$DIMALTF
 40
25.4
  9
$DIMLFAC
 40
1.0
  9
$DIMTOFL
 70
     0
  9
$DIMTVP
 40
0.0
  9
$DIMTIX
 70
     0
  9
$DIMSOXD
 70
     0
  9
$DIMSAH
 70
     0
  9
$DIMBLK1
  1

  9
$DIMBLK2
  1

  9
$DIMSTYLE
  2
Standard
  9
$DIMCLRD
 70
     0
  9
$DIMCLRE
 70
     0
  9
$DIMCLRT
 70
     0
  9
$DIMTFAC
 40
1.0
  9
$DIMGAP
 40
0.09
  9
$DIMJUST
 70
     0
  9
$DIMSD1
 70
     0
  9
$DIMSD2
 70
     0
  9
$DIMTOLJ
 70
     1
  9
$DIMTZIN
 70
     0
  9
$DIMALTZ
 70
     0
  9
$DIMALTTZ
 70
     0
  9
$DIMUPT
 70
     0
  9
$DIMDEC
 70
     4
  9
$DIMTDEC
 70
     4
  9
$DIMALTU
 70
     2
  9
$DIMALTTD
 70
     2
  9
$DIMTXSTY
  7
Standard
  9
$DIMAUNIT
 70
     0
  9
$DIMADEC
 70
     0
  9
$DIMALTRND
 40
0.0
  9
$DIMAZIN
 70
     0
  9
$DIMDSEP
 70
    46
  9
$DIMATFIT
 70
     3
  9
$DIMFRAC
 70
     0
  9
$DIMLDRBLK
  1

  9
$DIMLUNIT
 70
     2
  9
$DIMLWD
 70
    -2
  9
$DIMLWE
 70
    -2
  9
$DIMTMOVE
 70
     0
  9
$LUNITS
 70
     2
  9
$LUPREC
 70
     4
  9
$SKETCHINC
 40
0.1
  9
$FILLETRAD
 40
0.5
  9
$AUNITS
 70
     0
  9
$AUPREC
 70
     0
  9
$MENU
  1
.
  9
$ELEVATION
 40
0.0
  9
$PELEVATION
 40
0.0
  9
$THICKNESS
 40
0.0
  9
$LIMCHECK
 70
     0
  9
$CHAMFERA
 40
0.5
  9
$CHAMFERB
 40
0.5
  9
$CHAMFERC
 40
1.0
  9
$CHAMFERD
 40
0.0
  9
$SKPOLY
 70
     0
  9
$TDCREATE
 40
2457126.524952755
  9
$TDUCREATE
 40
2457126.024952755
  9
$TDUPDATE
 40
2457126.524954294
  9
$TDUUPDATE
 40
2457126.024954294
  9
$TDINDWG
 40
0.0000000116
  9
$TDUSRTIMER
 40
0.0000000116
  9
$USRTIMER
 70
     1
  9
$ANGBASE
 50
0.0
  9
$ANGDIR
 70
     0
  9
$PDMODE
 70
     0
  9
$PDSIZE
 40
0.0
  9
$PLINEWID
 40
0.0
  9
$SPLFRAME
 70
     0
  9
$SPLINETYPE
 70
     6
  9
$SPLINESEGS
 70
     8
  9
$HANDSEED
  5
1BF
  9
$SURFTAB1
 70
     6
  9
$SURFTAB2
 70
     6
  9
$SURFTYPE
 70
     6
  9
$SURFU
 70
     6
  9
$SURFV
 70
     6
  9
$UCSBASE
  2

  9
$UCSNAME
  2

  9
$UCSORG
 10
0.0
 20
0.0
 30
0.0
  9
$UCSXDIR
 10
1.0
 20
0.0
 30
0.0
  9
$UCSYDIR
 10
0.0
 20
1.0
 30
0.0
  9
$UCSORTHOREF
  2

  9
$UCSORTHOVIEW
 70
     0
  9
$UCSORGTOP
 10
0.0
 20
0.0
 30
0.0
  9
$UCSORGBOTTOM
 10
0.0
 20
0.0
 30
0.0
  9
$UCSORGLEFT
 10
0.0
 20
0.0
 30
0.0
  9
$UCSORGRIGHT
 10
0.0
 20
0.0
 30
0.0
  9
$UCSORGFRONT
 10
0.0
 20
0.0
 30
0.0
  9
$UCSORGBACK
 10
0.0
 20
0.0
 30
0.0
  9
$PUCSBASE
  2

  9
$PUCSNAME
  2

  9
$PUCSORG
 10
0.0
 20
0.0
 30
0.0
  9
$PUCSXDIR
 10
1.0
 20
0.0
 30
0.0
  9
$PUCSYDIR
 10
0.0
 20
1.0
 30
0.0
  9
$PUCSORTHOREF
  2

  9
$PUCSORTHOVIEW
 70
     0
  9
$PUCSORGTOP
 10
0.0
 20
0.0
 30
0.0
  9
$PUCSORGBOTTOM
 10
0.0
 20
0.0
 30
0.0
  9
$PUCSORGLEFT
 10
0.0
 20
0.0
 30
0.0
  9
$PUCSORGRIGHT
 10
0.0
 20
0.0
 30
0.0
  9
$PUCSORGFRONT
 10
0.0
 20
0.0
 30
0.0
  9
$PUCSORGBACK
 10
0.0
 20
0.0
 30
0.0
  9
$USERI1
 70
     0
  9
$USERI2
 70
     0
  9
$USERI3
 70
     0
  9
$USERI4
 70
     0
  9
$USERI5
 70
     0
  9
$USERR1
 40
0.0
  9
$USERR2
 40
0.0
  9
$USERR3
 40
0.0
  9
$USERR4
 40
0.0
  9
$USERR5
 40
0.0
  9
$WORLDVIEW
 70
     1
  9
$SHADEDGE
 70
     3
  9
$SHADEDIF
 70
    70
  9
$TILEMODE
 70
     1
  9
$MAXACTVP
 70
    64
  9
$PINSBASE
 10
0.0
 20
0.0
 30
0.0
  9
$PLIMCHECK
 70
     0
  9
$PEXTMIN
 10
1.000000000000000E+20
 20
1.000000000000000E+20
 30
1.000000000000000E+20
  9
$PEXTMAX
 10
-1.000000000000000E+20
 20
-1.000000000000000E+20
 30
-1.000000000000000E+20
  9
$PLIMMIN
 10
0.0
 20
0.0
  9
$PLIMMAX
 10
12.0
 20
9.0
  9
$UNITMODE
 70
     0
  9
$VISRETAIN
 70
     1
  9
$PLINEGEN
 70
     0
  9
$PSLTSCALE
 70
     1
  9
$TREEDEPTH
 70
  3020
  9
$CMLSTYLE
  2
Standard
  9
$CMLJUST
 70
     0
  9
$CMLSCALE
 40
1.0
  9
$PROXYGRAPHICS
 70
     1
  9
$MEASUREMENT
 70
     0
  9
$CELWEIGHT
370
    -1
  9
$ENDCAPS
280
     0
  9
$JOINSTYLE
280
     0
  9
$LWDISPLAY
290
     1
  9
$INSUNITS
 70
     4
  9
$HYPERLINKBASE
  1

  9
$STYLESHEET
  1

  9
$XEDIT
290
     1
  9
$CEPSNTYPE
380
     0
  9
$PSTYLEMODE
290
     1
  9
$FINGERPRINTGUID
  2
{F40C14E7-D88A-4E58-BB33-52AA1DD585D2}
  9
$VERSIONGUID
  2
{FAEB1C32-E019-11D5-929B-00C0DF256EC4}
  9
$EXTNAMES
290
     1
  9
$PSVPSCALE
 40
0.0
  9
$OLESTARTUP
290
     0
  9
$SORTENTS
280
   127
  9
$INDEXCTL
280
     0
  9
$HIDETEXT
280
     1
  9
$XCLIPFRAME
290
     0
  9
$HALOGAP
280
     0
  9
$OBSCOLOR
 70
   257
  9
$OBSLTYPE
280
     0
  9
$INTERSECTIONDISPLAY
280
     0
  9
$INTERSECTIONCOLOR
 70
   257
  9
$DIMASSOC
280
     2
  9
$PROJECTNAME
  1

  0
ENDSEC
  0
SECTION
  2
CLASSES
  0
CLASS
  1
ACDBDICTIONARYWDFLT
  2
AcDbDictionaryWithDefault
  3
ObjectDBX Classes
 90
        0
 91
        4
280
     0
281
     0
  0
CLASS
  1
VISUALSTYLE
  2
AcDbVisualStyle
  3
ObjectDBX Classes
 90
     4095
 91
        4
280
     0
281
     0
  0
CLASS
  1
MATERIAL
  2
AcDbMaterial
  3
ObjectDBX Classes
 90
     1153
 91
        4
280
     0
281
     0
  0
CLASS
  1
WIPEOUT
  2
AcDbWipeout
  3
WipeOut|AutoCAD Express Tool|expresstools@autodesk.com
 90
      127
 91
        4
280
     0
281
     1
  0
CLASS
  1
SCALE
  2
AcDbScale
  3
ObjectDBX Classes
 90
     1153
 91
        4
280
     0
281
     0
  0
CLASS
  1
DICTIONARYVAR
  2
AcDbDictionaryVar
  3
ObjectDBX Classes
 90
        0
 91
        4
280
     0
281
     0
  0
ENDSEC
  0
SECTION
  2
TABLES
  0
TABLE
  2
VPORT
  5
8
330
0
100
AcDbSymbolTable
 70
     1
  0
VPORT
  5
29
330
8
100
AcDbSymbolTableRecord
100
AcDbViewportTableRecord
  2
*Active
 70
     0
 10
0.0
 20
0.0
 11
1.0
 21
1.0
 12
118.8107702129813
 22
257.0750215033312
 13
0.0
 23
0.0
 14
0.5
 24
0.5
 15
0.5
 25
0.5
 16
0.0
 26
0.0
 36
1.0
 17
0.0
 27
0.0
 37
0.0
 40
1010.644461878299
 41
0.9875461125738682
 42
50.0
 43
0.0
 44
0.0
 50
0.0
 51
0.0
 71
     0
 72
   100
 73
     1
 74
     3
 75
     0
 76
     0
 77
     0
 78
     0
281
     0
 65
     1
110
0.0
120
0.0
130
0.0
111
1.0
121
0.0
131
0.0
112
0.0
122
1.0
132
0.0
 79
     0
146
0.0
  0
ENDTAB
  0
TABLE
  2
LTYPE
  5
5
330
0
100
AcDbSymbolTable
 70
     5
  0
LTYPE
  5
14
330
5
100
AcDbSymbolTableRecord
100
AcDbLinetypeTableRecord
  2
ByBlock
 70
     0
  3

 72
    65
 73
     0
 40
0.0
  0
LTYPE
  5
15
330
5
100
AcDbSymbolTableRecord
100
AcDbLinetypeTableRecord
  2
ByLayer
 70
     0
  3

 72
    65
 73
     0
 40
0.0
  0
LTYPE
  5
16
330
5
100
AcDbSymbolTableRecord
100
AcDbLinetypeTableRecord
  2
Continuous
 70
     0
  3
Solid line
 72
    65
 73
     0
 40
0.0
  0
LTYPE
  5
D5
330
5
100
AcDbSymbolTableRecord
100
AcDbLinetypeTableRecord
  2
DASHED2
 70
     0
  3
- - - - - 
 72
    65
 73
     2
 40
7.5
 49
5.0
 74
     0
 49
-2.5
 74
     0
  0
LTYPE
  5
10A
330
5
100
AcDbSymbolTableRecord
100
AcDbLinetypeTableRecord
  2
AStair_dashed
 70
     0
  3
- - - - - 
 72
    65
 73
     2
 40
18.00000000000001
 49
8.000000000000004
 74
     0
 49
-10.0
 74
     0
  0
LTYPE
  5
133
330
5
100
AcDbSymbolTableRecord
100
AcDbLinetypeTableRecord
  2
Above
 70
     0
  3
- - - - - 
 72
    65
 73
     2
 40
15.0
 49
10.0
 74
     0
 49
-4.999999999999999
 74
     0
  0
LTYPE
  5
149
330
5
100
AcDbSymbolTableRecord
100
AcDbLinetypeTableRecord
  2
Wipeout_Contour
 70
     0
  3
- - - - - 
 72
    65
 73
     2
 40
1000.0
 49
0.0
 74
     0
 49
-1000.0
 74
     0
  0
ENDTAB
  0
TABLE
  2
LAYER
  5
2
330
0
100
AcDbSymbolTable
 70
     4
  0
LAYER
  5
10
330
2
100
AcDbSymbolTableRecord
100
AcDbLayerTableRecord
  2
0
 70
     0
 62
     7
  6
Continuous
370
    -3
390
F
  0
LAYER
  5
40
330
2
100
AcDbSymbolTableRecord
100
AcDbLayerTableRecord
  2
0_Pen_No__146
 70
     0
 62
     9
420
 13290186
  6
Continuous
370
     5
390
F
  0
LAYER
  5
45
330
2
100
AcDbSymbolTableRecord
100
AcDbLayerTableRecord
  2
0_Pen_No__1
 70
     0
 62
     7
  6
Continuous
370
    13
390
F
  0
LAYER
  5
14A
330
2
100
AcDbSymbolTableRecord
100
AcDbLayerTableRecord
  2
Key_ Sections_Pen_No__1
 70
     0
 62
     7
  6
Continuous
370
    13
390
F
  0
ENDTAB
  0
TABLE
  2
STYLE
  5
3
330
0
100
AcDbSymbolTable
 70
     2
  0
STYLE
  5
11
330
3
100
AcDbSymbolTableRecord
100
AcDbTextStyleTableRecord
  2
Standard
 70
     0
 40
0.0
 41
1.0
 50
0.0
 71
     0
 42
0.2
  3
txt
  4

  0
STYLE
  5
147
330
3
100
AcDbSymbolTableRecord
100
AcDbTextStyleTableRecord
  2
GENERATED_STYLE_1
 70
     0
 40
0.0
 41
1.0
 50
0.0
 71
     0
 42
0.2
  3

  4

1001
ACAD
1000
Arial
1071
       34
  0
ENDTAB
  0
TABLE
  2
VIEW
  5
6
330
0
100
AcDbSymbolTable
 70
     0
  0
ENDTAB
  0
TABLE
  2
UCS
  5
7
330
0
100
AcDbSymbolTable
 70
     0
  0
ENDTAB
  0
TABLE
  2
APPID
  5
9
330
0
100
AcDbSymbolTable
 70
     1
  0
APPID
  5
12
330
9
100
AcDbSymbolTableRecord
100
AcDbRegAppTableRecord
  2
ACAD
 70
     0
  0
ENDTAB
  0
TABLE
  2
DIMSTYLE
  5
A
330
0
100
AcDbSymbolTable
 70
     2
100
AcDbDimStyleTable
  0
DIMSTYLE
105
27
330
A
100
AcDbSymbolTableRecord
100
AcDbDimStyleTableRecord
  2
Standard
 70
     0
178
     0
340
11
  0
DIMSTYLE
105
14D
330
A
100
AcDbSymbolTableRecord
100
AcDbDimStyleTableRecord
  2
GENERATED_STYLE__1
 70
     0
 41
9.12
172
     1
178
     0
340
0
341
14E
  0
ENDTAB
  0
TABLE
  2
BLOCK_RECORD
  5
1
330
0
100
AcDbSymbolTable
 70
     3
  0
BLOCK_RECORD
  5
1F
330
1
100
AcDbSymbolTableRecord
100
AcDbBlockTableRecord
  2
*Model_Space
340
22
  0
BLOCK_RECORD
  5
1B
330
1
100
AcDbSymbolTableRecord
100
AcDbBlockTableRecord
  2
*Paper_Space
340
1E
  0
BLOCK_RECORD
  5
23
330
1
100
AcDbSymbolTableRecord
100
AcDbBlockTableRecord
  2
*Paper_Space0
340
26
  0
BLOCK_RECORD
  5
14E
330
1
100
AcDbSymbolTableRecord
100
AcDbBlockTableRecord
  2
ARROWHEAD_5
340
0
  0
BLOCK_RECORD
  5
16D
330
1
100
AcDbSymbolTableRecord
100
AcDbBlockTableRecord
  2
DF-40-R Window Head Layout_STORY_MARKER
340
0
  0
ENDTAB
  0
ENDSEC
  0
SECTION
  2
BLOCKS
  0
BLOCK
  5
20
330
1F
100
AcDbEntity
  8
0
100
AcDbBlockBegin
  2
*Model_Space
 70
     0
 10
0.0
 20
0.0
 30
0.0
  3
*Model_Space
  1

  0
ENDBLK
  5
21
330
1F
100
AcDbEntity
  8
0
100
AcDbBlockEnd
  0
BLOCK
  5
1C
330
1B
100
AcDbEntity
 67
     1
  8
0
100
AcDbBlockBegin
  2
*Paper_Space
 70
     0
 10
0.0
 20
0.0
 30
0.0
  3
*Paper_Space
  1

  0
ENDBLK
  5
1D
330
1B
100
AcDbEntity
 67
     1
  8
0
100
AcDbBlockEnd
  0
BLOCK
  5
24
330
23
100
AcDbEntity
  8
0
100
AcDbBlockBegin
  2
*Paper_Space0
 70
     0
 10
0.0
 20
0.0
 30
0.0
  3
*Paper_Space0
  1

  0
ENDBLK
  5
25
330
23
100
AcDbEntity
  8
0
100
AcDbBlockEnd
  0
BLOCK
  5
14F
330
14E
100
AcDbEntity
  8
0
100
AcDbBlockBegin
  2
ARROWHEAD_5
 70
     0
 10
0.0
 20
0.0
 30
0.0
  3
ARROWHEAD_5
  1

  0
SOLID
  5
151
330
14E
100
AcDbEntity
  8
0
  6
Continuous
 62
     0
370
     0
100
AcDbTrace
 10
-1.0
 20
0.2679
 30
0.0
 11
0.0
 21
0.0
 31
0.0
 12
-1.0
 22
-0.2679
 32
0.0
 13
-1.0
 23
0.2679
 33
0.0
  0
LINE
  5
152
330
14E
100
AcDbEntity
  8
0
  6
Continuous
 62
     0
370
     0
100
AcDbLine
 10
0.0
 20
0.0
 30
0.0
 11
-1.0
 21
0.0
 31
0.0
  0
ENDBLK
  5
150
330
14E
100
AcDbEntity
  8
0
100
AcDbBlockEnd
  0
BLOCK
  5
16E
330
16D
100
AcDbEntity
  8
0
100
AcDbBlockBegin
  2
DF-40-R Window Head Layout_STORY_MARKER
 70
     0
 10
0.0
 20
0.0
 30
0.0
  3
DF-40-R Window Head Layout_STORY_MARKER
  1

  0
ENDBLK
  5
16F
330
16D
100
AcDbEntity
  8
0
100
AcDbBlockEnd
  0
ENDSEC
  0
SECTION
  2
ENTITIES
  0
HATCH
  5
3F
330
1F
100
AcDbEntity
  8
0_Pen_No__146
  6
Continuous
 62
   250
420
  3289650
370
     0
100
AcDbHatch
 10
0.0
 20
0.0
 30
0.0
210
0.0
220
0.0
230
1.0
  2
SOLID
 70
     1
 71
     0
 91
        1
 92
        3
 72
     0
 73
     1
 93
       29
 10
-247.6686704552393
 20
486.3099681791962
 10
-247.6686704552393
 20
489.5719204851969
 10
-234.6782894552417
 20
482.0719204851973
 10
-234.6782894552417
 20
530.6140110651287
 10
-240.7404672552418
 20
534.114011065129
 10
-240.7404672552431
 20
492.571920485199
 10
-253.7308482552385
 20
500.0719204851976
 10
-254.2802162455908
 20
496.4343864366971
 10
-254.1728113138913
 20
488.3628051151985
 10
-252.8625289133029
 20
479.7399614821956
 10
-250.3891813122636
 20
470.8278562766997
 10
-246.8279199242667
 20
461.8972793066986
 10
-242.2869518760091
 20
453.219581633199
 10
-240.7404672552445
 20
450.9169921232034
 10
-240.7404672552467
 20
388.9169921232032
 10
-252.8648228552388
 20
395.916992123198
 10
-252.8648228552388
 20
383.1168325612002
 10
-246.8026450552396
 20
379.6168325612012
 10
-246.8026450552396
 20
385.4169921232011
 10
-240.7404672552467
 20
381.9169921232057
 10
-240.7404672552471
 20
361.9169921232066
 10
-246.8026450552396
 20
365.4169921232016
 10
-246.8026450552396
 20
358.4169921232037
 10
-234.6782894552417
 20
351.4169921232053
 10
-234.6782894552417
 20
452.0719204851997
 10
-238.3408133391014
 20
457.6661398356987
 10
-241.9666639649089
 20
464.7726142937003
 10
-244.7835427951124
 20
472.0628938596989
 10
-246.7058603913403
 20
479.3154670771966
 97
        0
 75
     0
 76
     1
 98
        0
  0
HATCH
  5
41
330
1F
100
AcDbEntity
  8
0_Pen_No__146
  6
Continuous
 62
   250
420
  3289650
370
     0
100
AcDbHatch
 10
0.0
 20
0.0
 30
0.0
210
0.0
220
0.0
230
1.0
  2
SOLID
 70
     1
 71
     0
 91
        1
 92
        3
 72
     0
 73
     1
 93
        3
 10
77.94228625544531
 20
207.4761883169614
 10
77.94228625544531
 20
267.4301962317318
 10
26.02059256945699
 20
237.4531922743497
 97
        0
 75
     0
 76
     1
 98
        0
  0
HATCH
  5
42
330
1F
100
AcDbEntity
  8
0_Pen_No__146
  6
Continuous
 62
   250
420
  3289650
370
     0
100
AcDbHatch
 10
0.0
 20
0.0
 30
0.0
210
0.0
220
0.0
230
1.0
  2
SOLID
 70
     1
 71
     0
 91
        1
 92
        3
 72
     0
 73
     1
 93
       40
 10
-247.6686704552393
 20
222.699489785545
 10
-247.6686704552393
 20
225.9614420915459
 10
-234.6782894552417
 20
218.461442091546
 10
-234.6782894552417
 20
317.8065137295443
 10
-237.8972363070147
 20
321.9935611290454
 10
-241.2236799498016
 20
327.4649370040419
 10
-243.9655969515968
 20
333.2118815200449
 10
-246.0396755520069
 20
339.059776675543
 10
-247.3828959209854
 20
344.8309371355411
 10
-247.6686704552393
 20
347.5904731225383
 10
-247.6686704552393
 20
373.5701376455376
 10
-242.7441476398853
 20
370.7269630600409
 10
-242.7441476398853
 20
381.1469728406145
 10
-245.9461837255832
 20
382.9956692447227
 10
-245.9461837255832
 20
377.3910069481512
 10
-253.7308482552385
 20
381.8854851295408
 10
-253.7308482552385
 20
358.0904731225418
 10
-253.9879040596116
 20
354.8951860000402
 10
-253.4885294786582
 20
347.9179864450401
 10
-251.9908419510584
 20
340.5661602590429
 10
-249.540347954055
 20
333.0630889600448
 10
-246.2115045089863
 20
325.6367495725434
 10
-242.1054568380145
 20
318.5127876610425
 10
-240.7404672552409
 20
316.6515853675422
 10
-240.7404672552431
 20
228.9614420915476
 10
-253.7308482552385
 20
236.4614420915463
 10
-254.2802162455908
 20
232.8239080430459
 10
-254.1728113138913
 20
224.7523267215472
 10
-252.8625289133029
 20
216.1294830885441
 10
-250.3891813122636
 20
207.2173778830484
 10
-246.8279199242667
 20
198.2868009130474
 10
-242.2869518760091
 20
189.6091032395479
 10
-240.7404672552445
 20
187.3065137295522
 10
-240.7404672552462
 20
132.336259839493
 10
-234.6782894552417
 20
128.8362598394905
 10
-234.6782894552417
 20
188.4614420915482
 10
-238.3408133391014
 20
194.0556614420474
 10
-241.9666639649089
 20
201.1621359000491
 10
-244.7835427951124
 20
208.4524154660477
 10
-246.7058603913403
 20
215.7049886835454
 97
        0
 75
     0
 76
     1
 98
        0
  0
HATCH
  5
43
330
1F
100
AcDbEntity
  8
0_Pen_No__146
  6
Continuous
 62
   250
420
  3289650
370
     0
100
AcDbHatch
 10
0.0
 20
0.0
 30
0.0
210
0.0
220
0.0
230
1.0
  2
SOLID
 70
     1
 71
     0
 91
        1
 92
        3
 72
     0
 73
     1
 93
       98
 10
-274.422532746034
 20
209.855598365045
 10
-266.9241806577799
 20
152.7742892055646
 10
-264.845684114568
 20
118.8255123330902
 10
-265.4305287054927
 20
113.821841944062
 10
-250.6360279607698
 20
122.3634510672455
 10
-256.1693217647334
 20
127.1968865347817
 10
-256.1693217647343
 20
184.2729344164067
 10
-255.5145736795983
 20
184.6509534012635
 10
-255.5145736795983
 20
216.4313389395878
 10
-257.8240142831678
 20
222.6341830198821
 10
-257.8240142831678
 20
305.0256794754476
 10
-240.4596529755008
 20
315.0509981945446
 10
-240.7404672552404
 20
316.6515853675413
 10
-242.1054568380154
 20
318.5127876610392
 10
-246.2115045089899
 20
325.6367495725447
 10
-249.540347954055
 20
333.0630889600444
 10
-251.9908419510575
 20
340.5661602590411
 10
-253.4885294786586
 20
347.9179864450417
 10
-253.987904059612
 20
354.8951860000422
 10
-253.730848255239
 20
358.0904731225432
 10
-253.730848255239
 20
381.8854851295401
 10
-252.8648228552388
 20
383.1168325611995
 10
-252.8648228552388
 20
395.9169921231978
 10
-240.7404672552458
 20
402.9169921231939
 10
-240.7404672552445
 20
450.9169921232028
 10
-242.2869518760078
 20
453.2195816331985
 10
-246.8279199242649
 20
461.8972793066969
 10
-250.389181312265
 20
470.8278562767023
 10
-252.8625289133015
 20
479.7399614821924
 10
-254.1728113138917
 20
488.3628051152009
 10
-254.2802162455908
 20
496.4343864366978
 10
-253.7308482552394
 20
500.0719204851978
 10
-240.7404672552427
 20
507.5719204851963
 10
-240.7404672552418
 20
534.114011065129
 10
-204.6217633840159
 20
565.7321559434885
 10
-162.2204339024584
 20
598.1567020176217
 10
-114.830712717203
 20
613.1218771287554
 10
-64.11539706280678
 20
620.6044646843219
 10
-27.38022078676039
 20
631.2573390312315
 10
3.468403295299627
 20
644.2760244236607
 10
34.88305717703
 20
648.5212479211917
 10
46.13131824905725
 20
644.1974237927761
 10
40.10199791722657
 20
640.7163940609515
 10
40.55076693070259
 20
638.7882532688183
 10
42.6248455311109
 20
632.9403581133257
 10
45.36676253290928
 20
627.1934135973135
 10
48.6932061756975
 20
621.7220377223256
 10
51.9121530274691
 20
617.5349903228212
 10
87.22238783462811
 20
614.6407087812502
 10
135.5647991059836
 20
632.3983126401997
 10
216.7363893798604
 20
623.3933538626384
 10
220.0682109572894
 20
613.9650076967249
 10
213.495582444379
 20
610.1702988389304
 10
214.6851355180166
 20
605.059371531541
 10
216.7592141184258
 20
599.2114763760538
 10
219.5011311202175
 20
593.4645318600511
 10
222.8275747630084
 20
587.9931559850406
 10
226.0465216147822
 20
583.8061085855479
 10
225.8527178006204
 20
583.6942159007825
 10
264.1947742330113
 20
506.4859410718128
 10
258.4411451841602
 20
503.1640817771255
 10
261.1591227048575
 20
495.5007041342087
 10
263.9010397066497
 20
489.7537596182084
 10
267.2274833494366
 20
484.2823837432084
 10
270.44643020121
 20
480.0953363437072
 10
277.0219646874708
 20
468.9455169974427
 10
293.4477486886302
 20
387.8751538221658
 10
288.430735256052
 20
384.9785797536806
 10
291.148712776748
 20
377.3152021107661
 10
293.8906297785419
 20
371.5682575947652
 10
297.217073421328
 20
366.096881719764
 10
300.4360202731031
 20
361.9098343202638
 10
301.5549159749691
 20
356.7948825403022
 10
274.9689643956508
 20
264.5066551630104
 10
250.8503994159419
 20
245.6713739181739
 10
253.8570351407548
 20
229.5174444882364
 10
249.3700453931553
 20
226.9268797382882
 10
252.0880229138509
 20
219.2635020953708
 10
254.8299399156457
 20
213.5165575793705
 10
262.042995220849
 20
227.3770591541988
 10
290.2885593020255
 20
275.2701879995913
 10
328.0536956375868
 20
355.8358121821248
 10
314.2064789812142
 20
446.4721393874744
 10
306.6534517141019
 20
518.2258984250432
 10
260.0764502335759
 20
582.4266301954948
 10
226.346091248613
 20
632.5580495969873
 10
171.4066680155022
 20
654.1230997460561
 10
82.02917868800208
 20
665.4526406467263
 10
1.463554505470643
 20
676.7821815473931
 10
-60.65047352144192
 20
681.0656299283322
 10
-104.2989009289124
 20
671.3659793933382
 10
-146.5616639742411
 20
640.8813634262162
 10
-249.6033761309985
 20
574.7090874778012
 10
-297.4280751802506
 20
547.8337327984493
 10
-291.4420051357977
 20
491.5646743805847
 10
-296.7159644438328
 20
399.4225456668388
 10
-293.2518035384782
 20
321.1325092058202
 10
-280.0879920981286
 20
259.4704450904999
 97
        0
 75
     0
 76
     1
 98
        0
  0
LWPOLYLINE
  5
44
330
1F
100
AcDbEntity
  8
0_Pen_No__1
  6
Continuous
100
AcDbPolyline
 90
        2
 70
   128
 43
0.0
 10
214.685135518017
 20
605.0593715315471
 10
213.495582444379
 20
610.1702988389306
  0
LWPOLYLINE
  5
46
330
1F
100
AcDbEntity
  8
0_Pen_No__1
  6
Continuous
100
AcDbPolyline
 90
        2
 70
   128
 43
0.0
 10
-255.5145736795983
 20
216.4313389395878
 10
-257.8240142831678
 20
222.2049404485125
  0
LWPOLYLINE
  5
47
330
1F
100
AcDbEntity
  8
0_Pen_No__1
  6
Continuous
100
AcDbPolyline
 90
        2
 70
   128
 43
0.0
 10
-257.8240142831678
 20
222.2049404485125
 10
-257.8240142831678
 20
289.4579703471858
  0
LWPOLYLINE
  5
48
330
1F
100
AcDbEntity
  8
0_Pen_No__1
  6
Continuous
100
AcDbPolyline
 90
        2
 70
   128
 43
0.0
 10
-257.8240142831678
 20
305.0256794754476
 10
-249.4968941896034
 20
309.8333445240506
  0
LWPOLYLINE
  5
49
330
1F
100
AcDbEntity
  8
0_Pen_No__1
  6
Continuous
100
AcDbPolyline
 90
        2
 70
   128
 43
0.0
 10
-249.4968941896034
 20
309.8333445240506
 10
-240.4596529755008
 20
315.0509981945446
  0
LWPOLYLINE
  5
4A
330
1F
100
AcDbEntity
  8
0_Pen_No__1
  6
Continuous
100
AcDbPolyline
 90
        2
 70
   128
 43
0.0
 10
-248.9359147852848
 20
123.3450118710537
 10
-256.1693217647338
 20
129.6635279456111
  0
LWPOLYLINE
  5
4B
330
1F
100
AcDbEntity
  8
0_Pen_No__1
  6
Continuous
100
AcDbPolyline
 90
        2
 70
   128
 43
0.0
 10
-247.6686704552393
 20
486.3099681791962
 10
-247.6686704552393
 20
489.5719204851969
  0
LWPOLYLINE
  5
4C
330
1F
100
AcDbEntity
  8
0_Pen_No__1
  6
Continuous
100
AcDbPolyline
 90
        2
 70
   128
 43
0.0
 10
-247.6686704552393
 20
489.5719204851969
 10
-234.6782894552417
 20
482.0719204851973
  0
LWPOLYLINE
  5
4D
330
1F
100
AcDbEntity
  8
0_Pen_No__1
  6
Continuous
100
AcDbPolyline
 90
        2
 70
   128
 43
0.0
 10
-234.6782894552417
 20
482.0719204851973
 10
-234.6782894552417
 20
530.6140110651287
  0
LWPOLYLINE
  5
4E
330
1F
100
AcDbEntity
  8
0_Pen_No__1
  6
Continuous
100
AcDbPolyline
 90
        2
 70
   128
 43
0.0
 10
-234.6782894552417
 20
530.6140110651287
 10
-240.7404672552418
 20
534.114011065129
  0
LWPOLYLINE
  5
4F
330
1F
100
AcDbEntity
  8
0_Pen_No__1
  6
Continuous
100
AcDbPolyline
 90
        2
 70
   128
 43
0.0
 10
-240.7404672552418
 20
534.114011065129
 10
-240.7404672552431
 20
492.571920485199
  0
LWPOLYLINE
  5
50
330
1F
100
AcDbEntity
  8
0_Pen_No__1
  6
Continuous
100
AcDbPolyline
 90
        2
 70
   128
 43
0.0
 10
-240.7404672552431
 20
492.571920485199
 10
-253.7308482552385
 20
500.0719204851976
  0
LWPOLYLINE
  5
51
330
1F
100
AcDbEntity
  8
0_Pen_No__1
  6
Continuous
100
AcDbPolyline
 90
        2
 70
   128
 43
0.0
 10
-253.7308482552385
 20
500.0719204851976
 10
-254.2802162455908
 20
496.4343864366971
  0
LWPOLYLINE
  5
52
330
1F
100
AcDbEntity
  8
0_Pen_No__1
  6
Continuous
100
AcDbPolyline
 90
        2
 70
   128
 43
0.0
 10
-254.2802162455908
 20
496.4343864366971
 10
-254.1728113138913
 20
488.3628051151985
  0
LWPOLYLINE
  5
53
330
1F
100
AcDbEntity
  8
0_Pen_No__1
  6
Continuous
100
AcDbPolyline
 90
        2
 70
   128
 43
0.0
 10
-254.1728113138913
 20
488.3628051151985
 10
-252.8625289133029
 20
479.7399614821956
  0
LWPOLYLINE
  5
54
330
1F
100
AcDbEntity
  8
0_Pen_No__1
  6
Continuous
100
AcDbPolyline
 90
        2
 70
   128
 43
0.0
 10
-252.8625289133029
 20
479.7399614821956
 10
-250.3891813122636
 20
470.8278562766997
  0
LWPOLYLINE
  5
55
330
1F
100
AcDbEntity
  8
0_Pen_No__1
  6
Continuous
100
AcDbPolyline
 90
        2
 70
   128
 43
0.0
 10
-250.3891813122636
 20
470.8278562766997
 10
-246.8279199242667
 20
461.8972793066986
  0
LWPOLYLINE
  5
56
330
1F
100
AcDbEntity
  8
0_Pen_No__1
  6
Continuous
100
AcDbPolyline
 90
        2
 70
   128
 43
0.0
 10
-246.8279199242667
 20
461.8972793066986
 10
-242.2869518760091
 20
453.219581633199
  0
LWPOLYLINE
  5
57
330
1F
100
AcDbEntity
  8
0_Pen_No__1
  6
Continuous
100
AcDbPolyline
 90
        2
 70
   128
 43
0.0
 10
-242.2869518760091
 20
453.219581633199
 10
-240.7404672552445
 20
450.9169921232034
  0
LWPOLYLINE
  5
58
330
1F
100
AcDbEntity
  8
0_Pen_No__1
  6
Continuous
100
AcDbPolyline
 90
        2
 70
   128
 43
0.0
 10
-240.7404672552445
 20
450.9169921232034
 10
-240.7404672552467
 20
388.9169921232032
  0
LWPOLYLINE
  5
59
330
1F
100
AcDbEntity
  8
0_Pen_No__1
  6
Continuous
100
AcDbPolyline
 90
        2
 70
   128
 43
0.0
 10
-240.7404672552467
 20
388.9169921232032
 10
-252.8648228552388
 20
395.916992123198
  0
LWPOLYLINE
  5
5A
330
1F
100
AcDbEntity
  8
0_Pen_No__1
  6
Continuous
100
AcDbPolyline
 90
        2
 70
   128
 43
0.0
 10
-252.8648228552388
 20
395.916992123198
 10
-252.8648228552388
 20
383.1168325612002
  0
LWPOLYLINE
  5
5B
330
1F
100
AcDbEntity
  8
0_Pen_No__1
  6
Continuous
100
AcDbPolyline
 90
        2
 70
   128
 43
0.0
 10
-252.8648228552388
 20
383.1168325612002
 10
-246.8026450552396
 20
379.6168325612012
  0
LWPOLYLINE
  5
5C
330
1F
100
AcDbEntity
  8
0_Pen_No__1
  6
Continuous
100
AcDbPolyline
 90
        2
 70
   128
 43
0.0
 10
-246.8026450552396
 20
379.6168325612012
 10
-246.8026450552396
 20
385.4169921232011
  0
LWPOLYLINE
  5
5D
330
1F
100
AcDbEntity
  8
0_Pen_No__1
  6
Continuous
100
AcDbPolyline
 90
        2
 70
   128
 43
0.0
 10
-246.8026450552396
 20
385.4169921232011
 10
-240.7404672552467
 20
381.9169921232057
  0
LWPOLYLINE
  5
5E
330
1F
100
AcDbEntity
  8
0_Pen_No__1
  6
Continuous
100
AcDbPolyline
 90
        2
 70
   128
 43
0.0
 10
-240.7404672552467
 20
381.9169921232057
 10
-240.7404672552471
 20
361.9169921232066
  0
LWPOLYLINE
  5
5F
330
1F
100
AcDbEntity
  8
0_Pen_No__1
  6
Continuous
100
AcDbPolyline
 90
        2
 70
   128
 43
0.0
 10
-240.7404672552471
 20
361.9169921232066
 10
-246.8026450552396
 20
365.4169921232016
  0
LWPOLYLINE
  5
60
330
1F
100
AcDbEntity
  8
0_Pen_No__1
  6
Continuous
100
AcDbPolyline
 90
        2
 70
   128
 43
0.0
 10
-246.8026450552396
 20
365.4169921232016
 10
-246.8026450552396
 20
358.4169921232037
  0
LWPOLYLINE
  5
61
330
1F
100
AcDbEntity
  8
0_Pen_No__1
  6
Continuous
100
AcDbPolyline
 90
        2
 70
   128
 43
0.0
 10
-246.8026450552396
 20
358.4169921232037
 10
-234.6782894552417
 20
351.4169921232053
  0
LWPOLYLINE
  5
62
330
1F
100
AcDbEntity
  8
0_Pen_No__1
  6
Continuous
100
AcDbPolyline
 90
        2
 70
   128
 43
0.0
 10
-234.6782894552417
 20
351.4169921232053
 10
-234.6782894552417
 20
452.0719204851997
  0
LWPOLYLINE
  5
63
330
1F
100
AcDbEntity
  8
0_Pen_No__1
  6
Continuous
100
AcDbPolyline
 90
        2
 70
   128
 43
0.0
 10
-234.6782894552417
 20
452.0719204851997
 10
-238.3408133391014
 20
457.6661398356987
  0
LWPOLYLINE
  5
64
330
1F
100
AcDbEntity
  8
0_Pen_No__1
  6
Continuous
100
AcDbPolyline
 90
        2
 70
   128
 43
0.0
 10
-238.3408133391014
 20
457.6661398356987
 10
-241.9666639649089
 20
464.7726142937003
  0
LWPOLYLINE
  5
65
330
1F
100
AcDbEntity
  8
0_Pen_No__1
  6
Continuous
100
AcDbPolyline
 90
        2
 70
   128
 43
0.0
 10
-241.9666639649089
 20
464.7726142937003
 10
-244.7835427951124
 20
472.0628938596989
  0
LWPOLYLINE
  5
66
330
1F
100
AcDbEntity
  8
0_Pen_No__1
  6
Continuous
100
AcDbPolyline
 90
        2
 70
   128
 43
0.0
 10
-244.7835427951124
 20
472.0628938596989
 10
-246.7058603913403
 20
479.3154670771966
  0
LWPOLYLINE
  5
67
330
1F
100
AcDbEntity
  8
0_Pen_No__1
  6
Continuous
100
AcDbPolyline
 90
        2
 70
   128
 43
0.0
 10
-246.7058603913403
 20
479.3154670771966
 10
-247.6686704552393
 20
486.3099681791962
  0
LWPOLYLINE
  5
68
330
1F
100
AcDbEntity
  8
0_Pen_No__1
  6
Continuous
100
AcDbPolyline
 90
        2
 70
   128
 43
0.0
 10
77.94228625544531
 20
276.0894745388587
 10
77.94228625544531
 20
207.4761883169614
  0
LWPOLYLINE
  5
69
330
1F
100
AcDbEntity
  8
0_Pen_No__1
  6
Continuous
100
AcDbPolyline
 90
        2
 70
   128
 43
0.0
 10
77.94228625544531
 20
207.4761883169614
 10
18.5214376098175
 20
241.7828314279134
  0
LWPOLYLINE
  5
6A
330
1F
100
AcDbEntity
  8
0_Pen_No__1
  6
Continuous
100
AcDbPolyline
 90
        2
 70
   128
 43
0.0
 10
77.94228625544531
 20
276.0894745388587
 10
77.94228625544531
 20
207.4761883169614
  0
LWPOLYLINE
  5
6B
330
1F
100
AcDbEntity
  8
0_Pen_No__1
  6
Continuous
100
AcDbPolyline
 90
        2
 70
   128
 43
0.0
 10
-247.6686704552393
 20
222.699489785545
 10
-247.6686704552393
 20
225.9614420915459
  0
LWPOLYLINE
  5
6C
330
1F
100
AcDbEntity
  8
0_Pen_No__1
  6
Continuous
100
AcDbPolyline
 90
        2
 70
   128
 43
0.0
 10
-247.6686704552393
 20
225.9614420915459
 10
-234.6782894552417
 20
218.461442091546
  0
LWPOLYLINE
  5
6D
330
1F
100
AcDbEntity
  8
0_Pen_No__1
  6
Continuous
100
AcDbPolyline
 90
        2
 70
   128
 43
0.0
 10
-234.6782894552417
 20
218.461442091546
 10
-234.6782894552417
 20
317.8065137295443
  0
LWPOLYLINE
  5
6E
330
1F
100
AcDbEntity
  8
0_Pen_No__1
  6
Continuous
100
AcDbPolyline
 90
        2
 70
   128
 43
0.0
 10
-234.6782894552417
 20
317.8065137295443
 10
-237.8972363070147
 20
321.9935611290454
  0
LWPOLYLINE
  5
6F
330
1F
100
AcDbEntity
  8
0_Pen_No__1
  6
Continuous
100
AcDbPolyline
 90
        2
 70
   128
 43
0.0
 10
-237.8972363070147
 20
321.9935611290454
 10
-241.2236799498016
 20
327.4649370040419
  0
LWPOLYLINE
  5
70
330
1F
100
AcDbEntity
  8
0_Pen_No__1
  6
Continuous
100
AcDbPolyline
 90
        2
 70
   128
 43
0.0
 10
-241.2236799498016
 20
327.4649370040419
 10
-243.9655969515968
 20
333.2118815200449
  0
LWPOLYLINE
  5
71
330
1F
100
AcDbEntity
  8
0_Pen_No__1
  6
Continuous
100
AcDbPolyline
 90
        2
 70
   128
 43
0.0
 10
-243.9655969515968
 20
333.2118815200449
 10
-246.0396755520069
 20
339.059776675543
  0
LWPOLYLINE
  5
72
330
1F
100
AcDbEntity
  8
0_Pen_No__1
  6
Continuous
100
AcDbPolyline
 90
        2
 70
   128
 43
0.0
 10
-246.0396755520069
 20
339.059776675543
 10
-247.3828959209854
 20
344.8309371355411
  0
LWPOLYLINE
  5
73
330
1F
100
AcDbEntity
  8
0_Pen_No__1
  6
Continuous
100
AcDbPolyline
 90
        2
 70
   128
 43
0.0
 10
-247.3828959209854
 20
344.8309371355411
 10
-247.6686704552393
 20
347.5904731225383
  0
LWPOLYLINE
  5
74
330
1F
100
AcDbEntity
  8
0_Pen_No__1
  6
Continuous
100
AcDbPolyline
 90
        2
 70
   128
 43
0.0
 10
-247.6686704552393
 20
347.5904731225383
 10
-247.6686704552393
 20
373.5701376455376
  0
LWPOLYLINE
  5
75
330
1F
100
AcDbEntity
  8
0_Pen_No__1
  6
Continuous
100
AcDbPolyline
 90
        2
 70
   128
 43
0.0
 10
-247.6686704552393
 20
373.5701376455376
 10
-242.7441476398853
 20
370.7269630600409
  0
LWPOLYLINE
  5
76
330
1F
100
AcDbEntity
  8
0_Pen_No__1
  6
Continuous
100
AcDbPolyline
 90
        2
 70
   128
 43
0.0
 10
-242.7441476398853
 20
370.7269630600409
 10
-242.7441476398853
 20
381.1469728406145
  0
LWPOLYLINE
  5
77
330
1F
100
AcDbEntity
  8
0_Pen_No__1
  6
Continuous
100
AcDbPolyline
 90
        2
 70
   128
 43
0.0
 10
-242.7441476398853
 20
381.1469728406145
 10
-245.9461837255832
 20
382.9956692447227
  0
LWPOLYLINE
  5
78
330
1F
100
AcDbEntity
  8
0_Pen_No__1
  6
Continuous
100
AcDbPolyline
 90
        2
 70
   128
 43
0.0
 10
-245.9461837255832
 20
382.9956692447227
 10
-245.9461837255832
 20
377.3910069481512
  0
LWPOLYLINE
  5
79
330
1F
100
AcDbEntity
  8
0_Pen_No__1
  6
Continuous
100
AcDbPolyline
 90
        2
 70
   128
 43
0.0
 10
-245.9461837255832
 20
377.3910069481512
 10
-253.7308482552385
 20
381.8854851295408
  0
LWPOLYLINE
  5
7A
330
1F
100
AcDbEntity
  8
0_Pen_No__1
  6
Continuous
100
AcDbPolyline
 90
        2
 70
   128
 43
0.0
 10
-253.7308482552385
 20
381.8854851295408
 10
-253.7308482552385
 20
358.0904731225418
  0
LWPOLYLINE
  5
7B
330
1F
100
AcDbEntity
  8
0_Pen_No__1
  6
Continuous
100
AcDbPolyline
 90
        2
 70
   128
 43
0.0
 10
-253.7308482552385
 20
358.0904731225418
 10
-253.9879040596116
 20
354.8951860000402
  0
LWPOLYLINE
  5
7C
330
1F
100
AcDbEntity
  8
0_Pen_No__1
  6
Continuous
100
AcDbPolyline
 90
        2
 70
   128
 43
0.0
 10
-253.9879040596116
 20
354.8951860000402
 10
-253.4885294786582
 20
347.9179864450401
  0
LWPOLYLINE
  5
7D
330
1F
100
AcDbEntity
  8
0_Pen_No__1
  6
Continuous
100
AcDbPolyline
 90
        2
 70
   128
 43
0.0
 10
-253.4885294786582
 20
347.9179864450401
 10
-251.9908419510584
 20
340.5661602590429
  0
LWPOLYLINE
  5
7E
330
1F
100
AcDbEntity
  8
0_Pen_No__1
  6
Continuous
100
AcDbPolyline
 90
        2
 70
   128
 43
0.0
 10
-251.9908419510584
 20
340.5661602590429
 10
-249.540347954055
 20
333.0630889600448
  0
LWPOLYLINE
  5
7F
330
1F
100
AcDbEntity
  8
0_Pen_No__1
  6
Continuous
100
AcDbPolyline
 90
        2
 70
   128
 43
0.0
 10
-249.540347954055
 20
333.0630889600448
 10
-246.2115045089863
 20
325.6367495725434
  0
LWPOLYLINE
  5
80
330
1F
100
AcDbEntity
  8
0_Pen_No__1
  6
Continuous
100
AcDbPolyline
 90
        2
 70
   128
 43
0.0
 10
-246.2115045089863
 20
325.6367495725434
 10
-242.1054568380145
 20
318.5127876610425
  0
LWPOLYLINE
  5
81
330
1F
100
AcDbEntity
  8
0_Pen_No__1
  6
Continuous
100
AcDbPolyline
 90
        2
 70
   128
 43
0.0
 10
-242.1054568380145
 20
318.5127876610425
 10
-240.7404672552409
 20
316.6515853675422
  0
LWPOLYLINE
  5
82
330
1F
100
AcDbEntity
  8
0_Pen_No__1
  6
Continuous
100
AcDbPolyline
 90
        2
 70
   128
 43
0.0
 10
-240.7404672552409
 20
316.6515853675422
 10
-240.7404672552431
 20
228.9614420915476
  0
LWPOLYLINE
  5
83
330
1F
100
AcDbEntity
  8
0_Pen_No__1
  6
Continuous
100
AcDbPolyline
 90
        2
 70
   128
 43
0.0
 10
-240.7404672552431
 20
228.9614420915476
 10
-253.7308482552385
 20
236.4614420915463
  0
LWPOLYLINE
  5
84
330
1F
100
AcDbEntity
  8
0_Pen_No__1
  6
Continuous
100
AcDbPolyline
 90
        2
 70
   128
 43
0.0
 10
-253.7308482552385
 20
236.4614420915463
 10
-254.2802162455908
 20
232.8239080430459
  0
LWPOLYLINE
  5
85
330
1F
100
AcDbEntity
  8
0_Pen_No__1
  6
Continuous
100
AcDbPolyline
 90
        2
 70
   128
 43
0.0
 10
-254.2802162455908
 20
232.8239080430459
 10
-254.1728113138913
 20
224.7523267215472
  0
LWPOLYLINE
  5
86
330
1F
100
AcDbEntity
  8
0_Pen_No__1
  6
Continuous
100
AcDbPolyline
 90
        2
 70
   128
 43
0.0
 10
-254.1728113138913
 20
224.7523267215472
 10
-252.8625289133029
 20
216.1294830885441
  0
LWPOLYLINE
  5
87
330
1F
100
AcDbEntity
  8
0_Pen_No__1
  6
Continuous
100
AcDbPolyline
 90
        2
 70
   128
 43
0.0
 10
-252.8625289133029
 20
216.1294830885441
 10
-250.3891813122636
 20
207.2173778830484
  0
LWPOLYLINE
  5
88
330
1F
100
AcDbEntity
  8
0_Pen_No__1
  6
Continuous
100
AcDbPolyline
 90
        2
 70
   128
 43
0.0
 10
-250.3891813122636
 20
207.2173778830484
 10
-246.8279199242667
 20
198.2868009130474
  0
LWPOLYLINE
  5
89
330
1F
100
AcDbEntity
  8
0_Pen_No__1
  6
Continuous
100
AcDbPolyline
 90
        2
 70
   128
 43
0.0
 10
-246.8279199242667
 20
198.2868009130474
 10
-242.2869518760091
 20
189.6091032395479
  0
LWPOLYLINE
  5
8A
330
1F
100
AcDbEntity
  8
0_Pen_No__1
  6
Continuous
100
AcDbPolyline
 90
        2
 70
   128
 43
0.0
 10
-242.2869518760091
 20
189.6091032395479
 10
-240.7404672552445
 20
187.3065137295522
  0
LWPOLYLINE
  5
8B
330
1F
100
AcDbEntity
  8
0_Pen_No__1
  6
Continuous
100
AcDbPolyline
 90
        2
 70
   128
 43
0.0
 10
-240.7404672552445
 20
187.3065137295522
 10
-240.7404672552462
 20
132.336259839493
  0
LWPOLYLINE
  5
8C
330
1F
100
AcDbEntity
  8
0_Pen_No__1
  6
Continuous
100
AcDbPolyline
 90
        2
 70
   128
 43
0.0
 10
-240.7404672552462
 20
132.336259839493
 10
-234.6782894552417
 20
128.8362598394905
  0
LWPOLYLINE
  5
8D
330
1F
100
AcDbEntity
  8
0_Pen_No__1
  6
Continuous
100
AcDbPolyline
 90
        2
 70
   128
 43
0.0
 10
-234.6782894552417
 20
128.8362598394905
 10
-234.6782894552417
 20
188.4614420915482
  0
LWPOLYLINE
  5
8E
330
1F
100
AcDbEntity
  8
0_Pen_No__1
  6
Continuous
100
AcDbPolyline
 90
        2
 70
   128
 43
0.0
 10
-234.6782894552417
 20
188.4614420915482
 10
-238.3408133391014
 20
194.0556614420474
  0
LWPOLYLINE
  5
8F
330
1F
100
AcDbEntity
  8
0_Pen_No__1
  6
Continuous
100
AcDbPolyline
 90
        2
 70
   128
 43
0.0
 10
-238.3408133391014
 20
194.0556614420474
 10
-241.9666639649089
 20
201.1621359000491
  0
LWPOLYLINE
  5
90
330
1F
100
AcDbEntity
  8
0_Pen_No__1
  6
Continuous
100
AcDbPolyline
 90
        2
 70
   128
 43
0.0
 10
-241.9666639649089
 20
201.1621359000491
 10
-244.7835427951124
 20
208.4524154660477
  0
LWPOLYLINE
  5
91
330
1F
100
AcDbEntity
  8
0_Pen_No__1
  6
Continuous
100
AcDbPolyline
 90
        2
 70
   128
 43
0.0
 10
-244.7835427951124
 20
208.4524154660477
 10
-246.7058603913403
 20
215.7049886835454
  0
LWPOLYLINE
  5
92
330
1F
100
AcDbEntity
  8
0_Pen_No__1
  6
Continuous
100
AcDbPolyline
 90
        2
 70
   128
 43
0.0
 10
-246.7058603913403
 20
215.7049886835454
 10
-247.6686704552393
 20
222.699489785545
  0
LWPOLYLINE
  5
93
330
1F
100
AcDbEntity
  8
0_Pen_No__1
  6
Continuous
100
AcDbPolyline
 90
        2
 70
   128
 43
0.0
 10
-60.65047352144104
 20
681.0656299283324
 10
-104.2989009289128
 20
671.3659793933382
  0
LWPOLYLINE
  5
94
330
1F
100
AcDbEntity
  8
0_Pen_No__1
  6
Continuous
100
AcDbPolyline
 90
        2
 70
   128
 43
0.0
 10
-104.2989009289128
 20
671.3659793933382
 10
-146.5616639742429
 20
640.881363426215
  0
LWPOLYLINE
  5
95
330
1F
100
AcDbEntity
  8
0_Pen_No__1
  6
Continuous
100
AcDbPolyline
 90
        2
 70
   128
 43
0.0
 10
-146.5616639742429
 20
640.881363426215
 10
-249.6033761310051
 20
574.7090874777991
  0
LWPOLYLINE
  5
96
330
1F
100
AcDbEntity
  8
0_Pen_No__1
  6
Continuous
100
AcDbPolyline
 90
        2
 70
   128
 43
0.0
 10
-249.6033761310051
 20
574.7090874777991
 10
-297.4280751802502
 20
547.8337327984497
  0
LWPOLYLINE
  5
97
330
1F
100
AcDbEntity
  8
0_Pen_No__1
  6
Continuous
100
AcDbPolyline
 90
        2
 70
   128
 43
0.0
 10
-297.4280751802502
 20
547.8337327984497
 10
-291.4420051357968
 20
491.5646743805877
  0
LWPOLYLINE
  5
98
330
1F
100
AcDbEntity
  8
0_Pen_No__1
  6
Continuous
100
AcDbPolyline
 90
        2
 70
   128
 43
0.0
 10
-291.4420051357968
 20
491.5646743805877
 10
-296.7159644438323
 20
399.4225456668395
  0
LWPOLYLINE
  5
99
330
1F
100
AcDbEntity
  8
0_Pen_No__1
  6
Continuous
100
AcDbPolyline
 90
        2
 70
   128
 43
0.0
 10
-296.7159644438323
 20
399.4225456668395
 10
-293.2518035384774
 20
321.132509205818
  0
LWPOLYLINE
  5
9A
330
1F
100
AcDbEntity
  8
0_Pen_No__1
  6
Continuous
100
AcDbPolyline
 90
        2
 70
   128
 43
0.0
 10
-293.2518035384774
 20
321.132509205818
 10
-291.0506947316725
 20
310.8220521634167
  0
LWPOLYLINE
  5
9B
330
1F
100
AcDbEntity
  8
0_Pen_No__1
  6
Continuous
100
AcDbPolyline
 90
        2
 70
   128
 43
0.0
 10
-291.0506947316725
 20
310.8220521634167
 10
-280.0879920981295
 20
259.4704450905004
  0
LWPOLYLINE
  5
9C
330
1F
100
AcDbEntity
  8
0_Pen_No__1
  6
Continuous
100
AcDbPolyline
 90
        2
 70
   128
 43
0.0
 10
-280.0879920981295
 20
259.4704450905004
 10
-274.4225327460362
 20
209.8555983650621
  0
LWPOLYLINE
  5
9D
330
1F
100
AcDbEntity
  8
0_Pen_No__1
  6
Continuous
100
AcDbPolyline
 90
        2
 70
   128
 43
0.0
 10
-274.4225327460362
 20
209.8555983650621
 10
-266.9241806577799
 20
152.7742892055691
  0
LWPOLYLINE
  5
9E
330
1F
100
AcDbEntity
  8
0_Pen_No__1
  6
Continuous
100
AcDbPolyline
 90
        2
 70
   128
 43
0.0
 10
-266.9241806577799
 20
152.7742892055691
 10
-264.8456841145671
 20
118.8255123330906
  0
LWPOLYLINE
  5
9F
330
1F
100
AcDbEntity
  8
0_Pen_No__1
  6
Continuous
100
AcDbPolyline
 90
        2
 70
   128
 43
0.0
 10
-264.8456841145671
 20
118.8255123330906
 10
-265.4305287054927
 20
113.8218419440618
  0
LWPOLYLINE
  5
A0
330
1F
100
AcDbEntity
  8
0_Pen_No__1
  6
Continuous
100
AcDbPolyline
 90
        2
 70
   128
 43
0.0
 10
-265.4305287054927
 20
113.8218419440618
 10
-248.9359147852848
 20
123.3450118710537
  0
LWPOLYLINE
  5
A1
330
1F
100
AcDbEntity
  8
0_Pen_No__1
  6
Continuous
100
AcDbPolyline
 90
        2
 70
   128
 43
0.0
 10
-217.4475200532449
 20
554.5045483862494
 10
-204.6217633840022
 20
565.7321559434998
  0
LWPOLYLINE
  5
A2
330
1F
100
AcDbEntity
  8
0_Pen_No__1
  6
Continuous
100
AcDbPolyline
 90
        2
 70
   128
 43
0.0
 10
-204.6217633840022
 20
565.7321559434998
 10
-162.2204339024589
 20
598.1567020176217
  0
LWPOLYLINE
  5
A3
330
1F
100
AcDbEntity
  8
0_Pen_No__1
  6
Continuous
100
AcDbPolyline
 90
        2
 70
   128
 43
0.0
 10
-162.2204339024589
 20
598.1567020176217
 10
-114.830712717203
 20
613.1218771287554
  0
LWPOLYLINE
  5
A4
330
1F
100
AcDbEntity
  8
0_Pen_No__1
  6
Continuous
100
AcDbPolyline
 90
        2
 70
   128
 43
0.0
 10
-114.830712717203
 20
613.1218771287554
 10
-89.99430482927329
 20
616.7862651777942
  0
LWPOLYLINE
  5
A5
330
1F
100
AcDbEntity
  8
0_Pen_No__1
  6
Continuous
100
AcDbPolyline
 90
        2
 70
   128
 43
0.0
 10
270.4464302012108
 20
480.0953363437094
 10
267.2274833494375
 20
484.2823837432106
  0
LWPOLYLINE
  5
A6
330
1F
100
AcDbEntity
  8
0_Pen_No__1
  6
Continuous
100
AcDbPolyline
 90
        2
 70
   128
 43
0.0
 10
267.2274833494375
 20
484.2823837432106
 10
263.9010397066506
 20
489.7537596182075
  0
LWPOLYLINE
  5
A7
330
1F
100
AcDbEntity
  8
0_Pen_No__1
  6
Continuous
100
AcDbPolyline
 90
        2
 70
   128
 43
0.0
 10
263.9010397066506
 20
489.7537596182075
 10
261.1591227048557
 20
495.50070413421
  0
LWPOLYLINE
  5
A8
330
1F
100
AcDbEntity
  8
0_Pen_No__1
  6
Continuous
100
AcDbPolyline
 90
        2
 70
   128
 43
0.0
 10
226.0465216147822
 20
583.8061085855481
 10
222.8275747630088
 20
587.9931559850493
  0
LWPOLYLINE
  5
A9
330
1F
100
AcDbEntity
  8
0_Pen_No__1
  6
Continuous
100
AcDbPolyline
 90
        2
 70
   128
 43
0.0
 10
222.8275747630088
 20
587.9931559850493
 10
219.5011311202224
 20
593.4645318600458
  0
LWPOLYLINE
  5
AA
330
1F
100
AcDbEntity
  8
0_Pen_No__1
  6
Continuous
100
AcDbPolyline
 90
        2
 70
   128
 43
0.0
 10
219.5011311202224
 20
593.4645318600458
 10
216.7592141184271
 20
599.2114763760487
  0
LWPOLYLINE
  5
AB
330
1F
100
AcDbEntity
  8
0_Pen_No__1
  6
Continuous
100
AcDbPolyline
 90
        2
 70
   128
 43
0.0
 10
216.7592141184271
 20
599.2114763760487
 10
214.685135518017
 20
605.0593715315471
  0
LWPOLYLINE
  5
AC
330
1F
100
AcDbEntity
  8
0_Pen_No__1
  6
Continuous
100
AcDbPolyline
 90
        2
 70
   128
 43
0.0
 10
51.9121530274691
 20
617.5349903228207
 10
48.69320617569617
 20
621.7220377223218
  0
LWPOLYLINE
  5
AD
330
1F
100
AcDbEntity
  8
0_Pen_No__1
  6
Continuous
100
AcDbPolyline
 90
        2
 70
   128
 43
0.0
 10
48.69320617569617
 20
621.7220377223218
 10
45.36676253290928
 20
627.1934135973179
  0
LWPOLYLINE
  5
AE
330
1F
100
AcDbEntity
  8
0_Pen_No__1
  6
Continuous
100
AcDbPolyline
 90
        2
 70
   128
 43
0.0
 10
45.36676253290928
 20
627.1934135973179
 10
42.62484553111356
 20
632.9403581133213
  0
LWPOLYLINE
  5
AF
330
1F
100
AcDbEntity
  8
0_Pen_No__1
  6
Continuous
100
AcDbPolyline
 90
        2
 70
   128
 43
0.0
 10
42.62484553111356
 20
632.9403581133213
 10
40.55076693070436
 20
638.7882532688196
  0
LWPOLYLINE
  5
B0
330
1F
100
AcDbEntity
  8
0_Pen_No__1
  6
Continuous
100
AcDbPolyline
 90
        2
 70
   128
 43
0.0
 10
40.55076693070436
 20
638.7882532688196
 10
40.10199791722702
 20
640.7163940609526
  0
LWPOLYLINE
  5
B1
330
1F
100
AcDbEntity
  8
0_Pen_No__1
  6
Continuous
100
AcDbPolyline
 90
        2
 70
   128
 43
0.0
 10
261.1591227048557
 20
495.50070413421
 10
258.4411451841597
 20
503.1640817771253
  0
LWPOLYLINE
  5
B2
330
1F
100
AcDbEntity
  8
0_Pen_No__1
  6
Continuous
100
AcDbPolyline
 90
        2
 70
   128
 43
0.0
 10
300.4360202731023
 20
361.9098343202653
 10
297.2170734213298
 20
366.0968817197664
  0
LWPOLYLINE
  5
B3
330
1F
100
AcDbEntity
  8
0_Pen_No__1
  6
Continuous
100
AcDbPolyline
 90
        2
 70
   128
 43
0.0
 10
297.2170734213298
 20
366.0968817197664
 10
293.8906297785429
 20
371.5682575947629
  0
LWPOLYLINE
  5
B4
330
1F
100
AcDbEntity
  8
0_Pen_No__1
  6
Continuous
100
AcDbPolyline
 90
        2
 70
   128
 43
0.0
 10
293.8906297785429
 20
371.5682575947629
 10
291.1487127767471
 20
377.3152021107659
  0
LWPOLYLINE
  5
B5
330
1F
100
AcDbEntity
  8
0_Pen_No__1
  6
Continuous
100
AcDbPolyline
 90
        2
 70
   128
 43
0.0
 10
291.1487127767471
 20
377.3152021107659
 10
288.4307352560515
 20
384.9785797536811
  0
LWPOLYLINE
  5
B6
330
1F
100
AcDbEntity
  8
0_Pen_No__1
  6
Continuous
100
AcDbPolyline
 90
        2
 70
   128
 43
0.0
 10
261.375330410206
 20
203.858134304872
 10
258.156383558433
 20
208.0451817043731
  0
LWPOLYLINE
  5
B7
330
1F
100
AcDbEntity
  8
0_Pen_No__1
  6
Continuous
100
AcDbPolyline
 90
        2
 70
   128
 43
0.0
 10
258.156383558433
 20
208.0451817043731
 10
254.8299399156462
 20
213.51655757937
  0
LWPOLYLINE
  5
B8
330
1F
100
AcDbEntity
  8
0_Pen_No__1
  6
Continuous
100
AcDbPolyline
 90
        2
 70
   128
 43
0.0
 10
254.8299399156462
 20
213.51655757937
 10
252.0880229138509
 20
219.2635020953726
  0
LWPOLYLINE
  5
B9
330
1F
100
AcDbEntity
  8
0_Pen_No__1
  6
Continuous
100
AcDbPolyline
 90
        2
 70
   128
 43
0.0
 10
252.0880229138509
 20
219.2635020953726
 10
249.3700453931549
 20
226.9268797382877
  0
LWPOLYLINE
  5
BA
330
1F
100
AcDbEntity
  8
0_Pen_No__1
  6
Continuous
100
AcDbPolyline
 90
        2
 70
   128
 43
0.0
 10
-256.1693217647338
 20
127.1968865347817
 10
-256.1693217647338
 20
184.2729344164069
  0
LWPOLYLINE
  5
BB
330
1F
100
AcDbEntity
  8
0_Pen_No__1
  6
Continuous
100
AcDbPolyline
 90
        2
 70
   128
 43
0.0
 10
-248.9359147852848
 20
120.8783704602248
 10
-256.1693217647338
 20
127.1968865347817
  0
LWPOLYLINE
  5
BC
330
1F
100
AcDbEntity
  8
0_Pen_No__1
  6
Continuous
100
AcDbPolyline
 90
        2
 70
   128
 43
0.0
 10
-248.9359147852848
 20
125.8124123329982
 10
-256.1693217647338
 20
132.1309284075551
  0
LWPOLYLINE
  5
BD
330
1F
100
AcDbEntity
  8
0_Pen_No__1
  6
Continuous
100
AcDbPolyline
 90
        2
 70
   128
 43
0.0
 10
261.375330410206
 20
203.858134304872
 10
130.2303950352153
 20
128.1415702323925
  0
LWPOLYLINE
  5
BE
330
1F
100
AcDbEntity
  8
0_Pen_No__1
  6
Continuous
100
AcDbPolyline
 90
        2
 70
   128
 43
0.0
 10
253.8570351407552
 20
229.5174444882364
 10
132.0587485484448
 20
159.1971706300397
  0
LWPOLYLINE
  5
BF
330
1F
100
AcDbEntity
  8
0_Pen_No__1
  6
Continuous
100
AcDbPolyline
 90
        2
 70
   128
 43
0.0
 10
300.4360202731023
 20
361.9098343202653
 10
130.7765566510595
 20
263.9568967896997
  0
LWPOLYLINE
  5
C0
330
1F
100
AcDbEntity
  8
0_Pen_No__1
  6
Continuous
100
AcDbPolyline
 90
        2
 70
   128
 43
0.0
 10
293.4477486886302
 20
387.8751538221656
 10
130.7765566510604
 20
293.9568967896971
  0
LWPOLYLINE
  5
C1
330
1F
100
AcDbEntity
  8
0_Pen_No__1
  6
Continuous
100
AcDbPolyline
 90
        2
 70
   128
 43
0.0
 10
-240.7404672551774
 20
243.9614420915825
 10
-253.7308482552385
 20
236.4614420915467
  0
LWPOLYLINE
  5
C2
330
1F
100
AcDbEntity
  8
0_Pen_No__1
  6
Continuous
100
AcDbPolyline
 90
        2
 70
   128
 43
0.0
 10
-240.7404672551774
 20
507.5719204852338
 10
-253.7308482552385
 20
500.071920485198
  0
LWPOLYLINE
  5
C3
330
1F
100
AcDbEntity
  8
0_Pen_No__1
  6
Continuous
100
AcDbPolyline
 90
        2
 70
   128
 43
0.0
 10
-240.7404672551627
 20
402.916992123242
 10
-252.8648228552388
 20
395.916992123198
  0
LWPOLYLINE
  5
C4
330
1F
100
AcDbEntity
  8
0_Pen_No__1
  6
Continuous
100
AcDbPolyline
 90
        2
 70
   128
 43
0.0
 10
264.1947742330104
 20
506.4859410718128
 10
-234.6782894552417
 20
218.461442091546
  0
LWPOLYLINE
  5
C5
330
1F
100
AcDbEntity
  8
0_Pen_No__1
  6
Continuous
100
AcDbPolyline
 90
        2
 70
   128
 43
0.0
 10
270.4464302012108
 20
480.0953363437094
 10
-234.6782894552417
 20
188.4614420915482
  0
LWPOLYLINE
  5
C6
330
1F
100
AcDbEntity
  8
0_Pen_No__1
  6
Continuous
100
AcDbPolyline
 90
        2
 70
   128
 43
0.0
 10
51.9121530274691
 20
617.5349903228207
 10
-234.6782894552417
 20
452.0719204851997
  0
LWPOLYLINE
  5
C7
330
1F
100
AcDbEntity
  8
0_Pen_No__1
  6
Continuous
100
AcDbPolyline
 90
        2
 70
   128
 43
0.0
 10
226.0465216147822
 20
583.8061085855481
 10
-234.6782894552417
 20
317.8065137295443
  0
LWPOLYLINE
  5
C8
330
1F
100
AcDbEntity
  8
0_Pen_No__1
  6
Continuous
100
AcDbPolyline
 90
        2
 70
   128
 43
0.0
 10
220.0682109572894
 20
613.9650076967249
 10
-234.6782894552417
 20
351.4169921232058
  0
LWPOLYLINE
  5
C9
330
1F
100
AcDbEntity
  8
0_Pen_No__1
  6
Continuous
100
AcDbPolyline
 90
        2
 70
   128
 43
0.0
 10
46.13131824905636
 20
644.1974237927761
 10
-234.6782894552417
 20
482.0719204851973
  0
LWPOLYLINE
  5
CA
330
1F
100
AcDbEntity
  8
0_Pen_No__1
  6
Continuous
100
AcDbPolyline
 90
        2
 70
   128
 43
0.0
 10
154.1028859055502
 20
353.29917707078
 10
-234.6782894552417
 20
128.836259839491
  0
LWPOLYLINE
  5
CB
330
1F
100
AcDbEntity
  8
0_Pen_No__1
  6
Continuous
100
AcDbPolyline
 90
        2
 70
   128
 43
0.0
 10
147.2243184825128
 20
-5.000000016393891
 10
147.2243184825128
 20
71.4079475157714
  0
LWPOLYLINE
  5
CC
330
1F
100
AcDbEntity
  8
0_Pen_No__1
  6
Continuous
100
AcDbPolyline
 90
        2
 70
   128
 43
0.0
 10
80.01649367735286
 20
-40.91198208265467
 10
101.6671287483173
 20
-53.41198212361164
  0
LWPOLYLINE
  5
CD
330
1F
100
AcDbEntity
  8
0_Pen_No__1
  6
Continuous
100
AcDbPolyline
 90
        2
 70
   128
 43
0.0
 10
80.01649367735286
 20
268.6277404503583
 10
80.01649367735286
 20
-40.91198208265467
  0
LWPOLYLINE
  5
CE
330
1F
100
AcDbEntity
  8
0_Pen_No__1
  6
Continuous
100
AcDbPolyline
 90
        2
 70
   128
 43
0.0
 10
101.6671287483173
 20
281.1277404913293
 10
101.6671287483173
 20
-53.41198212361164
  0
LWPOLYLINE
  5
CF
330
1F
100
AcDbEntity
  8
0_Pen_No__1
  6
Continuous
100
AcDbPolyline
 90
        2
 70
   128
 43
0.0
 10
-255.5145736795983
 20
160.2821306524516
 10
-253.2999698871645
 20
161.5607327537492
  0
LWPOLYLINE
  5
D0
330
1F
100
AcDbEntity
  8
0_Pen_No__1
  6
Continuous
100
AcDbPolyline
 90
        2
 70
   128
 43
0.0
 10
-255.5145736795983
 20
216.4313389395875
 10
-255.5145736795983
 20
160.2821306524516
  0
LWPOLYLINE
  5
D1
330
1F
100
AcDbEntity
  8
0_Pen_No__1
  6
Continuous
100
AcDbPolyline
 90
        2
 70
   128
 43
0.0
 10
-257.8240142831678
 20
305.0256794754476
 10
-257.8240142831678
 20
222.2049404485125
  0
LWPOLYLINE
  5
D2
330
1F
100
AcDbEntity
  8
0_Pen_No__1
  6
Continuous
100
AcDbPolyline
 90
        2
 70
   128
 43
0.0
 10
130.7765566510604
 20
-14.49611977884668
 10
147.2243184825128
 20
-5.000000016393891
  0
LWPOLYLINE
  5
D3
330
1F
100
AcDbEntity
  8
0_Pen_No__1
  6
Continuous
100
AcDbPolyline
 90
        2
 70
   128
 43
0.0
 10
77.94228625544575
 20
-45.0000001474904
 10
82.51971744620734
 20
-42.35721900575862
  0
LWPOLYLINE
  5
D4
330
1F
100
AcDbEntity
  8
0_Pen_No__1
  6
Continuous
100
AcDbPolyline
 90
        2
 70
   128
 43
0.0
 10
0.0
 20
0.0
 10
77.94228625544575
 20
-45.0000001474904
  0
LWPOLYLINE
  5
D6
330
1F
100
AcDbEntity
  8
0_Pen_No__1
  6
DASHED2
100
AcDbPolyline
 90
        2
 70
   128
 43
0.0
 10
77.94228625544531
 20
207.476188316962
 10
134.7795663008951
 20
240.2912073946051
  0
LWPOLYLINE
  5
D7
330
1F
100
AcDbEntity
  8
0_Pen_No__1
  6
Continuous
100
AcDbPolyline
 90
        2
 70
   128
 43
0.0
 10
-250.2009823557279
 20
124.4500720179467
 10
-235.2826754067818
 20
111.4186523107601
  0
LWPOLYLINE
  5
D8
330
1F
100
AcDbEntity
  8
0_Pen_No__1
  6
Continuous
100
AcDbPolyline
 90
        2
 70
   128
 43
0.0
 10
-235.2826754067818
 20
111.4186523107601
 10
-235.2826754067818
 20
96.41865231076041
  0
LWPOLYLINE
  5
D9
330
1F
100
AcDbEntity
  8
0_Pen_No__1
  6
Continuous
100
AcDbPolyline
 90
        2
 70
   128
 43
0.0
 10
-240.7404672552418
 20
534.114011065129
 10
-204.6217633840035
 20
565.7321559434996
  0
LWPOLYLINE
  5
DA
330
1F
100
AcDbEntity
  8
0_Pen_No__1
  6
Continuous
100
AcDbPolyline
 90
        2
 70
   128
 43
0.0
 10
-204.6217633840035
 20
565.7321559434996
 10
-162.2204339024589
 20
598.1567020176217
  0
LWPOLYLINE
  5
DB
330
1F
100
AcDbEntity
  8
0_Pen_No__1
  6
Continuous
100
AcDbPolyline
 90
        2
 70
   128
 43
0.0
 10
-162.2204339024589
 20
598.1567020176217
 10
-114.830712717203
 20
613.1218771287554
  0
LWPOLYLINE
  5
DC
330
1F
100
AcDbEntity
  8
0_Pen_No__1
  6
Continuous
100
AcDbPolyline
 90
        2
 70
   128
 43
0.0
 10
-114.830712717203
 20
613.1218771287554
 10
-64.11539706280678
 20
620.6044646843217
  0
LWPOLYLINE
  5
DD
330
1F
100
AcDbEntity
  8
0_Pen_No__1
  6
Continuous
100
AcDbPolyline
 90
        2
 70
   128
 43
0.0
 10
-234.6782894552417
 20
530.6140110651287
 10
-198.559585584003
 20
562.2321559434993
  0
LWPOLYLINE
  5
DE
330
1F
100
AcDbEntity
  8
0_Pen_No__1
  6
Continuous
100
AcDbPolyline
 90
        2
 70
   128
 43
0.0
 10
-198.559585584003
 20
562.2321559434993
 10
-156.1582561024588
 20
594.6567020176215
  0
LWPOLYLINE
  5
DF
330
1F
100
AcDbEntity
  8
0_Pen_No__1
  6
Continuous
100
AcDbPolyline
 90
        2
 70
   128
 43
0.0
 10
-156.1582561024588
 20
594.6567020176215
 10
-108.768534917203
 20
609.6218771287547
  0
LWPOLYLINE
  5
E0
330
1F
100
AcDbEntity
  8
0_Pen_No__1
  6
Continuous
100
AcDbPolyline
 90
        2
 70
   128
 43
0.0
 10
-108.768534917203
 20
609.6218771287547
 10
-58.05321926280671
 20
617.1044646843216
  0
LWPOLYLINE
  5
E1
330
1F
100
AcDbEntity
  8
0_Pen_No__1
  6
Continuous
100
AcDbPolyline
 90
        2
 70
   128
 43
0.0
 10
-264.8456841145671
 20
118.8255123330895
 10
-266.9241806577799
 20
152.7742892055682
  0
LWPOLYLINE
  5
E2
330
1F
100
AcDbEntity
  8
0_Pen_No__1
  6
Continuous
100
AcDbPolyline
 90
        2
 70
   128
 43
0.0
 10
-266.9241806577799
 20
152.7742892055682
 10
-274.422532746034
 20
209.855598365039
  0
LWPOLYLINE
  5
E3
330
1F
100
AcDbEntity
  8
0_Pen_No__1
  6
Continuous
100
AcDbPolyline
 90
        2
 70
   128
 43
0.0
 10
-274.422532746034
 20
209.855598365039
 10
-280.0879920981286
 20
259.4704450904999
  0
LWPOLYLINE
  5
E4
330
1F
100
AcDbEntity
  8
0_Pen_No__1
  6
Continuous
100
AcDbPolyline
 90
        2
 70
   128
 43
0.0
 10
-280.0879920981286
 20
259.4704450904999
 10
-293.2518035384774
 20
321.132509205818
  0
LWPOLYLINE
  5
E5
330
1F
100
AcDbEntity
  8
0_Pen_No__1
  6
Continuous
100
AcDbPolyline
 90
        2
 70
   128
 43
0.0
 10
-293.2518035384774
 20
321.132509205818
 10
-296.7159644438323
 20
399.4225456668395
  0
LWPOLYLINE
  5
E6
330
1F
100
AcDbEntity
  8
0_Pen_No__1
  6
Continuous
100
AcDbPolyline
 90
        2
 70
   128
 43
0.0
 10
-249.6033761310051
 20
574.7090874777991
 10
-146.5616639742429
 20
640.881363426215
  0
LWPOLYLINE
  5
E7
330
1F
100
AcDbEntity
  8
0_Pen_No__1
  6
Continuous
100
AcDbPolyline
 90
        2
 70
   128
 43
0.0
 10
-146.5616639742429
 20
640.881363426215
 10
-104.2989009289128
 20
671.3659793933382
  0
LWPOLYLINE
  5
E8
330
1F
100
AcDbEntity
  8
0_Pen_No__1
  6
Continuous
100
AcDbPolyline
 90
        2
 70
   128
 43
0.0
 10
-104.2989009289128
 20
671.3659793933382
 10
-60.65047352144104
 20
681.0656299283324
  0
LWPOLYLINE
  5
E9
330
1F
100
AcDbEntity
  8
0_Pen_No__1
  6
Continuous
100
AcDbPolyline
 90
        2
 70
   128
 43
0.0
 10
-292.491065846388
 20
101.0521417081339
 10
-370.4333521018338
 20
146.0521418556238
  0
LWPOLYLINE
  5
EA
330
1F
100
AcDbEntity
  8
0_Pen_No__1
  6
Continuous
100
AcDbPolyline
 90
        2
 70
   128
 43
0.0
 10
-265.4305287054927
 20
113.8218419440614
 10
-264.8456841145671
 20
118.8255123330895
  0
LWPOLYLINE
  5
EB
330
1F
100
AcDbEntity
  8
0_Pen_No__1
  6
Continuous
100
AcDbPolyline
 90
        2
 70
   128
 43
0.0
 10
-292.491065846388
 20
101.0521417081339
 10
-265.0728407125752
 20
116.882061439017
  0
LWPOLYLINE
  5
EC
330
1F
100
AcDbEntity
  8
0_Pen_No__1
  6
Continuous
100
AcDbPolyline
 90
        2
 70
   128
 43
0.0
 10
77.94228625544531
 20
276.0894745388587
 10
77.94228625544575
 20
-45.0000001474904
  0
LWPOLYLINE
  5
ED
330
1F
100
AcDbEntity
  8
0_Pen_No__1
  6
DASHED2
100
AcDbPolyline
 90
        2
 70
   128
 43
0.0
 10
77.94228625544531
 20
276.0894745388587
 10
77.94228625544531
 20
314.9219382938948
  0
LWPOLYLINE
  5
EE
330
1F
100
AcDbEntity
  8
0_Pen_No__1
  6
DASHED2
100
AcDbPolyline
 90
        2
 70
   128
 43
0.0
 10
18.5214376098175
 20
241.7828314279134
 10
0.0
 20
252.4761884644513
  0
LWPOLYLINE
  5
EF
330
1F
100
AcDbEntity
  8
0_Pen_No__1
  6
DASHED2
100
AcDbPolyline
 90
        2
 70
   128
 43
0.0
 10
-10.46398909888602
 20
263.8805511969746
 10
77.94228625544531
 20
314.9219382938948
  0
LWPOLYLINE
  5
F0
330
1F
100
AcDbEntity
  8
0_Pen_No__1
  6
DASHED2
100
AcDbPolyline
 90
        2
 70
   128
 43
0.0
 10
-10.46398909888602
 20
357.3545181166962
 10
-10.46398909888602
 20
263.8805511969746
  0
LWPOLYLINE
  5
F1
330
1F
100
AcDbEntity
  8
0_Pen_No__1
  6
DASHED2
100
AcDbPolyline
 90
        2
 70
   128
 43
0.0
 10
0.0
 20
252.4761884644513
 10
0.0
 20
269.9219381464139
  0
LWPOLYLINE
  5
F2
330
1F
100
AcDbEntity
  8
0_Pen_No__1
  6
DASHED2
100
AcDbPolyline
 90
        2
 70
   128
 43
0.0
 10
134.7795663008951
 20
240.2912073946051
 10
134.7795663008951
 20
441.2109242912608
  0
LWPOLYLINE
  5
F3
330
1F
100
AcDbEntity
  8
0_Pen_No__1
  6
Continuous
100
AcDbPolyline
 90
        2
 70
   128
 43
0.0
 10
-292.491065846388
 20
251.0521417081333
 10
-370.4333521018338
 20
296.0521418556242
  0
LWPOLYLINE
  5
F4
330
1F
100
AcDbEntity
  8
0_Pen_No__1
  6
Continuous
100
AcDbPolyline
 90
        2
 70
   128
 43
0.0
 10
-370.4333521018338
 20
146.0521418556238
 10
-370.4333521018338
 20
296.0521418556242
  0
LWPOLYLINE
  5
F5
330
1F
100
AcDbEntity
  8
0_Pen_No__1
  6
Continuous
100
AcDbPolyline
 90
        2
 70
   128
 43
0.0
 10
-331.4622089741116
 20
123.5521417818788
 10
-331.4622089741116
 20
273.5521417818787
  0
LWPOLYLINE
  5
F6
330
1F
100
AcDbEntity
  8
0_Pen_No__1
  6
Continuous
100
AcDbPolyline
 90
        2
 70
   128
 43
0.0
 10
-292.491065846388
 20
101.0521417081339
 10
-292.491065846388
 20
251.0521417081338
  0
LWPOLYLINE
  5
F7
330
1F
100
AcDbEntity
  8
0_Pen_No__1
  6
Continuous
100
AcDbPolyline
 90
        2
 70
   128
 43
0.0
 10
-292.491065846388
 20
251.0521417081333
 10
-279.8490163584187
 20
258.3510324150163
  0
LWPOLYLINE
  5
F8
330
1F
100
AcDbEntity
  8
0_Pen_No__1
  6
Continuous
100
AcDbPolyline
 90
        2
 70
   128
 43
0.0
 10
-370.4333521018338
 20
296.0521418556242
 10
-331.4622089741116
 20
123.5521417818788
  0
LWPOLYLINE
  5
F9
330
1F
100
AcDbEntity
  8
0_Pen_No__1
  6
Continuous
100
AcDbPolyline
 90
        2
 70
   128
 43
0.0
 10
-331.4622089741116
 20
273.5521417818787
 10
-370.4333521018338
 20
146.0521418556238
  0
LWPOLYLINE
  5
FA
330
1F
100
AcDbEntity
  8
0_Pen_No__1
  6
Continuous
100
AcDbPolyline
 90
        2
 70
   128
 43
0.0
 10
-292.491065846388
 20
101.0521417081339
 10
-331.4622089741116
 20
273.5521417818787
  0
LWPOLYLINE
  5
FB
330
1F
100
AcDbEntity
  8
0_Pen_No__1
  6
Continuous
100
AcDbPolyline
 90
        2
 70
   128
 43
0.0
 10
-331.4622089741116
 20
123.5521417818788
 10
-292.491065846388
 20
251.0521417081333
  0
LWPOLYLINE
  5
FC
330
1F
100
AcDbEntity
  8
0_Pen_No__1
  6
Continuous
100
AcDbPolyline
 90
        2
 70
   128
 43
0.0
 10
-370.4333521018338
 20
296.0521418556242
 10
-294.0922974023438
 20
340.1276705291987
  0
LWPOLYLINE
  5
FD
330
1F
100
AcDbEntity
  8
0_Pen_No__1
  6
Continuous
100
AcDbPolyline
 90
        2
 70
   128
 43
0.0
 10
-242.9666337232543
 20
151.6632281788302
 10
-240.7404672552458
 20
152.9485059940128
  0
LWPOLYLINE
  5
FE
330
1F
100
AcDbEntity
  8
0_Pen_No__1
  6
Continuous
100
AcDbPolyline
 90
        2
 70
   128
 43
0.0
 10
-253.299969887165
 20
179.6535284932195
 10
-242.9666337232543
 20
141.7533737485361
  0
LWPOLYLINE
  5
FF
330
1F
100
AcDbEntity
  8
0_Pen_No__1
  6
Continuous
100
AcDbPolyline
 90
        2
 70
   128
 43
0.0
 10
-253.299969887165
 20
147.7193281904685
 10
-242.9666337232543
 20
173.6875740512871
  0
LWPOLYLINE
  5
100
330
1F
100
AcDbEntity
  8
0_Pen_No__1
  6
Continuous
100
AcDbPolyline
 90
        2
 70
   128
 43
0.0
 10
-253.299969887165
 20
179.6535284932195
 10
-242.9666337232543
 20
173.6875740512871
  0
LWPOLYLINE
  5
101
330
1F
100
AcDbEntity
  8
0_Pen_No__1
  6
Continuous
100
AcDbPolyline
 90
        2
 70
   128
 43
0.0
 10
-253.299969887165
 20
179.6535284932195
 10
-253.299969887165
 20
147.7193281904685
  0
LWPOLYLINE
  5
102
330
1F
100
AcDbEntity
  8
0_Pen_No__1
  6
Continuous
100
AcDbPolyline
 90
        2
 70
   128
 43
0.0
 10
-253.299969887165
 20
147.7193281904685
 10
-242.9666337232543
 20
141.7533737485361
  0
LWPOLYLINE
  5
103
330
1F
100
AcDbEntity
  8
0_Pen_No__1
  6
Continuous
100
AcDbPolyline
 90
        2
 70
   128
 43
0.0
 10
-242.9666337232543
 20
141.7533737485361
 10
-242.9666337232543
 20
173.6875740512871
  0
LWPOLYLINE
  5
104
330
1F
100
AcDbEntity
  8
0_Pen_No__1
  6
Continuous
100
AcDbPolyline
 90
        2
 70
   128
 43
0.0
 10
-242.9666337232543
 20
173.6875740512871
 10
-240.7404672552445
 20
174.9728518664697
  0
LWPOLYLINE
  5
105
330
1F
100
AcDbEntity
  8
0_Pen_No__1
  6
Continuous
100
AcDbPolyline
 90
        2
 70
   128
 43
0.0
 10
-253.299969887165
 20
179.6535284932195
 10
-240.7404672552445
 20
186.9047607503336
  0
LWPOLYLINE
  5
106
330
1F
100
AcDbEntity
  8
0_Pen_No__1
  6
Continuous
100
AcDbPolyline
 90
        2
 70
   128
 43
0.0
 10
-255.5145736795992
 20
160.2821306524516
 10
-253.2999698871645
 20
161.5607327537492
  0
LWPOLYLINE
  5
107
330
1F
100
AcDbEntity
  8
0_Pen_No__1
  6
Continuous
100
AcDbPolyline
 90
        2
 70
   128
 43
0.0
 10
-250.2634313747998
 20
124.504622402291
 10
-238.719552370815
 20
131.1694840818587
  0
LWPOLYLINE
  5
108
330
1F
100
AcDbEntity
  8
0_Pen_No__1
  6
Continuous
100
AcDbPolyline
 90
        2
 70
   128
 43
0.0
 10
-235.2826754067818
 20
96.41865231076041
 10
-230.2942837030706
 20
89.46972881443082
  0
LWPOLYLINE
  5
109
330
1F
100
AcDbEntity
  8
0_Pen_No__1
  6
Continuous
100
AcDbPolyline
 90
        2
 70
   128
 43
0.0
 10
165.0626082732472
 20
343.7256549186709
 10
165.6343580356299
 20
342.8882105029296
  0
LWPOLYLINE
  5
10B
330
1F
100
AcDbEntity
  8
0_Pen_No__1
  6
AStair_dashed
100
AcDbPolyline
 90
        2
 70
   128
 43
0.0
 10
-74.40584757818326
 20
264.8453028766187
 10
-39.76483146464993
 20
284.8453029421656
  0
LWPOLYLINE
  5
10C
330
1F
100
AcDbEntity
  8
0_Pen_No__1
  6
AStair_dashed
100
AcDbPolyline
 90
        2
 70
   128
 43
0.0
 10
-89.99430482927283
 20
273.8453029061172
 10
-74.40584757818326
 20
264.8453028766187
  0
LWPOLYLINE
  5
10D
330
1F
100
AcDbEntity
  8
0_Pen_No__1
  6
Continuous
100
AcDbPolyline
 90
        2
 70
   128
 43
0.0
 10
-256.1693217647338
 20
129.6635279456111
 10
-250.2009823557279
 20
124.4500720179467
  0
LWPOLYLINE
  5
10E
330
1F
100
AcDbEntity
  8
0_Pen_No__1
  6
Continuous
100
AcDbPolyline
 90
        2
 70
   128
 43
0.0
 10
3.844674057032371
 20
639.9395723443193
 10
34.43949898895227
 20
645.2387242710147
  0
LWPOLYLINE
  5
10F
330
1F
100
AcDbEntity
  8
0_Pen_No__1
  6
Continuous
100
AcDbPolyline
 90
        2
 70
   128
 43
0.0
 10
-243.3635057313053
 20
191.6663757828081
 10
-256.1693217647338
 20
184.2729344164069
  0
LWPOLYLINE
  5
110
330
1F
100
AcDbEntity
  8
0_Pen_No__1
  6
Continuous
100
AcDbPolyline
 90
        2
 70
   128
 43
0.0
 10
-256.1693217647338
 20
129.6635279456111
 10
-240.7404672552458
 20
138.5713812888789
  0
LWPOLYLINE
  5
111
330
1F
100
AcDbEntity
  8
0_Pen_No__1
  6
Continuous
100
AcDbPolyline
 90
        2
 70
   128
 43
0.0
 10
-248.5106886493131
 20
122.9735689005298
 10
-236.5172497867878
 20
129.8979840865773
  0
LWPOLYLINE
  5
112
330
1F
100
AcDbEntity
  8
0_Pen_No__1
  6
Continuous
100
AcDbPolyline
 90
        2
 70
   128
 43
0.0
 10
165.6343580356294
 20
342.8882105029301
 10
165.6343580356299
 20
327.8882105029352
  0
LWPOLYLINE
  5
113
330
1F
100
AcDbEntity
  8
0_Pen_No__1
  6
Continuous
100
AcDbPolyline
 90
        2
 70
   128
 43
0.0
 10
164.2140378284904
 20
343.7261965052909
 10
165.0626082732472
 20
343.7256549186709
  0
LWPOLYLINE
  5
114
330
1F
100
AcDbEntity
  8
0_Pen_No__1
  6
Continuous
100
AcDbPolyline
 90
        2
 70
   128
 43
0.0
 10
163.5159798946271
 20
341.6651643076372
 10
-235.2826754067818
 20
111.4186523107601
  0
LWPOLYLINE
  5
115
330
1F
100
AcDbEntity
  8
0_Pen_No__1
  6
Continuous
100
AcDbPolyline
 90
        2
 70
   128
 43
0.0
 10
163.5159798946311
 20
341.6651643076336
 10
163.5887219562595
 20
342.8304737693924
  0
LWPOLYLINE
  5
116
330
1F
100
AcDbEntity
  8
0_Pen_No__1
  6
Continuous
100
AcDbPolyline
 90
        2
 70
   128
 43
0.0
 10
142.7020755983071
 20
361.0753494042431
 10
143.3273914705375
 20
361.9710721401419
  0
LWPOLYLINE
  5
117
330
1F
100
AcDbEntity
  8
0_Pen_No__1
  6
Continuous
100
AcDbPolyline
 90
        2
 70
   128
 43
0.0
 10
143.3273914705375
 20
361.9710721401419
 10
144.1759619152951
 20
361.9705305535219
  0
LWPOLYLINE
  5
118
330
1F
100
AcDbEntity
  8
0_Pen_No__1
  6
Continuous
100
AcDbPolyline
 90
        2
 70
   128
 43
0.0
 10
163.5887219562595
 20
342.8304737693924
 10
164.2140378284904
 20
343.7261965052909
  0
LWPOLYLINE
  5
119
330
1F
100
AcDbEntity
  8
0_Pen_No__1
  6
Continuous
100
AcDbPolyline
 90
        2
 70
   128
 43
0.0
 10
-235.2826754067818
 20
96.41865231076041
 10
165.6343580356299
 20
327.8882105029352
  0
LWPOLYLINE
  5
11A
330
1F
100
AcDbEntity
  8
0_Pen_No__1
  6
Continuous
100
AcDbPolyline
 90
        2
 70
   128
 43
0.0
 10
165.6343580356299
 20
327.8882105029352
 10
170.6227497393415
 20
320.9392870066065
  0
LWPOLYLINE
  5
11B
330
1F
100
AcDbEntity
  8
0_Pen_No__1
  6
DASHED2
100
AcDbPolyline
 90
        2
 70
   128
 43
0.0
 10
134.7795663008951
 20
441.2109242912608
 10
-10.46398909888602
 20
357.3545181166962
  0
LWPOLYLINE
  5
11C
330
1F
100
AcDbEntity
  8
0_Pen_No__1
  6
Continuous
100
AcDbPolyline
 90
        2
 70
   128
 43
0.0
 10
-256.1693217647338
 20
129.6635279456111
 10
-240.7404672552458
 20
138.5713812888769
  0
LWPOLYLINE
  5
11D
330
1F
100
AcDbEntity
  8
0_Pen_No__1
  6
Continuous
100
AcDbPolyline
 90
        2
 70
   128
 43
0.0
 10
154.1028859055502
 20
353.2991770707805
 10
165.0626082732472
 20
343.7256549186714
  0
LWPOLYLINE
  5
11E
330
1F
100
AcDbEntity
  8
0_Pen_No__1
  6
Continuous
100
AcDbPolyline
 90
        2
 70
   128
 43
0.0
 10
142.6293335366786
 20
359.9100399424846
 10
148.5352239266073
 20
354.751134399169
  0
LWPOLYLINE
  5
11F
330
1F
100
AcDbEntity
  8
0_Pen_No__1
  6
Continuous
100
AcDbPolyline
 90
        2
 70
   128
 43
0.0
 10
151.7515368113225
 20
351.9416250323359
 10
163.5159798946271
 20
341.6651643076372
  0
LWPOLYLINE
  5
120
330
1F
100
AcDbEntity
  8
0_Pen_No__1
  6
DASHED2
100
AcDbPolyline
 90
        2
 70
   128
 43
0.0
 10
1.087112109150468
 20
269.6219269778539
 10
148.5352239266078
 20
354.751134399169
  0
LWPOLYLINE
  5
121
330
1F
100
AcDbEntity
  8
0_Pen_No__1
  6
Continuous
100
AcDbPolyline
 90
        2
 70
   128
 43
0.0
 10
216.7363893798608
 20
623.3933538626384
 10
220.0682109572894
 20
613.9650076967249
  0
LWPOLYLINE
  5
122
330
1F
100
AcDbEntity
  8
0_Pen_No__1
  6
Continuous
100
AcDbPolyline
 90
        2
 70
   128
 43
0.0
 10
-58.05321926280671
 20
617.1044646843216
 10
-25.93796517330249
 20
626.8436600586402
  0
LWPOLYLINE
  5
123
330
1F
100
AcDbEntity
  8
0_Pen_No__1
  6
Continuous
100
AcDbPolyline
 90
        2
 70
   128
 43
0.0
 10
-25.93796517330249
 20
626.8436600586402
 10
3.844674057032371
 20
639.9395723443193
  0
LWPOLYLINE
  5
124
330
1F
100
AcDbEntity
  8
0_Pen_No__1
  6
Continuous
100
AcDbPolyline
 90
        2
 70
   128
 43
0.0
 10
277.0219646874703
 20
468.9455169974434
 10
293.4477486886302
 20
387.8751538221656
  0
LWPOLYLINE
  5
125
330
1F
100
AcDbEntity
  8
0_Pen_No__1
  6
Continuous
100
AcDbPolyline
 90
        2
 70
   128
 43
0.0
 10
86.59445346953554
 20
611.5887557095094
 10
135.6282001495064
 20
630.20341880098
  0
LWPOLYLINE
  5
126
330
1F
100
AcDbEntity
  8
0_Pen_No__1
  6
Continuous
100
AcDbPolyline
 90
        2
 70
   128
 43
0.0
 10
51.67803999827392
 20
617.83951301152
 10
53.9507644649948
 20
614.3624024876729
  0
LWPOLYLINE
  5
127
330
1F
100
AcDbEntity
  8
0_Pen_No__1
  6
Continuous
100
AcDbPolyline
 90
        2
 70
   128
 43
0.0
 10
53.9507644649948
 20
614.3624024876729
 10
86.59445346953554
 20
611.5887557095094
  0
LWPOLYLINE
  5
128
330
1F
100
AcDbEntity
  8
0_Pen_No__1
  6
Continuous
100
AcDbPolyline
 90
        2
 70
   128
 43
0.0
 10
135.6282001495064
 20
630.20341880098
 10
217.6844723874076
 20
620.7104806710695
  0
LWPOLYLINE
  5
129
330
1F
100
AcDbEntity
  8
0_Pen_No__1
  6
Continuous
100
AcDbPolyline
 90
        2
 70
   128
 43
0.0
 10
250.8503994159419
 20
245.6713739181739
 10
253.8570351407552
 20
229.5174444882364
  0
LWPOLYLINE
  5
12A
330
1F
100
AcDbEntity
  8
0_Pen_No__1
  6
Continuous
100
AcDbPolyline
 90
        2
 70
   128
 43
0.0
 10
170.6227497393415
 20
320.9392870066065
 10
-230.2942837030706
 20
89.46972881443082
  0
LWPOLYLINE
  5
12B
330
1F
100
AcDbEntity
  8
0_Pen_No__1
  6
Continuous
100
AcDbPolyline
 90
        2
 70
   128
 43
0.0
 10
69.28203222706664
 20
752.488973404458
 10
112.5833023689795
 20
687.48897319142
  0
LWPOLYLINE
  5
12C
330
1F
100
AcDbEntity
  8
0_Pen_No__1
  6
Continuous
100
AcDbPolyline
 90
        2
 70
   128
 43
0.0
 10
34.64101611353287
 20
732.48897333891
 10
147.2243184825128
 20
707.488973256968
  0
LWPOLYLINE
  5
12D
330
1F
100
AcDbEntity
  8
0_Pen_No__1
  6
Continuous
100
AcDbPolyline
 90
        2
 70
   128
 43
0.0
 10
69.28203222706664
 20
752.488973404458
 10
34.64101611353287
 20
732.48897333891
  0
LWPOLYLINE
  5
12E
330
1F
100
AcDbEntity
  8
0_Pen_No__1
  6
Continuous
100
AcDbPolyline
 90
        2
 70
   128
 43
0.0
 10
69.28203222706664
 20
752.488973404458
 10
147.2243184825128
 20
707.488973256968
  0
LWPOLYLINE
  5
12F
330
1F
100
AcDbEntity
  8
0_Pen_No__1
  6
Continuous
100
AcDbPolyline
 90
        2
 70
   128
 43
0.0
 10
112.5833023689795
 20
687.48897319142
 10
147.2243184825128
 20
707.488973256968
  0
LWPOLYLINE
  5
130
330
1F
100
AcDbEntity
  8
0_Pen_No__1
  6
Continuous
100
AcDbPolyline
 90
        2
 70
   128
 43
0.0
 10
34.64101611353287
 20
732.48897333891
 10
112.5833023689795
 20
687.48897319142
  0
LWPOLYLINE
  5
131
330
1F
100
AcDbEntity
  8
0_Pen_No__1
  6
Continuous
100
AcDbPolyline
 90
        2
 70
   128
 43
0.0
 10
34.64101611353287
 20
732.48897333891
 10
34.64101611353287
 20
672.1166010087594
  0
LWPOLYLINE
  5
132
330
1F
100
AcDbEntity
  8
0_Pen_No__1
  6
Continuous
100
AcDbPolyline
 90
        2
 70
   128
 43
0.0
 10
34.43949898895227
 20
645.2387242710147
 10
43.56996655985812
 20
642.7186266990668
  0
LWPOLYLINE
  5
134
330
1F
100
AcDbEntity
  8
0_Pen_No__1
  6
Above
100
AcDbPolyline
 90
        2
 70
   128
 43
0.0
 10
144.7477116776774
 20
415.7424926085835
 10
-243.3635057313053
 20
191.6663757828081
  0
LWPOLYLINE
  5
135
330
1F
100
AcDbEntity
  8
0_Pen_No__1
  6
Above
100
AcDbPolyline
 90
        2
 70
   128
 43
0.0
 10
144.7477116776774
 20
361.4710964591179
 10
144.7477116776774
 20
415.7424926085835
  0
LWPOLYLINE
  5
136
330
1F
100
AcDbEntity
  8
0_Pen_No__1
  6
Continuous
100
AcDbPolyline
 90
        2
 70
   128
 43
0.0
 10
101.6671287483173
 20
-53.41198212361164
 10
130.7765566510604
 20
-36.60564601456628
  0
LWPOLYLINE
  5
137
330
1F
100
AcDbEntity
  8
0_Pen_No__1
  6
Continuous
100
AcDbPolyline
 90
        2
 70
   128
 43
0.0
 10
130.7765566510604
 20
297.9340766003758
 10
130.7765566510604
 20
-36.60564601456628
  0
LWPOLYLINE
  5
138
330
1F
100
AcDbEntity
  8
0_Pen_No__1
  6
Continuous
100
AcDbPolyline
 90
        2
 70
   128
 43
0.0
 10
0.0
 20
222.4301960842514
 10
0.0
 20
0.0
  0
LWPOLYLINE
  5
139
330
1F
100
AcDbEntity
  8
0_Pen_No__1
  6
Continuous
100
AcDbPolyline
 90
        2
 70
   128
 43
0.0
 10
127.3522648111696
 20
295.9570607761917
 10
127.3522648111696
 20
-38.58266183875014
  0
LWPOLYLINE
  5
13A
330
1F
100
AcDbEntity
  8
0_Pen_No__1
  6
Continuous
100
AcDbPolyline
 90
        2
 70
   128
 43
0.0
 10
124.1702842958303
 20
294.1199434610764
 10
124.1702842958303
 20
-40.41977915386541
  0
LWPOLYLINE
  5
13B
330
1F
100
AcDbEntity
  8
0_Pen_No__1
  6
Continuous
100
AcDbPolyline
 90
        2
 70
   128
 43
0.0
 10
120.9883037804906
 20
292.2828261459611
 10
120.9883037804906
 20
-42.73523200823659
  0
LWPOLYLINE
  5
13C
330
1F
100
AcDbEntity
  8
0_Pen_No__1
  6
Continuous
100
AcDbPolyline
 90
        3
 70
   128
 43
0.0
 10
130.7765566510595
 20
57.0759126212792
 10
252.1883667715441
 20
162.8701426862258
 10
261.375330410206
 20
203.858134304872
  0
LWPOLYLINE
  5
13D
330
1F
100
AcDbEntity
  8
0_Pen_No__1
  6
Continuous
100
AcDbPolyline
 90
        2
 70
   128
 43
0.0
 10
147.2243184825128
 20
657.1884679967166
 10
147.2243184825128
 20
707.488973256968
  0
LWPOLYLINE
  5
13E
330
1F
100
AcDbEntity
  8
0_Pen_No__1
  6
Continuous
100
AcDbPolyline
 90
        2
 70
   128
 43
0.0
 10
264.1947742330104
 20
506.4859410718128
 10
225.8527178006196
 20
583.6942159007825
  0
LWPOLYLINE
  5
13F
330
1F
100
AcDbEntity
  8
0_Pen_No__1
  6
Continuous
100
AcDbPolyline
 90
        2
 70
   128
 43
0.0
 10
270.4464302012108
 20
480.0953363437094
 10
277.0219646874703
 20
468.9455169974434
  0
LWPOLYLINE
  5
140
330
1F
100
AcDbEntity
  8
0_Pen_No__1
  6
Continuous
100
AcDbPolyline
 90
        5
 70
   128
 43
0.0
 10
46.13131824905636
 20
644.1974237927766
 10
34.88305717703089
 20
648.5212479211917
 10
3.468403295299627
 20
644.2760244236605
 10
-27.38022078676083
 20
631.2573390312313
 10
-64.11539706280678
 20
620.6044646843217
  0
LWPOLYLINE
  5
141
330
1F
100
AcDbEntity
  8
0_Pen_No__1
  6
Continuous
100
AcDbPolyline
 90
        4
 70
   128
 43
0.0
 10
216.7363893798608
 20
623.3933538626384
 10
135.5647991059836
 20
632.3983126401997
 10
87.22238783462765
 20
614.6407087812502
 10
51.9121530274691
 20
617.5349903228207
  0
LWPOLYLINE
  5
142
330
1F
100
AcDbEntity
  8
0_Pen_No__1
  6
Continuous
100
AcDbPolyline
 90
        4
 70
   128
 43
0.0
 10
300.4360202731027
 20
361.9098343202658
 10
301.5549159749691
 20
356.7948825403017
 10
274.9689643956508
 20
264.5066551630104
 10
250.8503994159419
 20
245.6713739181739
  0
LWPOLYLINE
  5
143
330
1F
100
AcDbEntity
  8
0_Pen_No__1
  6
Continuous
100
AcDbPolyline
 90
       12
 70
   128
 43
0.0
 10
-60.65047352144104
 20
681.0656299283324
 10
1.463554505470199
 20
676.7821815473933
 10
82.02917868800341
 20
665.4526406467247
 10
171.4066680155009
 20
654.1230997460561
 10
226.346091248613
 20
632.5580495969873
 10
260.0764502335751
 20
582.4266301954999
 10
306.6534517141019
 20
518.2258984250436
 10
314.2064789812147
 20
446.4721393874746
 10
328.0536956375872
 20
355.8358121821248
 10
290.288559302025
 20
275.2701879995915
 10
262.0429952208503
 20
227.3770591541995
 10
254.8299399156462
 20
213.51655757937
  0
LWPOLYLINE
  5
144
330
1F
100
AcDbEntity
  8
0_Pen_No__1
  6
Continuous
100
AcDbPolyline
 90
        2
 70
   128
 43
0.0
 10
112.5833023689795
 20
687.48897319142
 10
112.5833023689795
 20
661.5795827153335
  0
ELLIPSE
  5
145
330
1F
100
AcDbEntity
  8
0_Pen_No__1
  6
Continuous
100
AcDbEllipse
 10
-217.0190749973049
 20
170.620367490335
 30
0.0
 11
-2.140835418729338
 21
-5.030861475079252
 31
0.0
210
0.0
220
0.0
230
1.0
 40
0.5555555555555577
 41
0.0
 42
6.283185307179586
  0
ELLIPSE
  5
146
330
1F
100
AcDbEntity
  8
0_Pen_No__1
  6
Continuous
100
AcDbEllipse
 10
-79.98273227244113
 20
249.7383371970332
 30
0.0
 11
-2.140835418729338
 21
-5.030861475079252
 31
0.0
210
0.0
220
0.0
230
1.0
 40
0.5555555555555577
 41
0.0
 42
6.283185307179586
  0
WIPEOUT
  5
148
330
1F
100
AcDbEntity
  8
Key_ Sections_Pen_No__1
  6
Wipeout_Contour
 48
3016.155962620403
 92
      296
310
28010000060000000C0000000E000000120000000C00000016000000000000C20C00000014000000010000006C0000000700000004000000E4BAFCD6E0827540B87E96BA42538440000000000000000020A55FE684918140B87E96BA42538440000000000000000020A55FE68491814048418CE39EE2804000000000000000
310
00E4BAFCD6E082754048418CE39EE2804000000000000000000C0000000E00000007000000840000000600000005000000E4BAFCD6E0827540B87E96BA42538440000000000000000020A55FE684918140B87E96BA42538440000000000000000020A55FE68491814048418CE39EE280400000000000000000E4BAFCD6E082
310
754048418CE39EE280400000000000000000E4BAFCD6E0827540B87E96BA425384400000000000000000
100
AcDbWipeout
 90
        0
 10
344.1798925277965
 20
540.3275824506209
 30
0.0
 11
218.01
 21
0.0
 31
0.0
 12
0.0
 22
110.0799999999999
 32
0.0
 13
1.0
 23
1.0
340
0
 70
    15
280
     1
281
    50
282
    50
283
     0
360
0
 71
     2
 91
        5
 14
-0.5
 24
-0.5
 14
0.5
 24
-0.5
 14
0.5
 24
0.5
 14
-0.5
 24
0.5
 14
-0.5
 24
-0.5
  0
MTEXT
  5
14B
102
{ACAD_REACTORS
330
14C
102
}
330
1F
100
AcDbEntity
  8
Key_ Sections_Pen_No__1
  6
Continuous
100
AcDbMText
 10
349.1798925277965
 20
594.4689536951804
 30
0.0
 40
12.49999999999999
 41
208.01
 71
     4
 72
     1
  1
{Absorbent Breather type \Pbuilding underlay \Pdressed into opening with \Pflexible tape installed over \Punderlay to corners at head}
  7
GENERATED_STYLE_1
 73
     1
 44
0.7928662360710881
  0
LEADER
  5
14C
330
1F
100
AcDbEntity
  8
Key_ Sections_Pen_No__1
  6
Continuous
100
AcDbLeader
  3
GENERATED_STYLE__1
 72
     1
 73
     0
 74
     0
 40
95.45871699923674
 41
200.8124999999999
 76
     3
 10
260.2833750007484
 20
582.4266301954948
 30
0.0
 10
293.3570582077534
 20
591.4939791068077
 30
0.0
 10
349.0898925277965
 20
594.4689536951804
 30
0.0
340
14B
  0
WIPEOUT
  5
153
330
1F
100
AcDbEntity
  8
Key_ Sections_Pen_No__1
  6
Wipeout_Contour
 48
2645.420057511143
 92
      296
310
28010000060000000C0000000E000000120000000C00000016000000000000C20C00000014000000010000006C0000000700000004000000E3BAFCD6E08275407239B54AB2978040000000000000000020A55FE6843B80407239B54AB2978040000000000000000020A55FE6843B8040918FC4F99FCE7C4000000000000000
310
00E3BAFCD6E0827540918FC4F99FCE7C4000000000000000000C0000000E00000007000000840000000600000005000000E3BAFCD6E08275407239B54AB2978040000000000000000020A55FE6843B80407239B54AB2978040000000000000000020A55FE6843B8040918FC4F99FCE7C400000000000000000E3BAFCD6E082
310
7540918FC4F99FCE7C400000000000000000E3BAFCD6E08275407239B54AB29780400000000000000000
100
AcDbWipeout
 90
        0
 10
344.1798925277964
 20
460.9140565565258
 30
0.0
 11
175.26
 21
0.0
 31
0.0
 12
0.0
 22
70.04799999999994
 32
0.0
 13
1.0
 23
1.0
340
0
 70
    15
280
     1
281
    50
282
    50
283
     0
360
0
 71
     2
 91
        5
 14
-0.5000000000000001
 24
-0.5000000000000004
 14
0.4999999999999998
 24
-0.5000000000000004
 14
0.4999999999999998
 24
0.4999999999999996
 14
-0.5000000000000001
 24
0.4999999999999996
 14
-0.5000000000000001
 24
-0.5000000000000004
  0
MTEXT
  5
154
102
{ACAD_REACTORS
330
155
102
}
330
1F
100
AcDbEntity
  8
Key_ Sections_Pen_No__1
  6
Continuous
100
AcDbMText
 10
349.1798925277964
 20
495.0391707502343
 30
0.0
 40
12.5
 41
165.26
 71
     4
 72
     1
  1
{Flexible flashing tape \Pover flashing to full \Pwidth of opening}
  7
GENERATED_STYLE_1
 73
     1
 44
0.9448816498417989
  0
LEADER
  5
155
330
1F
100
AcDbEntity
  8
Key_ Sections_Pen_No__1
  6
Continuous
100
AcDbLeader
  3
GENERATED_STYLE__1
 72
     1
 73
     0
 74
     0
 40
56.14664344459105
 41
161.725
 76
     3
 10
134.7795663008947
 20
420.938056556526
 30
0.0
 10
254.2818878658566
 20
480.8092502203612
 30
0.0
 10
349.0898925277965
 20
495.0391707502343
 30
0.0
340
154
  0
WIPEOUT
  5
156
330
1F
100
AcDbEntity
  8
Key_ Sections_Pen_No__1
  6
Wipeout_Contour
 48
2390.291243664012
 92
      296
310
28010000060000000C0000000E000000120000000C00000016000000000000C20C00000014000000010000006C0000000700000004000000E3BAFCD6E0827540659E41F3D9867B400000000000000000E29A884214568140659E41F3D9867B400000000000000000E29A88421456814083232D4592A5744000000000000000
310
00E3BAFCD6E082754083232D4592A5744000000000000000000C0000000E00000007000000840000000600000005000000E3BAFCD6E0827540659E41F3D9867B400000000000000000E29A884214568140659E41F3D9867B400000000000000000E29A88421456814083232D4592A574400000000000000000E3BAFCD6E082
310
754083232D4592A574400000000000000000E3BAFCD6E0827540659E41F3D9867B400000000000000000
100
AcDbWipeout
 90
        0
 10
344.1798925277964
 20
330.3482105029327
 30
0.0
 11
210.58
 21
0.0
 31
0.0
 12
0.0
 22
110.08
 32
0.0
 13
1.0
 23
1.0
340
0
 70
    15
280
     1
281
    50
282
    50
283
     0
360
0
 71
     2
 91
        5
 14
-0.5000000000000001
 24
-0.5
 14
0.4999999999999999
 24
-0.5
 14
0.4999999999999999
 24
0.5
 14
-0.5000000000000001
 24
0.5
 14
-0.5000000000000001
 24
-0.5
  0
MTEXT
  5
157
102
{ACAD_REACTORS
330
158
102
}
330
1F
100
AcDbEntity
  8
Key_ Sections_Pen_No__1
  6
Continuous
100
AcDbMText
 10
349.1798925277964
 20
384.5881531760637
 30
0.0
 40
12.5
 41
200.58
 71
     4
 72
     1
  1
{2 part head flashing with \P15degree fall. End of head\Pflashing requires folded \Pstop end or application \Pof sealant as stop end}
  7
GENERATED_STYLE_1
 73
     1
 44
0.7619507399853378
  0
LEADER
  5
158
330
1F
100
AcDbEntity
  8
Key_ Sections_Pen_No__1
  6
Continuous
100
AcDbLeader
  3
GENERATED_STYLE__1
 72
     1
 73
     0
 74
     0
 40
96.03061234521337
 41
187.4125000000001
 76
     3
 10
165.63435803563
 20
335.3882105029329
 30
0.0
 10
240.3350493323973
 20
371.396459730631
 30
0.0
 10
349.0898925277965
 20
384.5881531760637
 30
0.0
340
157
  0
WIPEOUT
  5
159
330
1F
100
AcDbEntity
  8
Key_ Sections_Pen_No__1
  6
Wipeout_Contour
 48
1924.322321111875
 92
      296
310
28010000060000000C0000000E000000120000000C00000016000000000000C20C00000014000000010000006C0000000700000004000000E8BAFCD6E0827540BD156A709438704000000000000000002F9C77EB8E527F40BD156A709438704000000000000000002F9C77EB8E527F40D26488A99FAF674000000000000000
310
00E8BAFCD6E0827540D26488A99FAF674000000000000000000C0000000E00000007000000840000000600000005000000E8BAFCD6E0827540BD156A709438704000000000000000002F9C77EB8E527F40BD156A709438704000000000000000002F9C77EB8E527F40D26488A99FAF67400000000000000000E8BAFCD6E082
310
7540D26488A99FAF67400000000000000000E8BAFCD6E0827540BD156A70943870400000000000000000
100
AcDbWipeout
 90
        0
 10
344.1798925277967
 20
189.4882400192205
 30
0.0
 11
156.98
 21
0.0
 31
0.0
 12
0.0
 22
70.048
 32
0.0
 13
1.0
 23
1.0
340
0
 70
    15
280
     1
281
    50
282
    50
283
     0
360
0
 71
     2
 91
        5
 14
-0.5000000000000002
 24
-0.5
 14
0.4999999999999998
 24
-0.5
 14
0.4999999999999998
 24
0.5
 14
-0.5000000000000002
 24
0.5
 14
-0.5000000000000002
 24
-0.5
  0
MTEXT
  5
15A
102
{ACAD_REACTORS
330
15B
102
}
330
1F
100
AcDbEntity
  8
Key_ Sections_Pen_No__1
  6
Continuous
100
AcDbMText
 10
349.1798925277968
 20
225.3147827843575
 30
0.0
 40
12.5
 41
146.98
 71
     4
 72
     1
  1
{Flashing tape over \Pbuilding wrap fitted \Paround corners}
  7
GENERATED_STYLE_1
 73
     1
 44
0.9558154610760365
  0
LEADER
  5
15B
330
1F
100
AcDbEntity
  8
Key_ Sections_Pen_No__1
  6
Continuous
100
AcDbLeader
  3
GENERATED_STYLE__1
 72
     1
 73
     0
 74
     0
 40
52.72875499698019
 41
143.0625
 76
     3
 10
77.94228625544531
 20
237.4531922743466
 30
0.0
 10
110.6939637860311
 20
230.1800439551084
 30
0.0
 10
349.0898925277968
 20
225.3147827843575
 30
0.0
340
15A
  0
WIPEOUT
  5
15C
330
1F
100
AcDbEntity
  8
Key_ Sections_Pen_No__1
  6
Wipeout_Contour
 48
1992.325396217526
 92
      296
310
28010000060000000C0000000E000000120000000C00000016000000000000C20C00000014000000010000006C0000000700000004000000E5BAFCD6E08275408DC1D54646B16540000000000000000002207494CCF882408DC1D54646B16540000000000000000002207494CCF88240C9F5131F7ADF594000000000000000
310
00E5BAFCD6E0827540C9F5131F7ADF594000000000000000000C0000000E00000007000000840000000600000005000000E5BAFCD6E08275408DC1D54646B16540000000000000000002207494CCF882408DC1D54646B16540000000000000000002207494CCF88240C9F5131F7ADF59400000000000000000E5BAFCD6E082
310
7540C9F5131F7ADF59400000000000000000E5BAFCD6E08275408DC1D54646B165400000000000000000
100
AcDbWipeout
 90
        0
 10
344.1798925277965
 20
103.4918286986277
 30
0.0
 11
262.92
 21
0.0
 31
0.0
 12
0.0
 22
70.04800000000002
 32
0.0
 13
1.0
 23
1.0
340
0
 70
    15
280
     1
281
    50
282
    50
283
     0
360
0
 71
     2
 91
        5
 14
-0.4999999999999999
 24
-0.4999999999999999
 14
0.5000000000000001
 24
-0.4999999999999999
 14
0.5000000000000001
 24
0.5000000000000001
 14
-0.4999999999999999
 24
0.5000000000000001
 14
-0.4999999999999999
 24
-0.4999999999999999
  0
MTEXT
  5
15D
102
{ACAD_REACTORS
330
15E
102
}
330
1F
100
AcDbEntity
  8
Key_ Sections_Pen_No__1
  6
Continuous
100
AcDbMText
 10
349.1798925277965
 20
137.6126571780504
 30
0.0
 40
12.49999999999999
 41
252.92
 71
     4
 72
     1
  1
{Palliside Rusticated \Pweatherboard fixed with Palliside \Pfastfix fasteners @500crs}
  7
GENERATED_STYLE_1
 73
     1
 44
0.9495563229840606
  0
LEADER
  5
15E
330
1F
100
AcDbEntity
  8
Key_ Sections_Pen_No__1
  6
Continuous
100
AcDbLeader
  3
GENERATED_STYLE__1
 72
     1
 73
     0
 74
     0
 40
56.15412750963661
 41
253.2999999999999
 76
     3
 10
-122.0754555937343
 20
283.4727188418699
 30
0.0
 10
21.91768036724245
 20
186.3014439127207
 30
0.0
 10
349.0898925277966
 20
137.6126571780504
 30
0.0
340
15D
  0
WIPEOUT
  5
15F
330
1F
100
AcDbEntity
  8
Key_ Sections_Pen_No__1
  6
Wipeout_Contour
 48
1760.835251277882
 92
      296
310
28010000060000000C0000000E000000120000000C00000016000000000000C20C00000014000000010000006C0000000700000004000000E5BAFCD6E0827540BE0849B095E55540000000000000000002207494CC788040BE0849B095E55540000000000000000002207494CC7880404017BC1B50CE03C000000000000000
310
00E5BAFCD6E08275404017BC1B50CE03C000000000000000000C0000000E00000007000000840000000600000005000000E5BAFCD6E0827540BE0849B095E55540000000000000000002207494CC788040BE0849B095E55540000000000000000002207494CC7880404017BC1B50CE03C00000000000000000E5BAFCD6E082
310
75404017BC1B50CE03C00000000000000000E5BAFCD6E0827540BE0849B095E555400000000000000000
100
AcDbWipeout
 90
        0
 10
344.1798925277965
 20
-2.475738732030455
 30
0.0
 11
182.92
 21
0.0
 31
0.0
 12
0.0
 22
90.06299999999999
 32
0.0
 13
1.0
 23
1.0
340
0
 70
    15
280
     1
281
    50
282
    50
283
     0
360
0
 71
     2
 91
        5
 14
-0.4999999999999998
 24
-0.5
 14
0.5000000000000001
 24
-0.5
 14
0.5000000000000001
 24
0.5000000000000001
 14
-0.4999999999999998
 24
0.5000000000000001
 14
-0.4999999999999998
 24
-0.5
  0
MTEXT
  5
160
102
{ACAD_REACTORS
330
161
102
}
330
1F
100
AcDbEntity
  8
Key_ Sections_Pen_No__1
  6
Continuous
100
AcDbMText
 10
349.1798925277965
 20
41.65650398710353
 30
0.0
 40
12.49999999999999
 41
172.92
 71
     4
 72
     1
  1
{Additonal building \Punderlay from \Poverlap above, lapped \Pover flashing.}
  7
GENERATED_STYLE_1
 73
     1
 44
0.9533197673736268
  0
LEADER
  5
161
330
1F
100
AcDbEntity
  8
Key_ Sections_Pen_No__1
  6
Continuous
100
AcDbLeader
  3
GENERATED_STYLE__1
 72
     1
 73
     0
 74
     0
 40
76.16006591141853
 41
169.8249999999999
 76
     3
 10
-249.1637602453225
 20
268.8299312476648
 30
0.0
 10
-14.40266515309026
 20
106.2944703888535
 30
0.0
 10
349.0898925277966
 20
41.65650398710353
 30
0.0
340
160
  0
WIPEOUT
  5
162
330
1F
100
AcDbEntity
  8
Key_ Sections_Pen_No__1
  6
Wipeout_Contour
 48
1723.643737340297
 92
      296
310
28010000060000000C0000000E000000120000000C00000016000000000000C20C00000014000000010000006C0000000700000004000000E5BAFCD6E08275402E6FFA68E31127C00000000000000000725D7E6B700780402E6FFA68E31127C00000000000000000725D7E6B700780403558B36D91C84EC000000000000000
310
00E5BAFCD6E08275403558B36D91C84EC000000000000000000C0000000E00000007000000840000000600000005000000E5BAFCD6E08275402E6FFA68E31127C00000000000000000725D7E6B700780402E6FFA68E31127C00000000000000000725D7E6B700780403558B36D91C84EC00000000000000000E5BAFCD6E082
310
75403558B36D91C84EC00000000000000000E5BAFCD6E08275402E6FFA68E31127C00000000000000000
100
AcDbWipeout
 90
        0
 10
344.1798925277965
 20
-61.5669381261545
 30
0.0
 11
168.7499999999999
 21
0.0
 31
0.0
 12
0.0
 22
50.032
 32
0.0
 13
1.0
 23
1.0
340
0
 70
    15
280
     1
281
    50
282
    50
283
     0
360
0
 71
     2
 91
        5
 14
-0.4999999999999998
 24
-0.4999999999999999
 14
0.5000000000000002
 24
-0.4999999999999999
 14
0.5000000000000002
 24
0.5
 14
-0.4999999999999998
 24
0.5
 14
-0.4999999999999998
 24
-0.4999999999999999
  0
MTEXT
  5
163
102
{ACAD_REACTORS
330
164
102
}
330
1F
100
AcDbEntity
  8
Key_ Sections_Pen_No__1
  6
Continuous
100
AcDbMText
 10
349.1798925277965
 20
-37.44995245787175
 30
0.0
 40
12.5
 41
158.75
 71
     4
 72
     1
  1
{Palliside 2 part jamb \Pflashing base}
  7
GENERATED_STYLE_1
 73
     1
 44
0.9459980913343259
  0
LEADER
  5
164
330
1F
100
AcDbEntity
  8
Key_ Sections_Pen_No__1
  6
Continuous
100
AcDbLeader
  3
GENERATED_STYLE__1
 72
     1
 73
     0
 74
     0
 40
36.13059347403185
 41
155.025
 76
     3
 10
130.7765566510608
 20
2.271918639223729
 30
0.0
 10
261.1961746602955
 20
-29.12551278349484
 30
0.0
 10
349.0898925277966
 20
-37.44995245787175
 30
0.0
340
163
  0
WIPEOUT
  5
165
330
1F
100
AcDbEntity
  8
Key_ Sections_Pen_No__1
  6
Wipeout_Contour
 48
1564.397769418061
 92
      296
310
28010000060000000C0000000E000000120000000C00000016000000000000C20C00000014000000010000006C0000000700000004000000E5BAFCD6E08275405797E0ED7CDF5AC0000000000000000016C3A8F33ADF78405797E0ED7CDF5AC0000000000000000016C3A8F33ADF784038E35E89413061C000000000000000
310
00E5BAFCD6E082754038E35E89413061C000000000000000000C0000000E00000007000000840000000600000005000000E5BAFCD6E08275405797E0ED7CDF5AC0000000000000000016C3A8F33ADF78405797E0ED7CDF5AC0000000000000000016C3A8F33ADF784038E35E89413061C00000000000000000E5BAFCD6E082
310
754038E35E89413061C00000000000000000E5BAFCD6E08275405797E0ED7CDF5AC00000000000000000
100
AcDbWipeout
 90
        0
 10
344.1798925277965
 20
-137.5080000737451
 30
0.0
 11
53.77199999999999
 21
0.0
 31
0.0
 12
0.0
 22
30.01599999999998
 32
0.0
 13
1.0
 23
1.0
340
0
 70
    15
280
     1
281
    50
282
    50
283
     0
360
0
 71
     2
 91
        5
 14
-0.5000000000000006
 24
-0.5000000000000002
 14
0.4999999999999994
 24
-0.5000000000000002
 14
0.4999999999999994
 24
0.4999999999999998
 14
-0.5000000000000006
 24
0.4999999999999998
 14
-0.5000000000000006
 24
-0.5000000000000002
  0
MTEXT
  5
166
102
{ACAD_REACTORS
330
167
102
}
330
1F
100
AcDbEntity
  8
Key_ Sections_Pen_No__1
  6
Continuous
100
AcDbMText
 10
349.1798925277965
 20
-121.7020000737451
 30
0.0
 40
12.5
 41
43.77199999999999
 71
     4
 72
     1
  1
{Studs}
  7
GENERATED_STYLE_1
 73
     1
 44
1.0
  0
LEADER
  5
167
330
1F
100
AcDbEntity
  8
Key_ Sections_Pen_No__1
  6
Continuous
100
AcDbLeader
  3
GENERATED_STYLE__1
 72
     1
 73
     0
 74
     0
 40
12.925
 41
43.1375
 76
     3
 10
38.9711431277231
 20
-22.5000000737452
 30
0.0
 10
38.71193956590522
 20
-75.00675985350982
 30
0.0
 10
349.0898925277966
 20
-121.7020000737451
 30
0.0
340
166
  0
WIPEOUT
  5
168
330
1F
100
AcDbEntity
  8
Key_ Sections_Pen_No__1
  6
Wipeout_Contour
 48
2158.497710828687
 92
      296
310
28010000060000000C0000000E000000120000000C00000016000000000000C20C00000014000000010000006C0000000700000004000000ECBAFCD6E0827540C993DA9EBC817440000000000000000058D89219B8E48040C993DA9EBC817440000000000000000058D89219B8E480403BFC6B8C3961714000000000000000
310
00ECBAFCD6E08275403BFC6B8C3961714000000000000000000C0000000E00000007000000840000000600000005000000ECBAFCD6E0827540C993DA9EBC817440000000000000000058D89219B8E48040C993DA9EBC817440000000000000000058D89219B8E480403BFC6B8C396171400000000000000000ECBAFCD6E082
310
75403BFC6B8C396171400000000000000000ECBAFCD6E0827540C993DA9EBC8174400000000000000000
100
AcDbWipeout
 90
        0
 10
344.1798925277969
 20
278.0765499323058
 30
0.0
 11
196.4100000000001
 21
0.0
 31
0.0
 12
0.0
 22
50.03200000000004
 32
0.0
 13
1.0
 23
1.0
340
0
 70
    15
280
     1
281
    50
282
    50
283
     0
360
0
 71
     2
 91
        5
 14
-0.5
 24
-0.5
 14
0.5
 24
-0.5
 14
0.5
 24
0.5
 14
-0.5
 24
0.5
 14
-0.5
 24
-0.5
  0
MTEXT
  5
169
102
{ACAD_REACTORS
330
16A
102
}
330
1F
100
AcDbEntity
  8
Key_ Sections_Pen_No__1
  6
Continuous
100
AcDbMText
 10
349.1798925277969
 20
302.1935356005886
 30
0.0
 40
12.5
 41
186.41
 71
     4
 72
     1
  1
{50mm long sealant strip \Pat both ends of flashing}
  7
GENERATED_STYLE_1
 73
     1
 44
0.9459980913343259
  0
LEADER
  5
16A
330
1F
100
AcDbEntity
  8
Key_ Sections_Pen_No__1
  6
Continuous
100
AcDbLeader
  3
GENERATED_STYLE__1
 72
     1
 73
     0
 74
     0
 40
36.13059347403185
 41
183.7875
 76
     3
 10
119.6817093739102
 20
338.0925499323059
 30
0.0
 10
166.6153960510109
 20
316.7677982894938
 30
0.0
 10
349.089892527797
 20
302.1935356005886
 30
0.0
340
169
  0
LWPOLYLINE
  5
16B
330
1F
100
AcDbEntity
  8
0_Pen_No__1
  6
Continuous
100
AcDbPolyline
 90
        4
 70
   129
 43
0.0
 10
344.1798925277965
 20
-162.500000073745
 10
480.3516667913429
 20
-162.500000073745
 10
480.3516667913429
 20
-238.3389303977956
 10
344.1798925277965
 20
-238.3389303977956
  0
MTEXT
  5
16C
330
1F
100
AcDbEntity
  8
0_Pen_No__1
  6
Continuous
100
AcDbMText
 10
349.1798925277965
 20
-170.3571429308878
 30
0.0
 40
12.5
 41
0.0
 71
     1
 72
     1
  1
{Note:\PWindow omitted \Pfor clarity.}
  7
GENERATED_STYLE_1
 73
     1
 44
1.0465152245945
  0
ENDSEC
  0
SECTION
  2
OBJECTS
  0
DICTIONARY
  5
C
330
0
100
AcDbDictionary
281
     1
  3
ACAD_GROUP
350
D
  3
ACAD_LAYOUT
350
1A
  3
ACAD_MATERIAL
350
3B
  3
ACAD_MLEADERSTYLE
350
1BD
  3
ACAD_MLINESTYLE
350
17
  3
ACAD_PLOTSETTINGS
350
19
  3
ACAD_PLOTSTYLENAME
350
E
  3
ACAD_SCALELIST
350
170
  3
ACAD_TABLESTYLE
350
1BC
  3
ACAD_VISUALSTYLE
350
2A
  3
AcDbVariableDictionary
350
194
  3
WATERMARKS
350
192
  0
DICTIONARY
  5
D
102
{ACAD_REACTORS
330
C
102
}
330
C
100
AcDbDictionary
281
     1
  0
DICTIONARY
  5
1A
102
{ACAD_REACTORS
330
C
102
}
330
C
100
AcDbDictionary
281
     1
  3
Layout1
350
1E
  3
Layout2
350
26
  3
Model
350
22
  0
DICTIONARY
  5
3B
102
{ACAD_REACTORS
330
C
102
}
330
C
100
AcDbDictionary
281
     1
  3
ByBlock
350
3D
  3
ByLayer
350
3C
  3
Global
350
3E
  0
DICTIONARY
  5
1BD
102
{ACAD_REACTORS
330
C
102
}
330
C
100
AcDbDictionary
281
     1
  0
DICTIONARY
  5
17
102
{ACAD_REACTORS
330
C
102
}
330
C
100
AcDbDictionary
281
     1
  3
Standard
350
18
  0
DICTIONARY
  5
19
102
{ACAD_REACTORS
330
C
102
}
330
C
100
AcDbDictionary
281
     1
  0
ACDBDICTIONARYWDFLT
  5
E
102
{ACAD_REACTORS
330
C
102
}
330
C
100
AcDbDictionary
281
     1
  3
Normal
350
F
100
AcDbDictionaryWithDefault
340
F
  0
DICTIONARY
  5
170
102
{ACAD_REACTORS
330
C
102
}
330
C
100
AcDbDictionary
281
     1
  3
A0
350
171
  3
A1
350
172
  3
A2
350
173
  3
A3
350
174
  3
A4
350
175
  3
A5
350
176
  3
A6
350
177
  3
A7
350
178
  3
A8
350
179
  3
A9
350
17A
  3
B0
350
17B
  3
B1
350
17C
  3
B2
350
17D
  3
B3
350
17E
  3
B4
350
17F
  3
B5
350
180
  3
B6
350
181
  3
B7
350
182
  3
B8
350
183
  3
B9
350
184
  3
C0
350
185
  3
C1
350
186
  3
C2
350
187
  3
C3
350
188
  3
C4
350
189
  3
C5
350
18A
  3
C6
350
18B
  3
C7
350
18C
  3
C8
350
18D
  3
C9
350
18E
  3
D0
350
18F
  3
D1
350
190
  3
D2
350
191
  0
DICTIONARY
  5
1BC
102
{ACAD_REACTORS
330
C
102
}
330
C
100
AcDbDictionary
281
     1
  0
DICTIONARY
  5
2A
102
{ACAD_REACTORS
330
C
102
}
330
C
100
AcDbDictionary
281
     1
  3
2dWireframe
350
2F
  3
3D Hidden
350
31
  3
3dWireframe
350
30
  3
Basic
350
32
  3
Brighten
350
36
  3
ColorChange
350
3A
  3
Conceptual
350
34
  3
Dim
350
35
  3
Facepattern
350
39
  3
Flat
350
2B
  3
FlatWithEdges
350
2C
  3
Gouraud
350
2D
  3
GouraudWithEdges
350
2E
  3
Linepattern
350
38
  3
Realistic
350
33
  3
Thicken
350
37
  0
DICTIONARY
  5
194
102
{ACAD_REACTORS
330
C
102
}
330
C
100
AcDbDictionary
281
     1
  3
CANNOSCALE
350
195
  3
XCLIPFRAME
350
1BE
  0
DICTIONARY
  5
192
102
{ACAD_REACTORS
330
C
102
}
330
C
100
AcDbDictionary
281
     1
  3
AC_WATERMARK
350
193
  0
LAYOUT
  5
1E
102
{ACAD_REACTORS
330
1A
102
}
330
1A
100
AcDbPlotSettings
  1

  2
none_device
  4

  6

 40
0.0
 41
0.0
 42
0.0
 43
0.0
 44
0.0
 45
0.0
 46
0.0
 47
0.0
 48
0.0
 49
0.0
140
0.0
141
0.0
142
1.0
143
1.0
 70
   688
 72
     0
 73
     0
 74
     5
  7

 75
    16
 76
     0
 77
     2
 78
   300
147
1.0
148
0.0
149
0.0
100
AcDbLayout
  1
Layout1
 70
     1
 71
     1
 10
0.0
 20
0.0
 11
12.0
 21
9.0
 12
0.0
 22
0.0
 32
0.0
 14
1.000000000000000E+20
 24
1.000000000000000E+20
 34
1.000000000000000E+20
 15
-1.000000000000000E+20
 25
-1.000000000000000E+20
 35
-1.000000000000000E+20
146
0.0
 13
0.0
 23
0.0
 33
0.0
 16
1.0
 26
0.0
 36
0.0
 17
0.0
 27
1.0
 37
0.0
 76
     0
330
1B
  0
LAYOUT
  5
26
102
{ACAD_REACTORS
330
1A
102
}
330
1A
100
AcDbPlotSettings
  1

  2
none_device
  4

  6

 40
0.0
 41
0.0
 42
0.0
 43
0.0
 44
0.0
 45
0.0
 46
0.0
 47
0.0
 48
0.0
 49
0.0
140
0.0
141
0.0
142
1.0
143
1.0
 70
   688
 72
     0
 73
     0
 74
     5
  7

 75
    16
 76
     0
 77
     2
 78
   300
147
1.0
148
0.0
149
0.0
100
AcDbLayout
  1
Layout2
 70
     1
 71
     2
 10
0.0
 20
0.0
 11
0.0
 21
0.0
 12
0.0
 22
0.0
 32
0.0
 14
0.0
 24
0.0
 34
0.0
 15
0.0
 25
0.0
 35
0.0
146
0.0
 13
0.0
 23
0.0
 33
0.0
 16
1.0
 26
0.0
 36
0.0
 17
0.0
 27
1.0
 37
0.0
 76
     0
330
23
  0
LAYOUT
  5
22
102
{ACAD_REACTORS
330
1A
102
}
330
1A
100
AcDbPlotSettings
  1

  2
none_device
  4

  6

 40
0.0
 41
0.0
 42
0.0
 43
0.0
 44
0.0
 45
0.0
 46
0.0
 47
0.0
 48
0.0
 49
0.0
140
0.0
141
0.0
142
1.0
143
1.0
 70
  1712
 72
     0
 73
     0
 74
     0
  7

 75
     0
 76
     0
 77
     2
 78
   300
147
1.0
148
0.0
149
0.0
100
AcDbLayout
  1
Model
 70
     1
 71
     0
 10
0.0
 20
0.0
 11
12.0
 21
9.0
 12
0.0
 22
0.0
 32
0.0
 14
1.000000000000000E+20
 24
1.000000000000000E+20
 34
1.000000000000000E+20
 15
-1.000000000000000E+20
 25
-1.000000000000000E+20
 35
-1.000000000000000E+20
146
0.0
 13
0.0
 23
0.0
 33
0.0
 16
1.0
 26
0.0
 36
0.0
 17
0.0
 27
1.0
 37
0.0
 76
     0
330
1F
331
29
  0
MATERIAL
  5
3D
102
{ACAD_REACTORS
330
3B
102
}
102
{ACAD_XDICTIONARY
360
1B8
102
}
330
3B
100
AcDbMaterial
  1
ByBlock
  0
MATERIAL
  5
3C
102
{ACAD_REACTORS
330
3B
102
}
102
{ACAD_XDICTIONARY
360
1B6
102
}
330
3B
100
AcDbMaterial
  1
ByLayer
  0
MATERIAL
  5
3E
102
{ACAD_REACTORS
330
3B
102
}
102
{ACAD_XDICTIONARY
360
1BA
102
}
330
3B
100
AcDbMaterial
  1
Global
  0
MLINESTYLE
  5
18
102
{ACAD_REACTORS
330
17
102
}
330
17
100
AcDbMlineStyle
  2
Standard
 70
     0
  3

 62
   256
 51
90.0
 52
90.0
 71
     2
 49
0.5
 62
   256
  6
BYLAYER
 49
-0.5
 62
   256
  6
BYLAYER
  0
ACDBPLACEHOLDER
  5
F
102
{ACAD_REACTORS
330
E
102
}
330
E
  0
SCALE
  5
171
102
{ACAD_REACTORS
330
170
102
}
330
170
100
AcDbScale
 70
     0
300
1:1
140
1.0
141
1.0
290
     1
  0
SCALE
  5
172
102
{ACAD_REACTORS
330
170
102
}
330
170
100
AcDbScale
 70
     0
300
1:2
140
1.0
141
2.0
290
     0
  0
SCALE
  5
173
102
{ACAD_REACTORS
330
170
102
}
330
170
100
AcDbScale
 70
     0
300
1:4
140
1.0
141
4.0
290
     0
  0
SCALE
  5
174
102
{ACAD_REACTORS
330
170
102
}
330
170
100
AcDbScale
 70
     0
300
1:5
140
1.0
141
5.0
290
     0
  0
SCALE
  5
175
102
{ACAD_REACTORS
330
170
102
}
330
170
100
AcDbScale
 70
     0
300
1:8
140
1.0
141
8.0
290
     0
  0
SCALE
  5
176
102
{ACAD_REACTORS
330
170
102
}
330
170
100
AcDbScale
 70
     0
300
1:10
140
1.0
141
10.0
290
     0
  0
SCALE
  5
177
102
{ACAD_REACTORS
330
170
102
}
330
170
100
AcDbScale
 70
     0
300
1:16
140
1.0
141
16.0
290
     0
  0
SCALE
  5
178
102
{ACAD_REACTORS
330
170
102
}
330
170
100
AcDbScale
 70
     0
300
1:20
140
1.0
141
20.0
290
     0
  0
SCALE
  5
179
102
{ACAD_REACTORS
330
170
102
}
330
170
100
AcDbScale
 70
     0
300
1:30
140
1.0
141
30.0
290
     0
  0
SCALE
  5
17A
102
{ACAD_REACTORS
330
170
102
}
330
170
100
AcDbScale
 70
     0
300
1:40
140
1.0
141
40.0
290
     0
  0
SCALE
  5
17B
102
{ACAD_REACTORS
330
170
102
}
330
170
100
AcDbScale
 70
     0
300
1:50
140
1.0
141
50.0
290
     0
  0
SCALE
  5
17C
102
{ACAD_REACTORS
330
170
102
}
330
170
100
AcDbScale
 70
     0
300
1:100
140
1.0
141
100.0
290
     0
  0
SCALE
  5
17D
102
{ACAD_REACTORS
330
170
102
}
330
170
100
AcDbScale
 70
     0
300
2:1
140
2.0
141
1.0
290
     0
  0
SCALE
  5
17E
102
{ACAD_REACTORS
330
170
102
}
330
170
100
AcDbScale
 70
     0
300
4:1
140
4.0
141
1.0
290
     0
  0
SCALE
  5
17F
102
{ACAD_REACTORS
330
170
102
}
330
170
100
AcDbScale
 70
     0
300
8:1
140
8.0
141
1.0
290
     0
  0
SCALE
  5
180
102
{ACAD_REACTORS
330
170
102
}
330
170
100
AcDbScale
 70
     0
300
10:1
140
10.0
141
1.0
290
     0
  0
SCALE
  5
181
102
{ACAD_REACTORS
330
170
102
}
330
170
100
AcDbScale
 70
     0
300
100:1
140
100.0
141
1.0
290
     0
  0
SCALE
  5
182
102
{ACAD_REACTORS
330
170
102
}
330
170
100
AcDbScale
 70
     0
300
1/128" = 1'-0"
140
0.0078125
141
12.0
290
     0
  0
SCALE
  5
183
102
{ACAD_REACTORS
330
170
102
}
330
170
100
AcDbScale
 70
     0
300
1/64" = 1'-0"
140
0.015625
141
12.0
290
     0
  0
SCALE
  5
184
102
{ACAD_REACTORS
330
170
102
}
330
170
100
AcDbScale
 70
     0
300
1/32" = 1'-0"
140
0.03125
141
12.0
290
     0
  0
SCALE
  5
185
102
{ACAD_REACTORS
330
170
102
}
330
170
100
AcDbScale
 70
     0
300
1/16" = 1'-0"
140
0.0625
141
12.0
290
     0
  0
SCALE
  5
186
102
{ACAD_REACTORS
330
170
102
}
330
170
100
AcDbScale
 70
     0
300
3/32" = 1'-0"
140
0.09375
141
12.0
290
     0
  0
SCALE
  5
187
102
{ACAD_REACTORS
330
170
102
}
330
170
100
AcDbScale
 70
     0
300
1/8" = 1'-0"
140
0.125
141
12.0
290
     0
  0
SCALE
  5
188
102
{ACAD_REACTORS
330
170
102
}
330
170
100
AcDbScale
 70
     0
300
3/16" = 1'-0"
140
0.1875
141
12.0
290
     0
  0
SCALE
  5
189
102
{ACAD_REACTORS
330
170
102
}
330
170
100
AcDbScale
 70
     0
300
1/4" = 1'-0"
140
0.25
141
12.0
290
     0
  0
SCALE
  5
18A
102
{ACAD_REACTORS
330
170
102
}
330
170
100
AcDbScale
 70
     0
300
3/8" = 1'-0"
140
0.375
141
12.0
290
     0
  0
SCALE
  5
18B
102
{ACAD_REACTORS
330
170
102
}
330
170
100
AcDbScale
 70
     0
300
1/2" = 1'-0"
140
0.5
141
12.0
290
     0
  0
SCALE
  5
18C
102
{ACAD_REACTORS
330
170
102
}
330
170
100
AcDbScale
 70
     0
300
3/4" = 1'-0"
140
0.75
141
12.0
290
     0
  0
SCALE
  5
18D
102
{ACAD_REACTORS
330
170
102
}
330
170
100
AcDbScale
 70
     0
300
1" = 1'-0"
140
1.0
141
12.0
290
     0
  0
SCALE
  5
18E
102
{ACAD_REACTORS
330
170
102
}
330
170
100
AcDbScale
 70
     0
300
1-1/2" = 1'-0"
140
1.5
141
12.0
290
     0
  0
SCALE
  5
18F
102
{ACAD_REACTORS
330
170
102
}
330
170
100
AcDbScale
 70
     0
300
3" = 1'-0"
140
3.0
141
12.0
290
     0
  0
SCALE
  5
190
102
{ACAD_REACTORS
330
170
102
}
330
170
100
AcDbScale
 70
     0
300
6" = 1'-0"
140
6.0
141
12.0
290
     0
  0
SCALE
  5
191
102
{ACAD_REACTORS
330
170
102
}
330
170
100
AcDbScale
 70
     0
300
1'-0" = 1'-0"
140
12.0
141
12.0
290
     0
  0
VISUALSTYLE
  5
2F
102
{ACAD_REACTORS
330
2A
102
}
102
{ACAD_XDICTIONARY
360
19E
102
}
330
2A
100
AcDbVisualStyle
  2
2dWireframe
 70
     4
 71
     0
 72
     2
 73
     0
 90
        0
 40
-0.6
 41
-30.0
 62
     5
 63
     7
421
 16777215
 74
     1
 91
        4
 64
     7
 65
   257
 75
     1
175
     1
 42
1.0
 92
        0
 66
   257
 43
1.0
 76
     1
 77
     6
 78
     2
 67
     7
 79
     5
170
     0
171
     0
290
     0
174
     0
 93
        1
 44
0.0
173
     0
291
     0
 45
0.0
1001
ACAD
1000
AcDbSavedByObjectVersion
1070
     0
  0
VISUALSTYLE
  5
31
102
{ACAD_REACTORS
330
2A
102
}
102
{ACAD_XDICTIONARY
360
1A2
102
}
330
2A
100
AcDbVisualStyle
  2
3D Hidden
 70
     6
 71
     1
 72
     2
 73
     2
 90
        0
 40
-0.6
 41
-30.0
 62
     5
 63
     7
421
 16777215
 74
     2
 91
        2
 64
     7
 65
   257
 75
     2
175
     1
 42
40.0
 92
        0
 66
   257
 43
1.0
 76
     1
 77
     6
 78
     2
 67
     7
 79
     3
170
     0
171
     0
290
     0
174
     0
 93
        1
 44
0.0
173
     0
291
     0
 45
0.0
1001
ACAD
1000
AcDbSavedByObjectVersion
1070
     0
  0
VISUALSTYLE
  5
30
102
{ACAD_REACTORS
330
2A
102
}
102
{ACAD_XDICTIONARY
360
1A0
102
}
330
2A
100
AcDbVisualStyle
  2
3dWireframe
 70
     5
 71
     0
 72
     2
 73
     0
 90
        0
 40
-0.6
 41
-30.0
 62
     5
 63
     7
421
 16777215
 74
     1
 91
        4
 64
     7
 65
   257
 75
     1
175
     1
 42
1.0
 92
        0
 66
   257
 43
1.0
 76
     1
 77
     6
 78
     2
 67
     7
 79
     5
170
     0
171
     0
290
     0
174
     0
 93
        1
 44
0.0
173
     0
291
     0
 45
0.0
1001
ACAD
1000
AcDbSavedByObjectVersion
1070
     0
  0
VISUALSTYLE
  5
32
102
{ACAD_REACTORS
330
2A
102
}
102
{ACAD_XDICTIONARY
360
1A4
102
}
330
2A
100
AcDbVisualStyle
  2
Basic
 70
     7
 71
     1
 72
     0
 73
     1
 90
        0
 40
-0.6
 41
-30.0
 62
     5
 63
     7
421
 16777215
 74
     0
 91
        4
 64
     7
 65
   257
 75
     1
175
     1
 42
1.0
 92
        8
 66
     7
 43
1.0
 76
     1
 77
     6
 78
     2
 67
     7
 79
     5
170
     0
171
     0
290
     0
174
     0
 93
        1
 44
0.0
173
     0
291
     1
 45
0.0
1001
ACAD
1000
AcDbSavedByObjectVersion
1070
     0
  0
VISUALSTYLE
  5
36
102
{ACAD_REACTORS
330
2A
102
}
102
{ACAD_XDICTIONARY
360
1AC
102
}
330
2A
100
AcDbVisualStyle
  2
Brighten
 70
    12
 71
     2
 72
     2
 73
     0
 90
        0
 40
-0.6
 41
-30.0
 62
     5
 63
     7
421
 16777215
 74
     1
 91
        4
 64
     7
 65
   257
 75
     1
175
     1
 42
1.0
 92
        8
 66
     7
 43
1.0
 76
     1
 77
     6
 78
     2
 67
     7
 79
     5
170
     0
171
     0
290
     0
174
     0
 93
        1
 44
50.0
173
     0
291
     1
 45
0.0
1001
ACAD
1000
AcDbSavedByObjectVersion
1070
     0
  0
VISUALSTYLE
  5
3A
102
{ACAD_REACTORS
330
2A
102
}
102
{ACAD_XDICTIONARY
360
1B4
102
}
330
2A
100
AcDbVisualStyle
  2
ColorChange
 70
    16
 71
     2
 72
     2
 73
     3
 90
        0
 40
-0.6
 41
-30.0
 62
     5
 63
     8
421
  8421504
 74
     1
 91
        4
 64
     7
 65
   257
 75
     1
175
     1
 42
1.0
 92
        8
 66
     8
424
  8421504
 43
1.0
 76
     1
 77
     6
 78
     2
 67
     7
 79
     5
170
     0
171
     0
290
     0
174
     0
 93
        1
 44
0.0
173
     0
291
     1
 45
0.0
1001
ACAD
1000
AcDbSavedByObjectVersion
1070
     0
  0
VISUALSTYLE
  5
34
102
{ACAD_REACTORS
330
2A
102
}
102
{ACAD_XDICTIONARY
360
1A8
102
}
330
2A
100
AcDbVisualStyle
  2
Conceptual
 70
     9
 71
     3
 72
     2
 73
     0
 90
        0
 40
-0.6
 41
-30.0
 62
     5
 63
     7
421
 16777215
 74
     2
 91
        2
 64
     7
 65
   257
 75
     1
175
     1
 42
40.0
 92
        8
 66
     7
 43
1.0
 76
     1
 77
     6
 78
     2
 67
     7
 79
     3
170
     0
171
     0
290
     0
174
     0
 93
        1
 44
0.0
173
     0
291
     0
 45
0.0
1001
ACAD
1000
AcDbSavedByObjectVersion
1070
     0
  0
VISUALSTYLE
  5
35
102
{ACAD_REACTORS
330
2A
102
}
102
{ACAD_XDICTIONARY
360
1AA
102
}
330
2A
100
AcDbVisualStyle
  2
Dim
 70
    11
 71
     2
 72
     2
 73
     0
 90
        0
 40
-0.6
 41
-30.0
 62
     5
 63
     7
421
 16777215
 74
     1
 91
        4
 64
     7
 65
   257
 75
     1
175
     1
 42
1.0
 92
        8
 66
     7
 43
1.0
 76
     1
 77
     6
 78
     2
 67
     7
 79
     5
170
     0
171
     0
290
     0
174
     0
 93
        1
 44
-50.0
173
     0
291
     1
 45
0.0
1001
ACAD
1000
AcDbSavedByObjectVersion
1070
     0
  0
VISUALSTYLE
  5
39
102
{ACAD_REACTORS
330
2A
102
}
102
{ACAD_XDICTIONARY
360
1B2
102
}
330
2A
100
AcDbVisualStyle
  2
Facepattern
 70
    15
 71
     2
 72
     2
 73
     0
 90
        0
 40
-0.6
 41
-30.0
 62
     5
 63
     7
421
 16777215
 74
     1
 91
        4
 64
     7
 65
   257
 75
     1
175
     1
 42
1.0
 92
        8
 66
     7
 43
1.0
 76
     1
 77
     6
 78
     2
 67
     7
 79
     5
170
     0
171
     0
290
     0
174
     0
 93
        1
 44
0.0
173
     0
291
     1
 45
0.0
1001
ACAD
1000
AcDbSavedByObjectVersion
1070
     0
  0
VISUALSTYLE
  5
2B
102
{ACAD_REACTORS
330
2A
102
}
102
{ACAD_XDICTIONARY
360
196
102
}
330
2A
100
AcDbVisualStyle
  2
Flat
 70
     0
 71
     2
 72
     1
 73
     1
 90
        2
 40
-0.6
 41
30.0
 62
     5
 63
     7
421
 16777215
 74
     0
 91
        4
 64
     7
 65
   257
 75
     1
175
     1
 42
1.0
 92
        8
 66
     7
 43
1.0
 76
     1
 77
     6
 78
     2
 67
     7
 79
     5
170
     0
171
     0
290
     0
174
     0
 93
       13
 44
0.0
173
     0
291
     1
 45
0.0
1001
ACAD
1000
AcDbSavedByObjectVersion
1070
     0
  0
VISUALSTYLE
  5
2C
102
{ACAD_REACTORS
330
2A
102
}
102
{ACAD_XDICTIONARY
360
198
102
}
330
2A
100
AcDbVisualStyle
  2
FlatWithEdges
 70
     1
 71
     2
 72
     1
 73
     1
 90
        2
 40
-0.6
 41
30.0
 62
     5
 63
     7
421
 16777215
 74
     1
 91
        4
 64
     7
 65
   257
 75
     1
175
     1
 42
1.0
 92
        0
 66
   257
 43
1.0
 76
     1
 77
     6
 78
     2
 67
     7
 79
     5
170
     0
171
     0
290
     0
174
     0
 93
       13
 44
0.0
173
     0
291
     1
 45
0.0
1001
ACAD
1000
AcDbSavedByObjectVersion
1070
     0
  0
VISUALSTYLE
  5
2D
102
{ACAD_REACTORS
330
2A
102
}
102
{ACAD_XDICTIONARY
360
19A
102
}
330
2A
100
AcDbVisualStyle
  2
Gouraud
 70
     2
 71
     2
 72
     2
 73
     1
 90
        2
 40
-0.6
 41
30.0
 62
     5
 63
     7
421
 16777215
 74
     0
 91
        4
 64
     7
 65
   257
 75
     1
175
     1
 42
1.0
 92
        0
 66
     7
 43
1.0
 76
     1
 77
     6
 78
     2
 67
     7
 79
     5
170
     0
171
     0
290
     0
174
     0
 93
       13
 44
0.0
173
     0
291
     1
 45
0.0
1001
ACAD
1000
AcDbSavedByObjectVersion
1070
     0
  0
VISUALSTYLE
  5
2E
102
{ACAD_REACTORS
330
2A
102
}
102
{ACAD_XDICTIONARY
360
19C
102
}
330
2A
100
AcDbVisualStyle
  2
GouraudWithEdges
 70
     3
 71
     2
 72
     2
 73
     1
 90
        2
 40
-0.6
 41
30.0
 62
     5
 63
     7
421
 16777215
 74
     1
 91
        4
 64
     7
 65
   257
 75
     1
175
     1
 42
1.0
 92
        0
 66
   257
 43
1.0
 76
     1
 77
     6
 78
     2
 67
     7
 79
     5
170
     0
171
     0
290
     0
174
     0
 93
       13
 44
0.0
173
     0
291
     1
 45
0.0
1001
ACAD
1000
AcDbSavedByObjectVersion
1070
     0
  0
VISUALSTYLE
  5
38
102
{ACAD_REACTORS
330
2A
102
}
102
{ACAD_XDICTIONARY
360
1B0
102
}
330
2A
100
AcDbVisualStyle
  2
Linepattern
 70
    14
 71
     2
 72
     2
 73
     0
 90
        0
 40
-0.6
 41
-30.0
 62
     5
 63
     7
421
 16777215
 74
     1
 91
        4
 64
     7
 65
   257
 75
     7
175
     7
 42
1.0
 92
        8
 66
     7
 43
1.0
 76
     1
 77
     6
 78
     2
 67
     7
 79
     5
170
     0
171
     0
290
     0
174
     0
 93
        1
 44
0.0
173
     0
291
     1
 45
0.0
1001
ACAD
1000
AcDbSavedByObjectVersion
1070
     0
  0
VISUALSTYLE
  5
33
102
{ACAD_REACTORS
330
2A
102
}
102
{ACAD_XDICTIONARY
360
1A6
102
}
330
2A
100
AcDbVisualStyle
  2
Realistic
 70
     8
 71
     2
 72
     2
 73
     0
 90
        0
 40
-0.6
 41
-30.0
 62
     5
 63
     7
421
 16777215
 74
     1
 91
        0
 64
     7
 65
   257
 75
     1
175
     1
 42
1.0
 92
        8
 66
     8
424
  7895160
 43
1.0
 76
     1
 77
     6
 78
     2
 67
     7
 79
     5
170
     0
171
     0
290
     0
174
     0
 93
       13
 44
0.0
173
     0
291
     0
 45
0.0
1001
ACAD
1000
AcDbSavedByObjectVersion
1070
     0
  0
VISUALSTYLE
  5
37
102
{ACAD_REACTORS
330
2A
102
}
102
{ACAD_XDICTIONARY
360
1AE
102
}
330
2A
100
AcDbVisualStyle
  2
Thicken
 70
    13
 71
     2
 72
     2
 73
     0
 90
        0
 40
-0.6
 41
-30.0
 62
     5
 63
     7
421
 16777215
 74
     1
 91
        4
 64
     7
 65
   257
 75
     1
175
     1
 42
1.0
 92
       12
 66
     7
 43
1.0
 76
     1
 77
     6
 78
     2
 67
     7
 79
     5
170
     0
171
     0
290
     0
174
     0
 93
        1
 44
0.0
173
     0
291
     1
 45
0.0
1001
ACAD
1000
AcDbSavedByObjectVersion
1070
     0
  0
DICTIONARYVAR
  5
195
102
{ACAD_REACTORS
330
194
102
}
330
194
100
DictionaryVariables
280
     0
  1
1:1
  0
DICTIONARYVAR
  5
1BE
102
{ACAD_REACTORS
330
194
102
}
330
194
100
DictionaryVariables
280
     0
  1
0
  0
XRECORD
  5
193
102
{ACAD_REACTORS
330
192
102
}
330
192
100
AcDbXrecord
280
     1
1000
This DWG file was created in ArchiCAD(TM)®
  0
DICTIONARY
  5
1B8
330
3D
100
AcDbDictionary
280
     1
281
     1
  3
ACAD_XREC_ROUNDTRIP
360
1B9
  0
DICTIONARY
  5
1B6
330
3C
100
AcDbDictionary
280
     1
281
     1
  3
ACAD_XREC_ROUNDTRIP
360
1B7
  0
DICTIONARY
  5
1BA
330
3E
100
AcDbDictionary
280
     1
281
     1
  3
ACAD_XREC_ROUNDTRIP
360
1BB
  0
DICTIONARY
  5
19E
330
2F
100
AcDbDictionary
280
     1
281
     1
  3
ACAD_XREC_ROUNDTRIP
360
19F
  0
DICTIONARY
  5
1A2
330
31
100
AcDbDictionary
280
     1
281
     1
  3
ACAD_XREC_ROUNDTRIP
360
1A3
  0
DICTIONARY
  5
1A0
330
30
100
AcDbDictionary
280
     1
281
     1
  3
ACAD_XREC_ROUNDTRIP
360
1A1
  0
DICTIONARY
  5
1A4
330
32
100
AcDbDictionary
280
     1
281
     1
  3
ACAD_XREC_ROUNDTRIP
360
1A5
  0
DICTIONARY
  5
1AC
330
36
100
AcDbDictionary
280
     1
281
     1
  3
ACAD_XREC_ROUNDTRIP
360
1AD
  0
DICTIONARY
  5
1B4
330
3A
100
AcDbDictionary
280
     1
281
     1
  3
ACAD_XREC_ROUNDTRIP
360
1B5
  0
DICTIONARY
  5
1A8
330
34
100
AcDbDictionary
280
     1
281
     1
  3
ACAD_XREC_ROUNDTRIP
360
1A9
  0
DICTIONARY
  5
1AA
330
35
100
AcDbDictionary
280
     1
281
     1
  3
ACAD_XREC_ROUNDTRIP
360
1AB
  0
DICTIONARY
  5
1B2
330
39
100
AcDbDictionary
280
     1
281
     1
  3
ACAD_XREC_ROUNDTRIP
360
1B3
  0
DICTIONARY
  5
196
330
2B
100
AcDbDictionary
280
     1
281
     1
  3
ACAD_XREC_ROUNDTRIP
360
197
  0
DICTIONARY
  5
198
330
2C
100
AcDbDictionary
280
     1
281
     1
  3
ACAD_XREC_ROUNDTRIP
360
199
  0
DICTIONARY
  5
19A
330
2D
100
AcDbDictionary
280
     1
281
     1
  3
ACAD_XREC_ROUNDTRIP
360
19B
  0
DICTIONARY
  5
19C
330
2E
100
AcDbDictionary
280
     1
281
     1
  3
ACAD_XREC_ROUNDTRIP
360
19D
  0
DICTIONARY
  5
1B0
330
38
100
AcDbDictionary
280
     1
281
     1
  3
ACAD_XREC_ROUNDTRIP
360
1B1
  0
DICTIONARY
  5
1A6
330
33
100
AcDbDictionary
280
     1
281
     1
  3
ACAD_XREC_ROUNDTRIP
360
1A7
  0
DICTIONARY
  5
1AE
330
37
100
AcDbDictionary
280
     1
281
     1
  3
ACAD_XREC_ROUNDTRIP
360
1AF
  0
XRECORD
  5
1B9
102
{ACAD_REACTORS
330
1B8
102
}
330
1B8
100
AcDbXrecord
280
     1
102
MATERIAL
148
0.0
149
0.0
149
0.0
 93
        0
 94
      127
282
     0
 72
     1
 77
     1
171
     1
175
     1
179
     1
273
     0
  0
XRECORD
  5
1B7
102
{ACAD_REACTORS
330
1B6
102
}
330
1B6
100
AcDbXrecord
280
     1
102
MATERIAL
148
0.0
149
0.0
149
0.0
 93
        0
 94
      127
282
     0
 72
     1
 77
     1
171
     1
175
     1
179
     1
273
     0
  0
XRECORD
  5
1BB
102
{ACAD_REACTORS
330
1BA
102
}
330
1BA
100
AcDbXrecord
280
     1
102
MATERIAL
148
0.0
149
0.0
149
0.0
 93
        0
 94
      127
282
     0
 72
     1
 77
     1
171
     1
175
     1
179
     1
273
     0
  0
XRECORD
  5
19F
102
{ACAD_REACTORS
330
19E
102
}
330
19E
100
AcDbXrecord
280
     1
102
RTVSPropertyOp0
 70
     1
102
RTVSPropertyOp1
 70
     1
102
RTVSPropertyOp2
 70
     1
102
RTVSPropertyOp3
 70
     1
102
RTVSPropertyOp4
 70
     1
102
RTVSPropertyOp5
 70
     1
102
RTVSPropertyOp6
 70
     1
102
RTVSPropertyOp7
 70
     1
102
RTVSPropertyOp8
 70
     1
102
RTVSPropertyOp9
 70
     1
102
RTVSPropertyOp10
 70
     1
102
RTVSPropertyOp11
 70
     1
102
RTVSPropertyOp12
 70
     1
102
RTVSPropertyOp13
 70
     1
102
RTVSPropertyOp14
 70
     1
102
RTVSPropertyOp15
 70
     1
102
RTVSPropertyOp16
 70
     1
102
RTVSPropertyOp17
 70
     1
102
RTVSPropertyOp18
 70
     1
102
RTVSPropertyOp19
 70
     1
102
RTVSPropertyOp20
 70
     1
102
RTVSPropertyOp21
 70
     1
102
RTVSPropertyOp22
 70
     1
102
RTVSPropertyOp23
 70
     1
102
RTVSPropertyOp24
 70
     1
102
RTVSPropertyOp25
 70
     1
102
RTVSPropertyOp26
 70
     1
102
RTVSPropertyOp27
 70
     1
102
RTVSPropertyOp28
 70
     1
102
RTVSPropertyOp29
 70
     1
102
RTVSPropertyOp30
 70
     1
102
RTVSPropertyOp31
 70
     1
102
RTVSPropertyOp32
 70
     1
  0
XRECORD
  5
1A3
102
{ACAD_REACTORS
330
1A2
102
}
330
1A2
100
AcDbXrecord
280
     1
102
RTVSPropertyOp0
 70
     1
102
RTVSPropertyOp1
 70
     1
102
RTVSPropertyOp2
 70
     1
102
RTVSPropertyOp3
 70
     1
102
RTVSPropertyOp4
 70
     1
102
RTVSPropertyOp5
 70
     1
102
RTVSPropertyOp6
 70
     1
102
RTVSPropertyOp7
 70
     1
102
RTVSPropertyOp8
 70
     1
102
RTVSPropertyOp9
 70
     1
102
RTVSPropertyOp10
 70
     1
102
RTVSPropertyOp11
 70
     1
102
RTVSPropertyOp12
 70
     1
102
RTVSPropertyOp13
 70
     1
102
RTVSPropertyOp14
 70
     1
102
RTVSPropertyOp15
 70
     1
102
RTVSPropertyOp16
 70
     1
102
RTVSPropertyOp17
 70
     1
102
RTVSPropertyOp18
 70
     1
102
RTVSPropertyOp19
 70
     1
102
RTVSPropertyOp20
 70
     1
102
RTVSPropertyOp21
 70
     1
102
RTVSPropertyOp22
 70
     1
102
RTVSPropertyOp23
 70
     1
102
RTVSPropertyOp24
 70
     1
102
RTVSPropertyOp25
 70
     1
102
RTVSPropertyOp26
 70
     1
102
RTVSPropertyOp27
 70
     1
102
RTVSPropertyOp28
 70
     1
102
RTVSPropertyOp29
 70
     1
102
RTVSPropertyOp30
 70
     1
102
RTVSPropertyOp31
 70
     1
102
RTVSPropertyOp32
 70
     1
  0
XRECORD
  5
1A1
102
{ACAD_REACTORS
330
1A0
102
}
330
1A0
100
AcDbXrecord
280
     1
102
RTVSPropertyOp0
 70
     1
102
RTVSPropertyOp1
 70
     1
102
RTVSPropertyOp2
 70
     1
102
RTVSPropertyOp3
 70
     1
102
RTVSPropertyOp4
 70
     1
102
RTVSPropertyOp5
 70
     1
102
RTVSPropertyOp6
 70
     1
102
RTVSPropertyOp7
 70
     1
102
RTVSPropertyOp8
 70
     1
102
RTVSPropertyOp9
 70
     1
102
RTVSPropertyOp10
 70
     1
102
RTVSPropertyOp11
 70
     1
102
RTVSPropertyOp12
 70
     1
102
RTVSPropertyOp13
 70
     1
102
RTVSPropertyOp14
 70
     1
102
RTVSPropertyOp15
 70
     1
102
RTVSPropertyOp16
 70
     1
102
RTVSPropertyOp17
 70
     1
102
RTVSPropertyOp18
 70
     1
102
RTVSPropertyOp19
 70
     1
102
RTVSPropertyOp20
 70
     1
102
RTVSPropertyOp21
 70
     1
102
RTVSPropertyOp22
 70
     1
102
RTVSPropertyOp23
 70
     1
102
RTVSPropertyOp24
 70
     1
102
RTVSPropertyOp25
 70
     1
102
RTVSPropertyOp26
 70
     1
102
RTVSPropertyOp27
 70
     1
102
RTVSPropertyOp28
 70
     1
102
RTVSPropertyOp29
 70
     1
102
RTVSPropertyOp30
 70
     1
102
RTVSPropertyOp31
 70
     1
102
RTVSPropertyOp32
 70
     1
  0
XRECORD
  5
1A5
102
{ACAD_REACTORS
330
1A4
102
}
330
1A4
100
AcDbXrecord
280
     1
102
RTVSPropertyOp0
 70
     1
102
RTVSPropertyOp1
 70
     1
102
RTVSPropertyOp2
 70
     1
102
RTVSPropertyOp3
 70
     1
102
RTVSPropertyOp4
 70
     1
102
RTVSPropertyOp5
 70
     1
102
RTVSPropertyOp6
 70
     1
102
RTVSPropertyOp7
 70
     1
102
RTVSPropertyOp8
 70
     1
102
RTVSPropertyOp9
 70
     1
102
RTVSPropertyOp10
 70
     1
102
RTVSPropertyOp11
 70
     1
102
RTVSPropertyOp12
 70
     1
102
RTVSPropertyOp13
 70
     1
102
RTVSPropertyOp14
 70
     1
102
RTVSPropertyOp15
 70
     1
102
RTVSPropertyOp16
 70
     1
102
RTVSPropertyOp17
 70
     1
102
RTVSPropertyOp18
 70
     1
102
RTVSPropertyOp19
 70
     1
102
RTVSPropertyOp20
 70
     1
102
RTVSPropertyOp21
 70
     1
102
RTVSPropertyOp22
 70
     1
102
RTVSPropertyOp23
 70
     1
102
RTVSPropertyOp24
 70
     1
102
RTVSPropertyOp25
 70
     1
102
RTVSPropertyOp26
 70
     1
102
RTVSPropertyOp27
 70
     1
102
RTVSPropertyOp28
 70
     1
102
RTVSPropertyOp29
 70
     1
102
RTVSPropertyOp30
 70
     1
102
RTVSPropertyOp31
 70
     1
102
RTVSPropertyOp32
 70
     1
  0
XRECORD
  5
1AD
102
{ACAD_REACTORS
330
1AC
102
}
330
1AC
100
AcDbXrecord
280
     1
102
RTVSPropertyOp0
 70
     1
102
RTVSPropertyOp1
 70
     1
102
RTVSPropertyOp2
 70
     1
102
RTVSPropertyOp3
 70
     1
102
RTVSPropertyOp4
 70
     1
102
RTVSPropertyOp5
 70
     1
102
RTVSPropertyOp6
 70
     1
102
RTVSPropertyOp7
 70
     1
102
RTVSPropertyOp8
 70
     1
102
RTVSPropertyOp9
 70
     1
102
RTVSPropertyOp10
 70
     1
102
RTVSPropertyOp11
 70
     1
102
RTVSPropertyOp12
 70
     1
102
RTVSPropertyOp13
 70
     1
102
RTVSPropertyOp14
 70
     1
102
RTVSPropertyOp15
 70
     1
102
RTVSPropertyOp16
 70
     1
102
RTVSPropertyOp17
 70
     1
102
RTVSPropertyOp18
 70
     1
102
RTVSPropertyOp19
 70
     1
102
RTVSPropertyOp20
 70
     1
102
RTVSPropertyOp21
 70
     1
102
RTVSPropertyOp22
 70
     1
102
RTVSPropertyOp23
 70
     1
102
RTVSPropertyOp24
 70
     1
102
RTVSPropertyOp25
 70
     1
102
RTVSPropertyOp26
 70
     1
102
RTVSPropertyOp27
 70
     1
102
RTVSPropertyOp28
 70
     1
102
RTVSPropertyOp29
 70
     1
102
RTVSPropertyOp30
 70
     1
102
RTVSPropertyOp31
 70
     1
102
RTVSPropertyOp32
 70
     1
  0
XRECORD
  5
1B5
102
{ACAD_REACTORS
330
1B4
102
}
330
1B4
100
AcDbXrecord
280
     1
102
RTVSPropertyOp0
 70
     1
102
RTVSPropertyOp1
 70
     1
102
RTVSPropertyOp2
 70
     1
102
RTVSPropertyOp3
 70
     1
102
RTVSPropertyOp4
 70
     1
102
RTVSPropertyOp5
 70
     1
102
RTVSPropertyOp6
 70
     1
102
RTVSPropertyOp7
 70
     1
102
RTVSPropertyOp8
 70
     1
102
RTVSPropertyOp9
 70
     1
102
RTVSPropertyOp10
 70
     1
102
RTVSPropertyOp11
 70
     1
102
RTVSPropertyOp12
 70
     1
102
RTVSPropertyOp13
 70
     1
102
RTVSPropertyOp14
 70
     1
102
RTVSPropertyOp15
 70
     1
102
RTVSPropertyOp16
 70
     1
102
RTVSPropertyOp17
 70
     1
102
RTVSPropertyOp18
 70
     1
102
RTVSPropertyOp19
 70
     1
102
RTVSPropertyOp20
 70
     1
102
RTVSPropertyOp21
 70
     1
102
RTVSPropertyOp22
 70
     1
102
RTVSPropertyOp23
 70
     1
102
RTVSPropertyOp24
 70
     1
102
RTVSPropertyOp25
 70
     1
102
RTVSPropertyOp26
 70
     1
102
RTVSPropertyOp27
 70
     1
102
RTVSPropertyOp28
 70
     1
102
RTVSPropertyOp29
 70
     1
102
RTVSPropertyOp30
 70
     1
102
RTVSPropertyOp31
 70
     1
102
RTVSPropertyOp32
 70
     1
  0
XRECORD
  5
1A9
102
{ACAD_REACTORS
330
1A8
102
}
330
1A8
100
AcDbXrecord
280
     1
102
RTVSPropertyOp0
 70
     1
102
RTVSPropertyOp1
 70
     1
102
RTVSPropertyOp2
 70
     1
102
RTVSPropertyOp3
 70
     1
102
RTVSPropertyOp4
 70
     1
102
RTVSPropertyOp5
 70
     1
102
RTVSPropertyOp6
 70
     1
102
RTVSPropertyOp7
 70
     1
102
RTVSPropertyOp8
 70
     1
102
RTVSPropertyOp9
 70
     1
102
RTVSPropertyOp10
 70
     1
102
RTVSPropertyOp11
 70
     1
102
RTVSPropertyOp12
 70
     1
102
RTVSPropertyOp13
 70
     1
102
RTVSPropertyOp14
 70
     1
102
RTVSPropertyOp15
 70
     1
102
RTVSPropertyOp16
 70
     1
102
RTVSPropertyOp17
 70
     1
102
RTVSPropertyOp18
 70
     1
102
RTVSPropertyOp19
 70
     1
102
RTVSPropertyOp20
 70
     1
102
RTVSPropertyOp21
 70
     1
102
RTVSPropertyOp22
 70
     1
102
RTVSPropertyOp23
 70
     1
102
RTVSPropertyOp24
 70
     1
102
RTVSPropertyOp25
 70
     1
102
RTVSPropertyOp26
 70
     1
102
RTVSPropertyOp27
 70
     1
102
RTVSPropertyOp28
 70
     1
102
RTVSPropertyOp29
 70
     1
102
RTVSPropertyOp30
 70
     1
102
RTVSPropertyOp31
 70
     1
102
RTVSPropertyOp32
 70
     1
  0
XRECORD
  5
1AB
102
{ACAD_REACTORS
330
1AA
102
}
330
1AA
100
AcDbXrecord
280
     1
102
RTVSPropertyOp0
 70
     1
102
RTVSPropertyOp1
 70
     1
102
RTVSPropertyOp2
 70
     1
102
RTVSPropertyOp3
 70
     1
102
RTVSPropertyOp4
 70
     1
102
RTVSPropertyOp5
 70
     1
102
RTVSPropertyOp6
 70
     1
102
RTVSPropertyOp7
 70
     1
102
RTVSPropertyOp8
 70
     1
102
RTVSPropertyOp9
 70
     1
102
RTVSPropertyOp10
 70
     1
102
RTVSPropertyOp11
 70
     1
102
RTVSPropertyOp12
 70
     1
102
RTVSPropertyOp13
 70
     1
102
RTVSPropertyOp14
 70
     1
102
RTVSPropertyOp15
 70
     1
102
RTVSPropertyOp16
 70
     1
102
RTVSPropertyOp17
 70
     1
102
RTVSPropertyOp18
 70
     1
102
RTVSPropertyOp19
 70
     1
102
RTVSPropertyOp20
 70
     1
102
RTVSPropertyOp21
 70
     1
102
RTVSPropertyOp22
 70
     1
102
RTVSPropertyOp23
 70
     1
102
RTVSPropertyOp24
 70
     1
102
RTVSPropertyOp25
 70
     1
102
RTVSPropertyOp26
 70
     1
102
RTVSPropertyOp27
 70
     1
102
RTVSPropertyOp28
 70
     1
102
RTVSPropertyOp29
 70
     1
102
RTVSPropertyOp30
 70
     1
102
RTVSPropertyOp31
 70
     1
102
RTVSPropertyOp32
 70
     1
  0
XRECORD
  5
1B3
102
{ACAD_REACTORS
330
1B2
102
}
330
1B2
100
AcDbXrecord
280
     1
102
RTVSPropertyOp0
 70
     1
102
RTVSPropertyOp1
 70
     1
102
RTVSPropertyOp2
 70
     1
102
RTVSPropertyOp3
 70
     1
102
RTVSPropertyOp4
 70
     1
102
RTVSPropertyOp5
 70
     1
102
RTVSPropertyOp6
 70
     1
102
RTVSPropertyOp7
 70
     1
102
RTVSPropertyOp8
 70
     1
102
RTVSPropertyOp9
 70
     1
102
RTVSPropertyOp10
 70
     1
102
RTVSPropertyOp11
 70
     1
102
RTVSPropertyOp12
 70
     1
102
RTVSPropertyOp13
 70
     1
102
RTVSPropertyOp14
 70
     1
102
RTVSPropertyOp15
 70
     1
102
RTVSPropertyOp16
 70
     1
102
RTVSPropertyOp17
 70
     1
102
RTVSPropertyOp18
 70
     1
102
RTVSPropertyOp19
 70
     1
102
RTVSPropertyOp20
 70
     1
102
RTVSPropertyOp21
 70
     1
102
RTVSPropertyOp22
 70
     1
102
RTVSPropertyOp23
 70
     1
102
RTVSPropertyOp24
 70
     1
102
RTVSPropertyOp25
 70
     1
102
RTVSPropertyOp26
 70
     1
102
RTVSPropertyOp27
 70
     1
102
RTVSPropertyOp28
 70
     1
102
RTVSPropertyOp29
 70
     1
102
RTVSPropertyOp30
 70
     1
102
RTVSPropertyOp31
 70
     1
102
RTVSPropertyOp32
 70
     1
  0
XRECORD
  5
197
102
{ACAD_REACTORS
330
196
102
}
330
196
100
AcDbXrecord
280
     1
102
RTVSPropertyOp0
 70
     1
102
RTVSPropertyOp1
 70
     1
102
RTVSPropertyOp2
 70
     1
102
RTVSPropertyOp3
 70
     1
102
RTVSPropertyOp4
 70
     1
102
RTVSPropertyOp5
 70
     1
102
RTVSPropertyOp6
 70
     1
102
RTVSPropertyOp7
 70
     1
102
RTVSPropertyOp8
 70
     1
102
RTVSPropertyOp9
 70
     1
102
RTVSPropertyOp10
 70
     1
102
RTVSPropertyOp11
 70
     1
102
RTVSPropertyOp12
 70
     1
102
RTVSPropertyOp13
 70
     1
102
RTVSPropertyOp14
 70
     1
102
RTVSPropertyOp15
 70
     1
102
RTVSPropertyOp16
 70
     1
102
RTVSPropertyOp17
 70
     1
102
RTVSPropertyOp18
 70
     1
102
RTVSPropertyOp19
 70
     1
102
RTVSPropertyOp20
 70
     1
102
RTVSPropertyOp21
 70
     1
102
RTVSPropertyOp22
 70
     1
102
RTVSPropertyOp23
 70
     1
102
RTVSPropertyOp24
 70
     1
102
RTVSPropertyOp25
 70
     1
102
RTVSPropertyOp26
 70
     1
102
RTVSPropertyOp27
 70
     1
102
RTVSPropertyOp28
 70
     1
102
RTVSPropertyOp29
 70
     1
102
RTVSPropertyOp30
 70
     1
102
RTVSPropertyOp31
 70
     1
102
RTVSPropertyOp32
 70
     1
  0
XRECORD
  5
199
102
{ACAD_REACTORS
330
198
102
}
330
198
100
AcDbXrecord
280
     1
102
RTVSPropertyOp0
 70
     1
102
RTVSPropertyOp1
 70
     1
102
RTVSPropertyOp2
 70
     1
102
RTVSPropertyOp3
 70
     1
102
RTVSPropertyOp4
 70
     1
102
RTVSPropertyOp5
 70
     1
102
RTVSPropertyOp6
 70
     1
102
RTVSPropertyOp7
 70
     1
102
RTVSPropertyOp8
 70
     1
102
RTVSPropertyOp9
 70
     1
102
RTVSPropertyOp10
 70
     1
102
RTVSPropertyOp11
 70
     1
102
RTVSPropertyOp12
 70
     1
102
RTVSPropertyOp13
 70
     1
102
RTVSPropertyOp14
 70
     1
102
RTVSPropertyOp15
 70
     1
102
RTVSPropertyOp16
 70
     1
102
RTVSPropertyOp17
 70
     1
102
RTVSPropertyOp18
 70
     1
102
RTVSPropertyOp19
 70
     1
102
RTVSPropertyOp20
 70
     1
102
RTVSPropertyOp21
 70
     1
102
RTVSPropertyOp22
 70
     1
102
RTVSPropertyOp23
 70
     1
102
RTVSPropertyOp24
 70
     1
102
RTVSPropertyOp25
 70
     1
102
RTVSPropertyOp26
 70
     1
102
RTVSPropertyOp27
 70
     1
102
RTVSPropertyOp28
 70
     1
102
RTVSPropertyOp29
 70
     1
102
RTVSPropertyOp30
 70
     1
102
RTVSPropertyOp31
 70
     1
102
RTVSPropertyOp32
 70
     1
  0
XRECORD
  5
19B
102
{ACAD_REACTORS
330
19A
102
}
330
19A
100
AcDbXrecord
280
     1
102
RTVSPropertyOp0
 70
     1
102
RTVSPropertyOp1
 70
     1
102
RTVSPropertyOp2
 70
     1
102
RTVSPropertyOp3
 70
     1
102
RTVSPropertyOp4
 70
     1
102
RTVSPropertyOp5
 70
     1
102
RTVSPropertyOp6
 70
     1
102
RTVSPropertyOp7
 70
     1
102
RTVSPropertyOp8
 70
     1
102
RTVSPropertyOp9
 70
     1
102
RTVSPropertyOp10
 70
     1
102
RTVSPropertyOp11
 70
     1
102
RTVSPropertyOp12
 70
     1
102
RTVSPropertyOp13
 70
     1
102
RTVSPropertyOp14
 70
     1
102
RTVSPropertyOp15
 70
     1
102
RTVSPropertyOp16
 70
     1
102
RTVSPropertyOp17
 70
     1
102
RTVSPropertyOp18
 70
     1
102
RTVSPropertyOp19
 70
     1
102
RTVSPropertyOp20
 70
     1
102
RTVSPropertyOp21
 70
     1
102
RTVSPropertyOp22
 70
     1
102
RTVSPropertyOp23
 70
     1
102
RTVSPropertyOp24
 70
     1
102
RTVSPropertyOp25
 70
     1
102
RTVSPropertyOp26
 70
     1
102
RTVSPropertyOp27
 70
     1
102
RTVSPropertyOp28
 70
     1
102
RTVSPropertyOp29
 70
     1
102
RTVSPropertyOp30
 70
     1
102
RTVSPropertyOp31
 70
     1
102
RTVSPropertyOp32
 70
     1
  0
XRECORD
  5
19D
102
{ACAD_REACTORS
330
19C
102
}
330
19C
100
AcDbXrecord
280
     1
102
RTVSPropertyOp0
 70
     1
102
RTVSPropertyOp1
 70
     1
102
RTVSPropertyOp2
 70
     1
102
RTVSPropertyOp3
 70
     1
102
RTVSPropertyOp4
 70
     1
102
RTVSPropertyOp5
 70
     1
102
RTVSPropertyOp6
 70
     1
102
RTVSPropertyOp7
 70
     1
102
RTVSPropertyOp8
 70
     1
102
RTVSPropertyOp9
 70
     1
102
RTVSPropertyOp10
 70
     1
102
RTVSPropertyOp11
 70
     1
102
RTVSPropertyOp12
 70
     1
102
RTVSPropertyOp13
 70
     1
102
RTVSPropertyOp14
 70
     1
102
RTVSPropertyOp15
 70
     1
102
RTVSPropertyOp16
 70
     1
102
RTVSPropertyOp17
 70
     1
102
RTVSPropertyOp18
 70
     1
102
RTVSPropertyOp19
 70
     1
102
RTVSPropertyOp20
 70
     1
102
RTVSPropertyOp21
 70
     1
102
RTVSPropertyOp22
 70
     1
102
RTVSPropertyOp23
 70
     1
102
RTVSPropertyOp24
 70
     1
102
RTVSPropertyOp25
 70
     1
102
RTVSPropertyOp26
 70
     1
102
RTVSPropertyOp27
 70
     1
102
RTVSPropertyOp28
 70
     1
102
RTVSPropertyOp29
 70
     1
102
RTVSPropertyOp30
 70
     1
102
RTVSPropertyOp31
 70
     1
102
RTVSPropertyOp32
 70
     1
  0
XRECORD
  5
1B1
102
{ACAD_REACTORS
330
1B0
102
}
330
1B0
100
AcDbXrecord
280
     1
102
RTVSPropertyOp0
 70
     1
102
RTVSPropertyOp1
 70
     1
102
RTVSPropertyOp2
 70
     1
102
RTVSPropertyOp3
 70
     1
102
RTVSPropertyOp4
 70
     1
102
RTVSPropertyOp5
 70
     1
102
RTVSPropertyOp6
 70
     1
102
RTVSPropertyOp7
 70
     1
102
RTVSPropertyOp8
 70
     1
102
RTVSPropertyOp9
 70
     1
102
RTVSPropertyOp10
 70
     1
102
RTVSPropertyOp11
 70
     1
102
RTVSPropertyOp12
 70
     1
102
RTVSPropertyOp13
 70
     1
102
RTVSPropertyOp14
 70
     1
102
RTVSPropertyOp15
 70
     1
102
RTVSPropertyOp16
 70
     1
102
RTVSPropertyOp17
 70
     1
102
RTVSPropertyOp18
 70
     1
102
RTVSPropertyOp19
 70
     1
102
RTVSPropertyOp20
 70
     1
102
RTVSPropertyOp21
 70
     1
102
RTVSPropertyOp22
 70
     1
102
RTVSPropertyOp23
 70
     1
102
RTVSPropertyOp24
 70
     1
102
RTVSPropertyOp25
 70
     1
102
RTVSPropertyOp26
 70
     1
102
RTVSPropertyOp27
 70
     1
102
RTVSPropertyOp28
 70
     1
102
RTVSPropertyOp29
 70
     1
102
RTVSPropertyOp30
 70
     1
102
RTVSPropertyOp31
 70
     1
102
RTVSPropertyOp32
 70
     1
  0
XRECORD
  5
1A7
102
{ACAD_REACTORS
330
1A6
102
}
330
1A6
100
AcDbXrecord
280
     1
102
RTVSPropertyOp0
 70
     1
102
RTVSPropertyOp1
 70
     1
102
RTVSPropertyOp2
 70
     1
102
RTVSPropertyOp3
 70
     1
102
RTVSPropertyOp4
 70
     1
102
RTVSPropertyOp5
 70
     1
102
RTVSPropertyOp6
 70
     1
102
RTVSPropertyOp7
 70
     1
102
RTVSPropertyOp8
 70
     1
102
RTVSPropertyOp9
 70
     1
102
RTVSPropertyOp10
 70
     1
102
RTVSPropertyOp11
 70
     1
102
RTVSPropertyOp12
 70
     1
102
RTVSPropertyOp13
 70
     1
102
RTVSPropertyOp14
 70
     1
102
RTVSPropertyOp15
 70
     1
102
RTVSPropertyOp16
 70
     1
102
RTVSPropertyOp17
 70
     1
102
RTVSPropertyOp18
 70
     1
102
RTVSPropertyOp19
 70
     1
102
RTVSPropertyOp20
 70
     1
102
RTVSPropertyOp21
 70
     1
102
RTVSPropertyOp22
 70
     1
102
RTVSPropertyOp23
 70
     1
102
RTVSPropertyOp24
 70
     1
102
RTVSPropertyOp25
 70
     1
102
RTVSPropertyOp26
 70
     1
102
RTVSPropertyOp27
 70
     1
102
RTVSPropertyOp28
 70
     1
102
RTVSPropertyOp29
 70
     1
102
RTVSPropertyOp30
 70
     1
102
RTVSPropertyOp31
 70
     1
102
RTVSPropertyOp32
 70
     1
  0
XRECORD
  5
1AF
102
{ACAD_REACTORS
330
1AE
102
}
330
1AE
100
AcDbXrecord
280
     1
102
RTVSPropertyOp0
 70
     1
102
RTVSPropertyOp1
 70
     1
102
RTVSPropertyOp2
 70
     1
102
RTVSPropertyOp3
 70
     1
102
RTVSPropertyOp4
 70
     1
102
RTVSPropertyOp5
 70
     1
102
RTVSPropertyOp6
 70
     1
102
RTVSPropertyOp7
 70
     1
102
RTVSPropertyOp8
 70
     1
102
RTVSPropertyOp9
 70
     1
102
RTVSPropertyOp10
 70
     1
102
RTVSPropertyOp11
 70
     1
102
RTVSPropertyOp12
 70
     1
102
RTVSPropertyOp13
 70
     1
102
RTVSPropertyOp14
 70
     1
102
RTVSPropertyOp15
 70
     1
102
RTVSPropertyOp16
 70
     1
102
RTVSPropertyOp17
 70
     1
102
RTVSPropertyOp18
 70
     1
102
RTVSPropertyOp19
 70
     1
102
RTVSPropertyOp20
 70
     1
102
RTVSPropertyOp21
 70
     1
102
RTVSPropertyOp22
 70
     1
102
RTVSPropertyOp23
 70
     1
102
RTVSPropertyOp24
 70
     1
102
RTVSPropertyOp25
 70
     1
102
RTVSPropertyOp26
 70
     1
102
RTVSPropertyOp27
 70
     1
102
RTVSPropertyOp28
 70
     1
102
RTVSPropertyOp29
 70
     1
102
RTVSPropertyOp30
 70
     1
102
RTVSPropertyOp31
 70
     1
102
RTVSPropertyOp32
 70
     1
  0
ENDSEC
  0
EOF
