  0
SECTION
  2
HEADER
  9
$ACADVER
  1
AC1009
  9
$INSBASE
 10
0.0
 20
0.0
 30
0.0
  9
$EXTMIN
 10
-652.54475099214585
 20
-493.52038033041163
 30
-0.0015258207003583
  9
$EXTMAX
 10
779.44994059798682
 20
591.59684794793384
 30
0.0000000349246037
  9
$LIMMIN
 10
0.0
 20
0.0
  9
$LIMMAX
 10
420.0
 20
297.0
  9
$ORTHOMODE
 70
     0
  9
$REGENMODE
 70
     1
  9
$FILLMODE
 70
     1
  9
$QTEXTMODE
 70
     0
  9
$MIRRTEXT
 70
     0
  9
$DRAGMODE
 70
     2
  9
$LTSCALE
 40
1.0
  9
$OSMODE
 70
     0
  9
$ATTMODE
 70
     1
  9
$TEXTSIZE
 40
35.0
  9
$TRACEWID
 40
1.0
  9
$TEXTSTYLE
  7
ARIAL
  9
$CLAYER
  8
0
  9
$CELTYPE
  6
CONTINUOUS
  9
$CECOLOR
 62
   256
  9
$DIMSCALE
 40
5.0
  9
$DIMASZ
 40
1.8
  9
$DIMEXO
 40
1.8
  9
$DIMDLI
 40
5.0
  9
$DIMRND
 40
0.0
  9
$DIMDLE
 40
1.8
  9
$DIMEXE
 40
1.8
  9
$DIMTP
 40
0.0
  9
$DIMTM
 40
0.0
  9
$DIMTXT
 40
2.0
  9
$DIMCEN
 40
1.8
  9
$DIMTSZ
 40
0.0
  9
$DIMTOL
 70
     0
  9
$DIMLIM
 70
     0
  9
$DIMTIH
 70
     0
  9
$DIMTOH
 70
     0
  9
$DIMSE1
 70
     0
  9
$DIMSE2
 70
     0
  9
$DIMTAD
 70
     1
  9
$DIMZIN
 70
     0
  9
$DIMBLK
  1

  9
$DIMASO
 70
     1
  9
$DIMSHO
 70
     1
  9
$DIMPOST
  1
mm
  9
$DIMAPOST
  1
mm
  9
$DIMALT
 70
     0
  9
$DIMALTD
 70
     2
  9
$DIMALTF
 40
0.0394
  9
$DIMLFAC
 40
1.0
  9
$DIMTOFL
 70
     0
  9
$DIMTVP
 40
0.0
  9
$DIMTIX
 70
     0
  9
$DIMSOXD
 70
     0
  9
$DIMSAH
 70
     0
  9
$DIMBLK1
  1

  9
$DIMBLK2
  1

  9
$DIMSTYLE
  2
1_TO_5
  9
$DIMCLRD
 70
   256
  9
$DIMCLRE
 70
   256
  9
$DIMCLRT
 70
   256
  9
$DIMTFAC
 40
1.0
  9
$DIMGAP
 40
1.0
  9
$LUNITS
 70
     2
  9
$LUPREC
 70
     1
  9
$SKETCHINC
 40
1.0
  9
$FILLETRAD
 40
0.0
  9
$AUNITS
 70
     1
  9
$AUPREC
 70
     4
  9
$MENU
  1
acad
  9
$ELEVATION
 40
0.0
  9
$PELEVATION
 40
0.0
  9
$THICKNESS
 40
0.0
  9
$LIMCHECK
 70
     0
  9
$BLIPMODE
 70
     0
  9
$CHAMFERA
 40
10.0
  9
$CHAMFERB
 40
10.0
  9
$SKPOLY
 70
     0
  9
$TDCREATE
 40
2450935.42424213
  9
$TDUPDATE
 40
2457100.7035663892
  9
$TDINDWG
 40
7.6244150231000001
  9
$TDUSRTIMER
 40
7.6244150231000001
  9
$USRTIMER
 70
     1
  9
$ANGBASE
 50
0.0
  9
$ANGDIR
 70
     0
  9
$PDMODE
 70
     0
  9
$PDSIZE
 40
-1.0
  9
$PLINEWID
 40
0.0
  9
$COORDS
 70
     2
  9
$SPLFRAME
 70
     0
  9
$SPLINETYPE
 70
     6
  9
$SPLINESEGS
 70
     8
  9
$ATTDIA
 70
     0
  9
$ATTREQ
 70
     1
  9
$HANDLING
 70
     1
  9
$HANDSEED
  5
80000513
  9
$SURFTAB1
 70
     6
  9
$SURFTAB2
 70
     6
  9
$SURFTYPE
 70
     6
  9
$SURFU
 70
     6
  9
$SURFV
 70
     6
  9
$UCSNAME
  2

  9
$UCSORG
 10
0.0
 20
0.0
 30
0.0
  9
$UCSXDIR
 10
1.0
 20
0.0
 30
0.0
  9
$UCSYDIR
 10
0.0
 20
1.0
 30
0.0
  9
$PUCSNAME
  2

  9
$PUCSORG
 10
0.0
 20
0.0
 30
0.0
  9
$PUCSXDIR
 10
1.0
 20
0.0
 30
0.0
  9
$PUCSYDIR
 10
0.0
 20
1.0
 30
0.0
  9
$USERI1
 70
    50
  9
$USERI2
 70
     1
  9
$USERI3
 70
     0
  9
$USERI4
 70
     2
  9
$USERI5
 70
     0
  9
$USERR1
 40
50.0
  9
$USERR2
 40
0.0
  9
$USERR3
 40
50.0
  9
$USERR4
 40
100.0
  9
$USERR5
 40
100.0
  9
$WORLDVIEW
 70
     1
  9
$SHADEDGE
 70
     3
  9
$SHADEDIF
 70
    70
  9
$TILEMODE
 70
     1
  9
$MAXACTVP
 70
    16
  9
$PLIMCHECK
 70
     0
  9
$PEXTMIN
 10
0.0
 20
0.0
 30
0.0
  9
$PEXTMAX
 10
0.0
 20
0.0
 30
0.0
  9
$PLIMMIN
 10
0.0
 20
0.0
  9
$PLIMMAX
 10
12.0
 20
9.0
  9
$UNITMODE
 70
     0
  9
$VISRETAIN
 70
     0
  9
$PLINEGEN
 70
     0
  9
$PSLTSCALE
 70
     1
  0
ENDSEC
  0
SECTION
  2
TABLES
  0
TABLE
  2
VPORT
 70
     1
  0
VPORT
  2
*ACTIVE
 70
     0
 10
0.0
 20
0.0
 11
1.0
 21
1.0
 12
63.452594802920324
 22
49.038233808761113
 13
0.0
 23
0.0
 14
1.0
 24
1.0
 15
10.0
 25
10.0
 16
0.0
 26
0.0
 36
1.0
 17
0.0
 27
0.0
 37
0.0
 40
1319.708915099942
 41
1.0918367346938771
 42
50.0
 43
0.0
 44
0.0
 50
0.0
 51
0.0
 71
     0
 72
   100
 73
     1
 74
     1
 75
     0
 76
     0
 77
     0
 78
     2
  0
ENDTAB
  0
TABLE
  2
LTYPE
 70
     2
  0
LTYPE
  2
CONTINUOUS
 70
     0
  3
Solid line
 72
    65
 73
     0
 40
0.0
  0
LTYPE
  2
HIDDEN
 70
     0
  3
Hidden __ __ __ __ __ __ __ __ __ __ __ __ __ _
 72
    65
 73
     2
 40
9.5249999999999986
 49
6.3499999999999988
 49
-3.1749999999999989
  0
ENDTAB
  0
TABLE
  2
LAYER
 70
     9
  0
LAYER
  2
0
 70
     0
 62
     7
  6
CONTINUOUS
  0
LAYER
  2
DEFPOINTS
 70
     0
 62
     7
  6
CONTINUOUS
  0
ENDTAB
  0
TABLE
  2
STYLE
 70
     4
  0
STYLE
  2
STANDARD
 70
     0
 40
0.0
 41
1.0
 50
0.0
 71
     0
 42
3.5
  3
txt
  4

  0
STYLE
  2
ARIAL
 70
     0
 40
0.0
 41
1.0
 50
0.0
 71
     0
 42
35.0
  3
txt
  4

  0
ENDTAB
  0
TABLE
  2
VIEW
 70
     5
  0
VIEW
  2
A
 70
     1
 40
27750.0
 10
17125.0
 20
13875.0
 41
34250.0
 11
0.0
 21
0.0
 31
1.0
 12
0.0
 22
0.0
 32
0.0
 42
50.0
 43
0.0
 44
0.0
 50
0.0
 71
     0
  0
VIEW
  2
MS-A
 70
     1
 40
27750.0
 10
17125.0
 20
13875.0
 41
34250.0
 11
0.0
 21
0.0
 31
1.0
 12
0.0
 22
0.0
 32
0.0
 42
50.0
 43
0.0
 44
0.0
 50
0.0
 71
     0
  0
VIEW
  2
PS-A
 70
     1
 40
560.0
 10
394.84013230429991
 20
280.0
 41
789.68026460859983
 11
0.0
 21
0.0
 31
1.0
 12
0.0
 22
0.0
 32
0.0
 42
50.0
 43
0.0
 44
0.0
 50
0.0
 71
     0
  0
VIEW
  2
VA
 70
     1
 40
560.0
 10
392.50000000000011
 20
280.0
 41
785.00000000000023
 11
0.0
 21
0.0
 31
1.0
 12
0.0
 22
0.0
 32
0.0
 42
50.0
 43
0.0
 44
0.0
 50
0.0
 71
     0
  0
ENDTAB
  0
TABLE
  2
UCS
 70
     0
  0
ENDTAB
  0
TABLE
  2
APPID
 70
    21
  0
APPID
  2
ACAD
 70
     0
  0
APPID
  2
CONTENTTABDATA
 70
     0
  0
APPID
  2
CONTENTCURRENTTAB
 70
     0
  0
APPID
  2
CONTENTBLOCKICON
 70
     0
  0
APPID
  2
CONTENTBLOCKDESCRIPTION
 70
     0
  0
APPID
  2
ACAD_PSEXT
 70
     0
  0
APPID
  2
ACAD_MLEADERVER
 70
     0
  0
APPID
  2
ACADANNOPO
 70
     0
  0
APPID
  2
ACAD_EXEMPT_FROM_CAD_STANDARDS
 70
     0
  0
APPID
  2
ACADANNOTATIVE
 70
     0
  0
APPID
  2
REVIT
 70
     0
  0
APPID
  2
AEC_XDATA_BOUND_SPACE
 70
     0
  0
APPID
  2
ACADANNOAV
 70
     0
  0
APPID
  2
ACAUTHENVIRON
 70
     0
  0
APPID
  2
ACDBDYNAMICBLOCKTRUENAME
 70
     0
  0
APPID
  2
ACDBDYNAMICBLOCKGUID
 70
     0
  0
APPID
  2
GRADIENTCOLOR1ACI
 70
     0
  0
APPID
  2
GRADIENTCOLOR2ACI
 70
     0
  0
APPID
  2
ACAD_DSTYLE_DIMEXT_ENABLED
 70
     0
  0
APPID
  2
ACAD_DSTYLE_DIMEXT_LENGTH
 70
     0
  0
APPID
  2
ACAD_NAV_VCDISPLAY
 70
     0
  0
ENDTAB
  0
TABLE
  2
DIMSTYLE
 70
     2
  0
DIMSTYLE
  2
1_TO_5
 70
     0
  3
mm
  4
mm
  5

  6

  7

 40
5.0
 41
1.8
 42
1.8
 43
5.0
 44
1.8
 45
0.0
 46
1.8
 47
0.0
 48
0.0
140
2.0
141
1.8
142
0.0
143
0.0394
144
1.0
145
0.0
146
1.0
147
1.0
 71
     0
 72
     0
 73
     0
 74
     0
 75
     0
 76
     0
 77
     1
 78
     0
170
     0
171
     2
172
     0
173
     0
174
     0
175
     0
176
   256
177
   256
178
   256
  0
DIMSTYLE
  2
1_TO_10_LEADER
 70
     0
  3

  4

  5
ARCHTICK
  6

  7

 40
10.0
 41
1.8
 42
1.8
 43
5.0
 44
1.8
 45
0.0
 46
1.8
 47
0.0
 48
0.0
140
2.0
141
1.8
142
0.0
143
0.0394
144
1.0
145
0.0
146
1.0
147
1.0
 71
     0
 72
     0
 73
     0
 74
     0
 75
     0
 76
     0
 77
     0
 78
     0
170
     0
171
     2
172
     1
173
     0
174
     1
175
     0
176
     0
177
     0
178
     0
  0
ENDTAB
  0
ENDSEC
  0
SECTION
  2
BLOCKS
  0
BLOCK
  8
0
  2
$MODEL_SPACE
 70
     0
 10
0.0
 20
0.0
 30
0.0
  3
$MODEL_SPACE
  1

  0
ENDBLK
  5
FFBBDAE469BA29CD
  8
0
  0
BLOCK
 67
     1
  8
0
  2
$PAPER_SPACE
 70
     0
 10
0.0
 20
0.0
 30
0.0
  3
$PAPER_SPACE
  1

  0
ENDBLK
  5
FFBBDAE469BBFF3C
 67
     1
  8
0
  0
BLOCK
  8
0
  2
_ARCHTICK
 70
     0
 10
0.0
 20
0.0
 30
0.0
  3
_ARCHTICK
  1

  0
POLYLINE
  5
FFBBDAE469BBD01A
  8
0
  6
BYBLOCK
 62
     0
 66
     1
 10
0.0
 20
0.0
 30
0.0
 40
0.15
 41
0.15
  0
VERTEX
  5
FFBBDAE469BC004A
  8
0
  6
BYBLOCK
 62
     0
 10
-0.5
 20
-0.5
 30
0.0
  0
VERTEX
  5
FFBBDAE469BC004B
  8
0
  6
BYBLOCK
 62
     0
 10
0.5
 20
0.5
 30
0.0
  0
SEQEND
  5
FFBBDAE469BC004C
  8
0
  6
BYBLOCK
 62
     0
  0
ENDBLK
  5
FFBBDAE469BBD01C
  8
0
  0
BLOCK
  8
0
  2
*U6
 70
     1
 10
0.0
 20
0.0
 30
0.0
  3
*U6
  1

  0
SOLID
  5
FFBBDAE469BC0050
  8
0
  6
CONTINUOUS
 10
134.77519187829679
 20
272.78109645058152
 30
0.0
 11
134.74153034313579
 21
272.77645549009532
 31
0.0
 12
140.1302108420937
 22
272.77645549009532
 32
0.0
 13
140.1302108420937
 23
272.77645549009532
 33
0.0
210
0.0
220
0.0
230
1.0
  0
SOLID
  5
FFBBDAE469BC0051
  8
0
  6
CONTINUOUS
 10
134.74153034313579
 20
272.77645549009532
 30
0.0
 11
129.34334832120919
 21
272.03220097699858
 31
0.0
 12
145.2290696700527
 22
272.03220097699858
 32
0.0
 13
145.2290696700527
 23
272.03220097699858
 33
0.0
  0
SOLID
  5
FFBBDAE469BC0052
  8
0
  6
CONTINUOUS
 10
-134.74153034313579
 20
272.77645549009532
 30
0.0
 11
-140.1302108420937
 21
272.77645549009532
 31
0.0
 12
-145.2290696700527
 22
272.03220097699858
 32
0.0
 13
-145.2290696700527
 23
272.03220097699858
 33
0.0
210
0.0
220
0.0
230
-1.0
  0
SOLID
  5
FFBBDAE469BC0053
  8
0
  6
CONTINUOUS
 10
129.34334832120919
 20
272.03220097699858
 30
0.0
 11
129.29296199272821
 21
272.01835128625908
 31
0.0
 12
145.32395336460741
 22
272.01835128625908
 32
0.0
 13
145.32395336460741
 23
272.01835128625908
 33
0.0
210
0.0
220
0.0
230
1.0
  0
SOLID
  5
FFBBDAE469BC0054
  8
0
  6
CONTINUOUS
 10
-129.34334832120919
 20
272.03220097699858
 30
0.0
 11
-145.2290696700527
 21
272.03220097699858
 31
0.0
 12
-145.32395336460741
 22
272.01835128625908
 32
0.0
 13
-145.32395336460741
 23
272.01835128625908
 33
0.0
210
0.0
220
0.0
230
-1.0
  0
SOLID
  5
FFBBDAE469BC0055
  8
0
  6
CONTINUOUS
 10
129.29296199272821
 20
272.01835128625908
 30
0.0
 11
123.9203435885522
 21
270.54157959833333
 31
0.0
 12
150.19911100315571
 22
270.54157959833333
 32
0.0
 13
150.19911100315571
 23
270.54157959833333
 33
0.0
  0
SOLID
  5
FFBBDAE469BC0056
  8
0
  6
CONTINUOUS
 10
-129.29296199272821
 20
272.01835128625908
 30
0.0
 11
-145.32395336460741
 21
272.01835128625908
 31
0.0
 12
-150.19911100315571
 22
270.54157959833333
 32
0.0
 13
-150.19911100315571
 23
270.54157959833333
 33
0.0
210
0.0
220
0.0
230
-1.0
  0
SOLID
  5
FFBBDAE469BC0057
  8
0
  6
CONTINUOUS
 10
123.9203435885522
 20
270.54157959833333
 30
0.0
 11
123.8652439724537
 21
270.51873959523698
 31
0.0
 12
150.27451102366661
 22
270.51873959523698
 32
0.0
 13
150.27451102366661
 23
270.51873959523698
 33
0.0
210
0.0
220
0.0
230
1.0
  0
SOLID
  5
FFBBDAE469BC0058
  8
0
  6
CONTINUOUS
 10
-123.9203435885522
 20
270.54157959833333
 30
0.0
 11
-150.19911100315571
 21
270.54157959833333
 31
0.0
 12
-150.27451102366661
 22
270.51873959523698
 32
0.0
 13
-150.27451102366661
 23
270.51873959523698
 33
0.0
210
0.0
220
0.0
230
-1.0
  0
SOLID
  5
FFBBDAE469BC0059
  8
0
  6
CONTINUOUS
 10
123.8652439724537
 20
270.51873959523698
 30
0.0
 11
118.5917017045057
 21
268.33274030418141
 31
0.0
 12
154.8381119887201
 22
268.33274030418141
 32
0.0
 13
154.8381119887201
 23
268.33274030418141
 33
0.0
  0
SOLID
  5
FFBBDAE469BC005A
  8
0
  6
CONTINUOUS
 10
-123.8652439724537
 20
270.51873959523698
 30
0.0
 11
-150.27451102366661
 21
270.51873959523698
 31
0.0
 12
-154.8381119887201
 22
268.33274030418141
 32
0.0
 13
-154.8381119887201
 23
268.33274030418141
 33
0.0
210
0.0
220
0.0
230
-1.0
  0
SOLID
  5
FFBBDAE469BC005B
  8
0
  6
CONTINUOUS
 10
118.5917017045057
 20
268.33274030418141
 30
0.0
 11
118.53566218993321
 21
268.30127018922099
 31
0.0
 12
154.90381056766819
 22
268.30127018922099
 32
0.0
 13
154.90381056766819
 23
268.30127018922099
 33
0.0
210
0.0
220
0.0
230
1.0
  0
SOLID
  5
FFBBDAE469BC005C
  8
0
  6
CONTINUOUS
 10
-118.5917017045057
 20
268.33274030418141
 30
0.0
 11
-154.8381119887201
 21
268.33274030418141
 31
0.0
 12
-154.90381056766819
 22
268.30127018922099
 32
0.0
 13
-154.90381056766819
 23
268.30127018922099
 33
0.0
210
0.0
220
0.0
230
-1.0
  0
SOLID
  5
FFBBDAE469BC005D
  8
0
  6
CONTINUOUS
 10
118.53566218993321
 20
268.30127018922099
 30
0.0
 11
113.4414585347576
 21
265.44051780970818
 31
0.0
 12
159.8587790368577
 22
265.44051780970818
 32
0.0
 13
159.8587790368577
 23
265.44051780970818
 33
0.0
210
0.0
220
0.0
230
1.0
  0
SOLID
  5
FFBBDAE469BC005E
  8
0
  6
CONTINUOUS
 10
-118.53566218993321
 20
268.30127018922099
 30
0.0
 11
-154.90381056766819
 21
268.30127018922099
 31
0.0
 12
-159.8587790368577
 22
265.44051780970818
 32
0.0
 13
-159.8587790368577
 23
265.44051780970818
 33
0.0
210
0.0
220
0.0
230
-1.0
  0
SOLID
  5
FFBBDAE469BC005F
  8
0
  6
CONTINUOUS
 10
113.4414585347576
 20
265.44051780970818
 30
0.0
 11
108.5508364907009
 21
261.91052419138151
 31
0.0
 12
165.9729073341932
 22
261.91052419138151
 32
0.0
 13
165.9729073341932
 23
261.91052419138151
 33
0.0
  0
SOLID
  5
FFBBDAE469BC0060
  8
0
  6
CONTINUOUS
 10
-113.4414585347576
 20
265.44051780970818
 30
0.0
 11
-159.8587790368577
 21
265.44051780970818
 31
0.0
 12
-165.9729073341932
 22
261.91052419138151
 32
0.0
 13
-165.9729073341932
 23
261.91052419138151
 33
0.0
210
0.0
220
0.0
230
-1.0
  0
SOLID
  5
FFBBDAE469BC0061
  8
0
  6
CONTINUOUS
 10
108.5508364907009
 20
261.91052419138151
 30
0.0
 11
106.746353016764
 21
260.28109645058157
 31
0.0
 12
168.79515896852081
 22
260.28109645058157
 32
0.0
 13
168.79515896852081
 23
260.28109645058157
 33
0.0
  0
SOLID
  5
FFBBDAE469BC0062
  8
0
  6
CONTINUOUS
 10
-108.5508364907009
 20
261.91052419138151
 30
0.0
 11
-165.9729073341932
 21
261.91052419138151
 31
0.0
 12
-168.79515896852081
 22
260.28109645058157
 32
0.0
 13
-168.79515896852081
 23
260.28109645058157
 33
0.0
210
0.0
220
0.0
230
-1.0
  0
SOLID
  5
FFBBDAE469BC0063
  8
0
  6
CONTINUOUS
 10
156.42582697290791
 20
260.28109645058157
 30
0.0
 11
161.78084593670479
 21
260.27645549009532
 31
0.0
 12
168.80319734787889
 22
260.27645549009532
 32
0.0
 13
168.80319734787889
 23
260.27645549009532
 33
0.0
210
0.0
220
0.0
230
1.0
  0
SOLID
  5
FFBBDAE469BC0064
  8
0
  6
CONTINUOUS
 10
-156.42582697290791
 20
260.28109645058157
 30
0.0
 11
-168.79515896852081
 21
260.28109645058157
 31
0.0
 12
-168.80319734787889
 22
260.27645549009532
 32
0.0
 13
-168.80319734787889
 23
260.27645549009532
 33
0.0
210
0.0
220
0.0
230
-1.0
  0
SOLID
  5
FFBBDAE469BC0065
  8
0
  6
CONTINUOUS
 10
106.746353016764
 20
260.28109645058157
 30
0.0
 11
106.7412134599178
 21
260.27645549009532
 31
0.0
 12
156.3921654377468
 22
260.27645549009532
 32
0.0
 13
156.3921654377468
 23
260.27645549009532
 33
0.0
210
0.0
220
0.0
230
1.0
  0
SOLID
  5
FFBBDAE469BC0066
  8
0
  6
CONTINUOUS
 10
-106.746353016764
 20
260.28109645058157
 30
0.0
 11
-156.42582697290791
 21
260.28109645058157
 31
0.0
 12
-156.3921654377468
 22
260.27645549009532
 32
0.0
 13
-156.3921654377468
 23
260.27645549009532
 33
0.0
210
0.0
220
0.0
230
-1.0
  0
SOLID
  5
FFBBDAE469BC0067
  8
0
  6
CONTINUOUS
 10
106.7412134599178
 20
260.27645549009532
 30
0.0
 11
105.917000801904
 21
259.53220097699858
 31
0.0
 12
150.99398341582031
 22
259.53220097699858
 32
0.0
 13
150.99398341582031
 23
259.53220097699858
 33
0.0
210
0.0
220
0.0
230
1.0
  0
SOLID
  5
FFBBDAE469BC0068
  8
0
  6
CONTINUOUS
 10
-106.7412134599178
 20
260.27645549009532
 30
0.0
 11
-156.3921654377468
 21
260.27645549009532
 31
0.0
 12
-150.99398341582031
 22
259.53220097699858
 32
0.0
 13
-150.99398341582031
 23
259.53220097699858
 33
0.0
210
0.0
220
0.0
230
-1.0
  0
SOLID
  5
FFBBDAE469BC0069
  8
0
  6
CONTINUOUS
 10
161.78084593670479
 20
260.27645549009532
 30
0.0
 11
166.9745884592185
 21
259.51835128625908
 31
0.0
 12
170.11627234635469
 22
259.51835128625908
 32
0.0
 13
170.11627234635469
 23
259.51835128625908
 33
0.0
  0
SOLID
  5
FFBBDAE469BC006A
  8
0
  6
CONTINUOUS
 10
-161.78084593670479
 20
260.27645549009532
 30
0.0
 11
-168.80319734787889
 21
260.27645549009532
 31
0.0
 12
-170.11627234635469
 22
259.51835128625908
 32
0.0
 13
-170.11627234635469
 23
259.51835128625908
 33
0.0
210
0.0
220
0.0
230
-1.0
  0
SOLID
  5
FFBBDAE469BC006B
  8
0
  6
CONTINUOUS
 10
105.917000801904
 20
259.53220097699858
 30
0.0
 11
104.26623619519739
 21
258.04157959833339
 31
0.0
 12
145.5709786831633
 22
258.04157959833339
 32
0.0
 13
145.5709786831633
 23
258.04157959833339
 33
0.0
  0
SOLID
  5
FFBBDAE469BC006C
  8
0
  6
CONTINUOUS
 10
-105.917000801904
 20
259.53220097699858
 30
0.0
 11
-150.99398341582031
 21
259.53220097699858
 31
0.0
 12
-145.5709786831633
 22
258.04157959833339
 32
0.0
 13
-145.5709786831633
 23
258.04157959833339
 33
0.0
210
0.0
220
0.0
230
-1.0
  0
SOLID
  5
FFBBDAE469BC006D
  8
0
  6
CONTINUOUS
 10
166.9745884592185
 20
259.51835128625908
 30
0.0
 11
171.92514611827781
 21
258.01873959523698
 31
0.0
 12
172.7136759868292
 22
258.01873959523698
 32
0.0
 13
172.7136759868292
 23
258.01873959523698
 33
0.0
210
0.0
220
0.0
230
1.0
  0
SOLID
  5
FFBBDAE469BC006E
  8
0
  6
CONTINUOUS
 10
-166.9745884592185
 20
259.51835128625908
 30
0.0
 11
-170.11627234635469
 21
259.51835128625908
 31
0.0
 12
-172.7136759868292
 22
258.01873959523698
 32
0.0
 13
-172.7136759868292
 23
258.01873959523698
 33
0.0
210
0.0
220
0.0
230
-1.0
  0
SOLID
  5
FFBBDAE469BC006F
  8
0
  6
CONTINUOUS
 10
104.26623619519739
 20
258.04157959833339
 30
0.0
 11
103.99696360348641
 21
257.79842955727833
 31
0.0
 12
144.9843993442752
 22
257.79842955727833
 32
0.0
 13
144.9843993442752
 23
257.79842955727833
 33
0.0
210
0.0
220
0.0
230
1.0
  0
SOLID
  5
FFBBDAE469BC0070
  8
0
  6
CONTINUOUS
 10
-104.26623619519739
 20
258.04157959833339
 30
0.0
 11
-145.5709786831633
 21
258.04157959833339
 31
0.0
 12
-144.9843993442752
 22
257.79842955727833
 32
0.0
 13
-144.9843993442752
 23
257.79842955727833
 33
0.0
210
0.0
220
0.0
230
-1.0
  0
SOLID
  5
FFBBDAE469BC0071
  8
0
  6
CONTINUOUS
 10
-176.48874708333091
 20
255.83274030418141
 30
0.0
 11
-176.4999378242469
 21
255.83274030418141
 31
0.0
 12
-176.55444566227541
 22
255.80127018922269
 32
0.0
 13
-176.55444566227541
 23
255.80127018922269
 33
0.0
210
0.0
220
0.0
230
-1.0
  0
SOLID
  5
FFBBDAE469BC0072
  8
0
  6
CONTINUOUS
 10
171.92514611827781
 20
258.01873959523698
 30
0.0
 11
176.48874708333091
 21
255.83274030418141
 31
0.0
 12
176.4999378242469
 22
255.83274030418141
 32
0.0
 13
176.4999378242469
 23
255.83274030418141
 33
0.0
210
0.0
220
0.0
230
1.0
  0
SOLID
  5
FFBBDAE469BC0073
  8
0
  6
CONTINUOUS
 10
-171.92514611827781
 20
258.01873959523698
 30
0.0
 11
-172.7136759868292
 21
258.01873959523698
 31
0.0
 12
-176.4999378242469
 22
255.83274030418141
 32
0.0
 13
-176.4999378242469
 23
255.83274030418141
 33
0.0
210
0.0
220
0.0
230
-1.0
  0
SOLID
  5
FFBBDAE469BC0074
  8
0
  6
CONTINUOUS
 10
103.99696360348641
 20
257.79842955727833
 30
0.0
 11
102.23680455339669
 21
255.83274030418141
 31
0.0
 12
140.2423367991168
 22
255.83274030418141
 32
0.0
 13
140.2423367991168
 23
255.83274030418141
 33
0.0
210
0.0
220
0.0
230
1.0
  0
SOLID
  5
FFBBDAE469BC0075
  8
0
  6
CONTINUOUS
 10
-103.99696360348641
 20
257.79842955727833
 30
0.0
 11
-144.9843993442752
 21
257.79842955727833
 31
0.0
 12
-140.2423367991168
 22
255.83274030418141
 32
0.0
 13
-140.2423367991168
 23
255.83274030418141
 33
0.0
210
0.0
220
0.0
230
-1.0
  0
SOLID
  5
FFBBDAE469BC0076
  8
0
  6
CONTINUOUS
 10
102.23680455339669
 20
255.83274030418141
 30
0.0
 11
99.851657168897376
 21
253.16908409622479
 31
0.0
 12
135.49910656084819
 22
253.16908409622479
 32
0.0
 13
135.49910656084819
 23
253.16908409622479
 33
0.0
  0
SOLID
  5
FFBBDAE469BC0077
  8
0
  6
CONTINUOUS
 10
-102.23680455339669
 20
255.83274030418141
 30
0.0
 11
-140.2423367991168
 21
255.83274030418141
 31
0.0
 12
-135.49910656084819
 22
253.16908409622479
 32
0.0
 13
-135.49910656084819
 23
253.16908409622479
 33
0.0
210
0.0
220
0.0
230
-1.0
  0
SOLID
  5
FFBBDAE469BC0078
  8
0
  6
CONTINUOUS
 10
99.851657168897376
 20
253.16908409622479
 30
0.0
 11
99.686261323746876
 21
252.94051780970821
 31
0.0
 12
135.09209362936869
 22
252.94051780970821
 32
0.0
 13
135.09209362936869
 23
252.94051780970821
 33
0.0
210
0.0
220
0.0
230
1.0
  0
SOLID
  5
FFBBDAE469BC0079
  8
0
  6
CONTINUOUS
 10
-99.851657168897376
 20
253.16908409622479
 30
0.0
 11
-135.49910656084819
 21
253.16908409622479
 31
0.0
 12
-135.09209362936869
 22
252.94051780970821
 32
0.0
 13
-135.09209362936869
 23
252.94051780970821
 33
0.0
210
0.0
220
0.0
230
-1.0
  0
SOLID
  5
FFBBDAE469BC007A
  8
0
  6
CONTINUOUS
 10
99.686261323746876
 20
252.94051780970821
 30
0.0
 11
97.131876393330927
 21
249.41052419138151
 31
0.0
 12
130.20147158531199
 22
249.41052419138151
 32
0.0
 13
130.20147158531199
 23
249.41052419138151
 33
0.0
210
0.0
220
0.0
230
1.0
  0
SOLID
  5
FFBBDAE469BC007B
  8
0
  6
CONTINUOUS
 10
-99.686261323746876
 20
252.94051780970821
 30
0.0
 11
-135.09209362936869
 21
252.94051780970821
 31
0.0
 12
-130.20147158531199
 22
249.41052419138151
 32
0.0
 13
-130.20147158531199
 23
249.41052419138151
 33
0.0
210
0.0
220
0.0
230
-1.0
  0
SOLID
  5
FFBBDAE469BC007C
  8
0
  6
CONTINUOUS
 10
97.131876393330927
 20
249.41052419138151
 30
0.0
 11
96.180291145693118
 21
248.09549535157851
 31
0.0
 12
128.74516410400571
 22
248.09549535157851
 32
0.0
 13
128.74516410400571
 23
248.09549535157851
 33
0.0
  0
SOLID
  5
FFBBDAE469BC007D
  8
0
  6
CONTINUOUS
 10
-97.131876393330927
 20
249.41052419138151
 30
0.0
 11
-130.20147158531199
 21
249.41052419138151
 31
0.0
 12
-128.74516410400571
 22
248.09549535157851
 32
0.0
 13
-128.74516410400571
 23
248.09549535157851
 33
0.0
210
0.0
220
0.0
230
-1.0
  0
SOLID
  5
FFBBDAE469BC007E
  8
0
  6
CONTINUOUS
 10
96.180291145693118
 20
248.09549535157851
 30
0.0
 11
94.565404456412836
 21
245.2984295572783
 31
0.0
 12
125.6475986980975
 22
245.2984295572783
 32
0.0
 13
125.6475986980975
 23
245.2984295572783
 33
0.0
210
0.0
220
0.0
230
1.0
  0
SOLID
  5
FFBBDAE469BC007F
  8
0
  6
CONTINUOUS
 10
-96.180291145693118
 20
248.09549535157851
 30
0.0
 11
-128.74516410400571
 21
248.09549535157851
 31
0.0
 12
-125.6475986980975
 22
245.2984295572783
 32
0.0
 13
-125.6475986980975
 23
245.2984295572783
 33
0.0
210
0.0
220
0.0
230
-1.0
  0
SOLID
  5
FFBBDAE469BC0080
  8
0
  6
CONTINUOUS
 10
94.565404456412836
 20
245.2984295572783
 30
0.0
 11
93.040765169227456
 21
242.6576768486577
 31
0.0
 12
123.282960049438
 22
242.6576768486577
 32
0.0
 13
123.282960049438
 23
242.6576768486577
 33
0.0
  0
SOLID
  5
FFBBDAE469BC0081
  8
0
  6
CONTINUOUS
 10
-94.565404456412836
 20
245.2984295572783
 30
0.0
 11
-125.6475986980975
 21
245.2984295572783
 31
0.0
 12
-123.282960049438
 22
242.6576768486577
 32
0.0
 13
-123.282960049438
 23
242.6576768486577
 33
0.0
210
0.0
220
0.0
230
-1.0
  0
SOLID
  5
FFBBDAE469BC0082
  8
0
  6
CONTINUOUS
 10
93.040765169227456
 20
242.6576768486577
 30
0.0
 11
92.150823407900234
 21
240.66908409622479
 31
0.0
 12
121.50229226350839
 22
240.66908409622479
 32
0.0
 13
121.50229226350839
 23
240.66908409622479
 33
0.0
  0
SOLID
  5
FFBBDAE469BC0083
  8
0
  6
CONTINUOUS
 10
-93.040765169227456
 20
242.6576768486577
 30
0.0
 11
-123.282960049438
 21
242.6576768486577
 31
0.0
 12
-121.50229226350839
 22
240.66908409622479
 32
0.0
 13
-121.50229226350839
 23
240.66908409622479
 33
0.0
210
0.0
220
0.0
230
-1.0
  0
SOLID
  5
FFBBDAE469BC0084
  8
0
  6
CONTINUOUS
 10
92.150823407900234
 20
240.66908409622479
 30
0.0
 11
90.482591439611113
 21
236.94138623364859
 31
0.0
 12
118.80484397468631
 22
236.94138623364859
 32
0.0
 13
118.80484397468631
 23
236.94138623364859
 33
0.0
210
0.0
220
0.0
230
1.0
  0
SOLID
  5
FFBBDAE469BC0085
  8
0
  6
CONTINUOUS
 10
-92.150823407900234
 20
240.66908409622479
 30
0.0
 11
-121.50229226350839
 21
240.66908409622479
 31
0.0
 12
-118.80484397468631
 22
236.94138623364859
 32
0.0
 13
-118.80484397468631
 23
236.94138623364859
 33
0.0
210
0.0
220
0.0
230
-1.0
  0
SOLID
  5
FFBBDAE469BC0086
  8
0
  6
CONTINUOUS
 10
90.482591439611113
 20
236.94138623364859
 30
0.0
 11
90.041192942580352
 21
235.59549535157851
 31
0.0
 12
117.83092624030419
 22
235.59549535157851
 32
0.0
 13
117.83092624030419
 23
235.59549535157851
 33
0.0
210
0.0
220
0.0
230
1.0
  0
SOLID
  5
FFBBDAE469BC0087
  8
0
  6
CONTINUOUS
 10
-90.482591439611113
 20
236.94138623364859
 30
0.0
 11
-118.80484397468631
 21
236.94138623364859
 31
0.0
 12
-117.83092624030419
 22
235.59549535157851
 32
0.0
 13
-117.83092624030419
 23
235.59549535157851
 33
0.0
210
0.0
220
0.0
230
-1.0
  0
SOLID
  5
FFBBDAE469BC0088
  8
0
  6
CONTINUOUS
 10
90.041192942580352
 20
235.59549535157851
 30
0.0
 11
88.546113884739071
 21
231.03677282429661
 31
0.0
 12
115.1989465620171
 22
231.03677282429661
 32
0.0
 13
115.1989465620171
 23
231.03677282429661
 33
0.0
  0
SOLID
  5
FFBBDAE469BC0089
  8
0
  6
CONTINUOUS
 10
-90.041192942580352
 20
235.59549535157851
 30
0.0
 11
-117.83092624030419
 21
235.59549535157851
 31
0.0
 12
-115.1989465620171
 22
231.03677282429661
 32
0.0
 13
-115.1989465620171
 23
231.03677282429661
 33
0.0
210
0.0
220
0.0
230
-1.0
  0
SOLID
  5
FFBBDAE469BC008A
  8
0
  6
CONTINUOUS
 10
88.546113884739071
 20
231.03677282429661
 30
0.0
 11
88.357946151609866
 21
230.1576768486577
 31
0.0
 12
114.6914002638385
 22
230.1576768486577
 32
0.0
 13
114.6914002638385
 23
230.1576768486577
 33
0.0
210
0.0
220
0.0
230
1.0
  0
SOLID
  5
FFBBDAE469BC008B
  8
0
  6
CONTINUOUS
 10
-88.546113884739071
 20
231.03677282429661
 30
0.0
 11
-115.1989465620171
 21
231.03677282429661
 31
0.0
 12
-114.6914002638385
 22
230.1576768486577
 32
0.0
 13
-114.6914002638385
 23
230.1576768486577
 33
0.0
210
0.0
220
0.0
230
-1.0
  0
SOLID
  5
FFBBDAE469BC008C
  8
0
  6
CONTINUOUS
 10
88.357946151609866
 20
230.1576768486577
 30
0.0
 11
87.26187191244729
 21
225.0369559013121
 31
0.0
 12
112.3997578883091
 22
225.0369559013121
 32
0.0
 13
112.3997578883091
 23
225.0369559013121
 33
0.0
210
0.0
220
0.0
230
1.0
  0
SOLID
  5
FFBBDAE469BC008D
  8
0
  6
CONTINUOUS
 10
-88.357946151609866
 20
230.1576768486577
 30
0.0
 11
-114.6914002638385
 21
230.1576768486577
 31
0.0
 12
-112.3997578883091
 22
225.0369559013121
 32
0.0
 13
-112.3997578883091
 23
225.0369559013121
 33
0.0
210
0.0
220
0.0
230
-1.0
  0
SOLID
  5
FFBBDAE469BC008E
  8
0
  6
CONTINUOUS
 10
87.26187191244729
 20
225.0369559013121
 30
0.0
 11
87.201152356728571
 21
224.4413862336487
 31
0.0
 12
112.1332265342222
 22
224.4413862336487
 32
0.0
 13
112.1332265342222
 23
224.4413862336487
 33
0.0
210
0.0
220
0.0
230
1.0
  0
SOLID
  5
FFBBDAE469BC008F
  8
0
  6
CONTINUOUS
 10
-87.26187191244729
 20
225.0369559013121
 30
0.0
 11
-112.3997578883091
 21
225.0369559013121
 31
0.0
 12
-112.1332265342222
 22
224.4413862336487
 32
0.0
 13
-112.1332265342222
 23
224.4413862336487
 33
0.0
210
0.0
220
0.0
230
-1.0
  0
SOLID
  5
FFBBDAE469BC0090
  8
0
  6
CONTINUOUS
 10
87.201152356728571
 20
224.4413862336487
 30
0.0
 11
86.650118785807749
 21
219.03655616168751
 31
0.0
 12
110.3606579684846
 22
219.03655616168751
 32
0.0
 13
110.3606579684846
 23
219.03655616168751
 33
0.0
210
0.0
220
0.0
230
1.0
  0
SOLID
  5
FFBBDAE469BC0091
  8
0
  6
CONTINUOUS
 10
-87.201152356728571
 20
224.4413862336487
 30
0.0
 11
-112.1332265342222
 21
224.4413862336487
 31
0.0
 12
-110.3606579684846
 22
219.03655616168751
 32
0.0
 13
-110.3606579684846
 23
219.03655616168751
 33
0.0
210
0.0
220
0.0
230
-1.0
  0
SOLID
  5
FFBBDAE469BC0092
  8
0
  6
CONTINUOUS
 10
86.650118785807749
 20
219.03655616168751
 30
0.0
 11
86.656074486076903
 21
218.53677282429661
 31
0.0
 12
110.1967489793501
 22
218.53677282429661
 32
0.0
 13
110.1967489793501
 23
218.53677282429661
 33
0.0
210
0.0
220
0.0
230
1.0
  0
SOLID
  5
FFBBDAE469BC0093
  8
0
  6
CONTINUOUS
 10
-86.650118785807749
 20
219.03655616168751
 30
0.0
 11
-110.3606579684846
 21
219.03655616168751
 31
0.0
 12
-110.1967489793501
 22
218.53677282429661
 32
0.0
 13
-110.1967489793501
 23
218.53677282429661
 33
0.0
210
0.0
220
0.0
230
-1.0
  0
SOLID
  5
FFBBDAE469BC0094
  8
0
  6
CONTINUOUS
 10
86.656074486076903
 20
218.53677282429661
 30
0.0
 11
86.720502217071214
 21
213.13020349378169
 31
0.0
 12
109.039489791365
 22
213.13020349378169
 32
0.0
 13
109.039489791365
 23
213.13020349378169
 33
0.0
210
0.0
220
0.0
230
1.0
  0
SOLID
  5
FFBBDAE469BC0095
  8
0
  6
CONTINUOUS
 10
-86.656074486076903
 20
218.53677282429661
 30
0.0
 11
-110.1967489793501
 21
218.53677282429661
 31
0.0
 12
-109.039489791365
 22
213.13020349378169
 32
0.0
 13
-109.039489791365
 23
213.13020349378169
 33
0.0
210
0.0
220
0.0
230
-1.0
  0
SOLID
  5
FFBBDAE469BC0096
  8
0
  6
CONTINUOUS
 10
86.720502217071214
 20
213.13020349378169
 30
0.0
 11
86.798445876717835
 21
212.5369559013121
 31
0.0
 12
108.91250700705839
 22
212.5369559013121
 32
0.0
 13
108.91250700705839
 23
212.5369559013121
 33
0.0
  0
SOLID
  5
FFBBDAE469BC0097
  8
0
  6
CONTINUOUS
 10
-86.720502217071214
 20
213.13020349378169
 30
0.0
 11
-109.039489791365
 21
213.13020349378169
 31
0.0
 12
-108.91250700705839
 22
212.5369559013121
 32
0.0
 13
-108.91250700705839
 23
212.5369559013121
 33
0.0
210
0.0
220
0.0
230
-1.0
  0
SOLID
  5
FFBBDAE469BC0098
  8
0
  6
CONTINUOUS
 10
86.798445876717835
 20
212.5369559013121
 30
0.0
 11
87.471912217481574
 21
207.41104460745169
 31
0.0
 12
108.3899097807122
 22
207.41104460745169
 32
0.0
 13
108.3899097807122
 23
207.41104460745169
 33
0.0
210
0.0
220
0.0
230
1.0
  0
SOLID
  5
FFBBDAE469BC0099
  8
0
  6
CONTINUOUS
 10
-86.798445876717835
 20
212.5369559013121
 30
0.0
 11
-108.91250700705839
 21
212.5369559013121
 31
0.0
 12
-108.3899097807122
 22
207.41104460745169
 32
0.0
 13
-108.3899097807122
 23
207.41104460745169
 33
0.0
210
0.0
220
0.0
230
-1.0
  0
SOLID
  5
FFBBDAE469BC009A
  8
0
  6
CONTINUOUS
 10
87.471912217481574
 20
207.41104460745169
 30
0.0
 11
87.700199383920207
 21
206.53655616168751
 31
0.0
 12
108.3007538804188
 22
206.53655616168751
 32
0.0
 13
108.3007538804188
 23
206.53655616168751
 33
0.0
210
0.0
220
0.0
230
1.0
  0
SOLID
  5
FFBBDAE469BC009B
  8
0
  6
CONTINUOUS
 10
-87.471912217481574
 20
207.41104460745169
 30
0.0
 11
-108.3899097807122
 21
207.41104460745169
 31
0.0
 12
-108.3007538804188
 22
206.53655616168751
 32
0.0
 13
-108.3007538804188
 23
206.53655616168751
 33
0.0
210
0.0
220
0.0
230
-1.0
  0
SOLID
  5
FFBBDAE469BC009C
  8
0
  6
CONTINUOUS
 10
87.700199383920207
 20
206.53655616168751
 30
0.0
 11
88.892498602461814
 21
201.96927405479491
 31
0.0
 12
108.3551801912584
 22
201.96927405479491
 32
0.0
 13
108.3551801912584
 23
201.96927405479491
 33
0.0
210
0.0
220
0.0
230
1.0
  0
SOLID
  5
FFBBDAE469BC009D
  8
0
  6
CONTINUOUS
 10
-87.700199383920207
 20
206.53655616168751
 30
0.0
 11
-108.3007538804188
 21
206.53655616168751
 31
0.0
 12
-108.3551801912584
 22
201.96927405479491
 32
0.0
 13
-108.3551801912584
 23
201.96927405479491
 33
0.0
210
0.0
220
0.0
230
-1.0
  0
SOLID
  5
FFBBDAE469BC009E
  8
0
  6
CONTINUOUS
 10
88.892498602461814
 20
201.96927405479491
 30
0.0
 11
89.437601686354895
 21
200.63020349378169
 31
0.0
 12
108.3711373116823
 22
200.63020349378169
 32
0.0
 13
108.3711373116823
 23
200.63020349378169
 33
0.0
  0
SOLID
  5
FFBBDAE469BC009F
  8
0
  6
CONTINUOUS
 10
-88.892498602461814
 20
201.96927405479491
 30
0.0
 11
-108.3551801912584
 21
201.96927405479491
 31
0.0
 12
-108.3711373116823
 22
200.63020349378169
 32
0.0
 13
-108.3711373116823
 23
200.63020349378169
 33
0.0
210
0.0
220
0.0
230
-1.0
  0
SOLID
  5
FFBBDAE469BC00A0
  8
0
  6
CONTINUOUS
 10
89.437601686354895
 20
200.63020349378169
 30
0.0
 11
90.959857876103626
 21
196.89071180818269
 31
0.0
 12
108.8624493218673
 22
196.89071180818269
 32
0.0
 13
108.8624493218673
 23
196.89071180818269
 33
0.0
  0
SOLID
  5
FFBBDAE469BC00A1
  8
0
  6
CONTINUOUS
 10
-89.437601686354895
 20
200.63020349378169
 30
0.0
 11
-108.3711373116823
 21
200.63020349378169
 31
0.0
 12
-108.8624493218673
 22
196.89071180818269
 32
0.0
 13
-108.8624493218673
 23
196.89071180818269
 33
0.0
210
0.0
220
0.0
230
-1.0
  0
SOLID
  5
FFBBDAE469BC00A2
  8
0
  6
CONTINUOUS
 10
90.959857876103626
 20
196.89071180818269
 30
0.0
 11
92.105108000405565
 21
194.91104460745169
 31
0.0
 12
109.12254731209261
 22
194.91104460745169
 32
0.0
 13
109.12254731209261
 23
194.91104460745169
 33
0.0
210
0.0
220
0.0
230
1.0
  0
SOLID
  5
FFBBDAE469BC00A3
  8
0
  6
CONTINUOUS
 10
-90.959857876103626
 20
196.89071180818269
 30
0.0
 11
-108.8624493218673
 21
196.89071180818269
 31
0.0
 12
-109.12254731209261
 22
194.91104460745169
 32
0.0
 13
-109.12254731209261
 23
194.91104460745169
 33
0.0
210
0.0
220
0.0
230
-1.0
  0
SOLID
  5
FFBBDAE469BC00A4
  8
0
  6
CONTINUOUS
 10
92.105108000405565
 20
194.91104460745169
 30
0.0
 11
93.641386547681094
 21
192.25544982803029
 31
0.0
 12
109.8157962742028
 22
192.25544982803029
 32
0.0
 13
109.8157962742028
 23
192.25544982803029
 33
0.0
210
0.0
220
0.0
230
1.0
  0
SOLID
  5
FFBBDAE469BC00A5
  8
0
  6
CONTINUOUS
 10
-92.105108000405565
 20
194.91104460745169
 30
0.0
 11
-109.12254731209261
 21
194.91104460745169
 31
0.0
 12
-109.8157962742028
 22
192.25544982803029
 32
0.0
 13
-109.8157962742028
 23
192.25544982803029
 33
0.0
210
0.0
220
0.0
230
-1.0
  0
SOLID
  5
FFBBDAE469BC00A6
  8
0
  6
CONTINUOUS
 10
93.641386547681094
 20
192.25544982803029
 30
0.0
 11
95.842133057402364
 21
189.46927405479491
 31
0.0
 12
110.5431336970729
 22
189.46927405479491
 32
0.0
 13
110.5431336970729
 23
189.46927405479491
 33
0.0
210
0.0
220
0.0
230
1.0
  0
SOLID
  5
FFBBDAE469BC00A7
  8
0
  6
CONTINUOUS
 10
-93.641386547681094
 20
192.25544982803029
 30
0.0
 11
-109.8157962742028
 21
192.25544982803029
 31
0.0
 12
-110.5431336970729
 22
189.46927405479491
 32
0.0
 13
-110.5431336970729
 23
189.46927405479491
 33
0.0
210
0.0
220
0.0
230
-1.0
  0
SOLID
  5
FFBBDAE469BC00A8
  8
0
  6
CONTINUOUS
 10
95.842133057402364
 20
189.46927405479491
 30
0.0
 11
96.894795308175844
 21
188.13658896473601
 31
0.0
 12
111.0856374109173
 22
188.13658896473601
 32
0.0
 13
111.0856374109173
 23
188.13658896473601
 33
0.0
210
0.0
220
0.0
230
1.0
  0
SOLID
  5
FFBBDAE469BC00A9
  8
0
  6
CONTINUOUS
 10
-95.842133057402364
 20
189.46927405479491
 30
0.0
 11
-110.5431336970729
 21
189.46927405479491
 31
0.0
 12
-111.0856374109173
 22
188.13658896473601
 32
0.0
 13
-111.0856374109173
 23
188.13658896473601
 33
0.0
210
0.0
220
0.0
230
-1.0
  0
SOLID
  5
FFBBDAE469BC00AA
  8
0
  6
CONTINUOUS
 10
96.894795308175844
 20
188.13658896473601
 30
0.0
 11
100.6687759579427
 21
184.59908611460219
 31
0.0
 12
112.5256688543908
 22
184.59908611460219
 32
0.0
 13
112.5256688543908
 23
184.59908611460219
 33
0.0
210
0.0
220
0.0
230
1.0
  0
SOLID
  5
FFBBDAE469BC00AB
  8
0
  6
CONTINUOUS
 10
-96.894795308175844
 20
188.13658896473601
 30
0.0
 11
-111.0856374109173
 21
188.13658896473601
 31
0.0
 12
-112.5256688543908
 22
184.59908611460219
 32
0.0
 13
-112.5256688543908
 23
184.59908611460219
 33
0.0
210
0.0
220
0.0
230
-1.0
  0
SOLID
  5
FFBBDAE469BC00AC
  8
0
  6
CONTINUOUS
 10
100.6687759579427
 20
184.59908611460219
 30
0.0
 11
100.9730394025064
 21
184.39071180818269
 31
0.0
 12
112.6104929707147
 22
184.39071180818269
 32
0.0
 13
112.6104929707147
 23
184.39071180818269
 33
0.0
210
0.0
220
0.0
230
1.0
  0
SOLID
  5
FFBBDAE469BC00AD
  8
0
  6
CONTINUOUS
 10
-100.6687759579427
 20
184.59908611460219
 30
0.0
 11
-112.5256688543908
 21
184.59908611460219
 31
0.0
 12
-112.6104929707147
 22
184.39071180818269
 32
0.0
 13
-112.6104929707147
 23
184.39071180818269
 33
0.0
210
0.0
220
0.0
230
-1.0
  0
SOLID
  5
FFBBDAE469BC00AE
  8
0
  6
CONTINUOUS
 10
100.9730394025064
 20
184.39071180818269
 30
0.0
 11
104.9038105676711
 21
181.69872981077501
 31
0.0
 12
114.167821756084
 22
181.69872981077501
 32
0.0
 13
114.167821756084
 23
181.69872981077501
 33
0.0
  0
SOLID
  5
FFBBDAE469BC00AF
  8
0
  6
CONTINUOUS
 10
-100.9730394025064
 20
184.39071180818269
 30
0.0
 11
-112.6104929707147
 21
184.39071180818269
 31
0.0
 12
-114.167821756084
 22
181.69872981077501
 32
0.0
 13
-114.167821756084
 23
181.69872981077501
 33
0.0
210
0.0
220
0.0
230
-1.0
  0
SOLID
  5
FFBBDAE469BC00B0
  8
0
  6
CONTINUOUS
 10
104.9038105676711
 20
181.69872981077501
 30
0.0
 11
108.26967023111661
 21
179.75544982803029
 31
0.0
 12
115.2920216422922
 22
179.75544982803029
 32
0.0
 13
115.2920216422922
 23
179.75544982803029
 33
0.0
210
0.0
220
0.0
230
1.0
  0
SOLID
  5
FFBBDAE469BC00B1
  8
0
  6
CONTINUOUS
 10
-104.9038105676711
 20
181.69872981077501
 30
0.0
 11
-114.167821756084
 21
181.69872981077501
 31
0.0
 12
-115.2920216422922
 22
179.75544982803029
 32
0.0
 13
-115.2920216422922
 23
179.75544982803029
 33
0.0
210
0.0
220
0.0
230
-1.0
  0
SOLID
  5
FFBBDAE469BC00B2
  8
0
  6
CONTINUOUS
 10
108.26967023111661
 20
179.75544982803029
 30
0.0
 11
115.4037465156496
 21
175.63658896473601
 31
0.0
 12
118.54543040278691
 22
175.63658896473601
 32
0.0
 13
118.54543040278691
 23
175.63658896473601
 33
0.0
210
0.0
220
0.0
230
1.0
  0
SOLID
  5
FFBBDAE469BC00B3
  8
0
  6
CONTINUOUS
 10
-108.26967023111661
 20
179.75544982803029
 30
0.0
 11
-115.2920216422922
 21
179.75544982803029
 31
0.0
 12
-118.54543040278691
 22
175.63658896473601
 32
0.0
 13
-118.54543040278691
 23
175.63658896473601
 33
0.0
210
0.0
220
0.0
230
-1.0
  0
SOLID
  5
FFBBDAE469BC00B4
  8
0
  6
CONTINUOUS
 10
-121.5308811840014
 20
172.09908611460219
 30
0.0
 11
-122.3194110525538
 21
172.09908611460219
 31
0.0
 12
-126.55444566227921
 22
169.19872981077719
 32
0.0
 13
-126.55444566227921
 23
169.19872981077719
 33
0.0
210
0.0
220
0.0
230
-1.0
  0
SOLID
  5
FFBBDAE469BC00B5
  8
0
  6
CONTINUOUS
 10
115.4037465156496
 20
175.63658896473601
 30
0.0
 11
121.5308811840014
 21
172.09908611460219
 31
0.0
 12
122.3194110525538
 22
172.09908611460219
 32
0.0
 13
122.3194110525538
 23
172.09908611460219
 33
0.0
210
0.0
220
0.0
230
1.0
  0
SOLID
  5
FFBBDAE469BC00B6
  8
0
  6
CONTINUOUS
 10
-115.4037465156496
 20
175.63658896473601
 30
0.0
 11
-118.54543040278691
 21
175.63658896473601
 31
0.0
 12
-122.3194110525538
 22
172.09908611460219
 32
0.0
 13
-122.3194110525538
 23
172.09908611460219
 33
0.0
210
0.0
220
0.0
230
-1.0
  0
LINE
  5
FFBBDAE469BC00B7
  8
0
  6
CONTINUOUS
 10
134.77519187829679
 20
272.78109645058152
 30
0.0
 11
134.74153034313579
 21
272.77645549009532
 31
0.0
  0
LINE
  5
FFBBDAE469BC00B8
  8
0
  6
CONTINUOUS
 10
140.1302108420937
 20
272.77645549009532
 30
0.0
 11
134.77519187829679
 21
272.78109645058152
 31
0.0
  0
LINE
  5
FFBBDAE469BC00B9
  8
0
  6
CONTINUOUS
 10
134.74153034313579
 20
272.77645549009532
 30
0.0
 11
129.34334832120919
 21
272.03220097699858
 31
0.0
  0
LINE
  5
FFBBDAE469BC00BA
  8
0
  6
CONTINUOUS
 10
140.1302108420937
 20
272.77645549009532
 30
0.0
 11
145.2290696700527
 21
272.03220097699858
 31
0.0
  0
LINE
  5
FFBBDAE469BC00BB
  8
0
  6
CONTINUOUS
 10
129.34334832120919
 20
272.03220097699858
 30
0.0
 11
129.29296199272821
 21
272.01835128625908
 31
0.0
  0
LINE
  5
FFBBDAE469BC00BC
  8
0
  6
CONTINUOUS
 10
145.2290696700527
 20
272.03220097699858
 30
0.0
 11
145.32395336460741
 21
272.01835128625908
 31
0.0
  0
LINE
  5
FFBBDAE469BC00BD
  8
0
  6
CONTINUOUS
 10
129.29296199272821
 20
272.01835128625908
 30
0.0
 11
123.9203435885522
 21
270.54157959833333
 31
0.0
  0
LINE
  5
FFBBDAE469BC00BE
  8
0
  6
CONTINUOUS
 10
145.32395336460741
 20
272.01835128625908
 30
0.0
 11
150.19911100315571
 21
270.54157959833333
 31
0.0
  0
LINE
  5
FFBBDAE469BC00BF
  8
0
  6
CONTINUOUS
 10
123.9203435885522
 20
270.54157959833333
 30
0.0
 11
123.8652439724537
 21
270.51873959523698
 31
0.0
  0
LINE
  5
FFBBDAE469BC00C0
  8
0
  6
CONTINUOUS
 10
150.19911100315571
 20
270.54157959833333
 30
0.0
 11
150.27451102366661
 21
270.51873959523698
 31
0.0
  0
LINE
  5
FFBBDAE469BC00C1
  8
0
  6
CONTINUOUS
 10
123.8652439724537
 20
270.51873959523698
 30
0.0
 11
118.5917017045057
 21
268.33274030418141
 31
0.0
  0
LINE
  5
FFBBDAE469BC00C2
  8
0
  6
CONTINUOUS
 10
150.27451102366661
 20
270.51873959523698
 30
0.0
 11
154.8381119887201
 21
268.33274030418141
 31
0.0
  0
LINE
  5
FFBBDAE469BC00C3
  8
0
  6
CONTINUOUS
 10
118.5917017045057
 20
268.33274030418141
 30
0.0
 11
118.53566218993321
 21
268.30127018922099
 31
0.0
  0
LINE
  5
FFBBDAE469BC00C4
  8
0
  6
CONTINUOUS
 10
154.8381119887201
 20
268.33274030418141
 30
0.0
 11
154.90381056766819
 21
268.30127018922099
 31
0.0
  0
LINE
  5
FFBBDAE469BC00C5
  8
0
  6
CONTINUOUS
 10
118.53566218993321
 20
268.30127018922099
 30
0.0
 11
113.4414585347576
 21
265.44051780970818
 31
0.0
  0
LINE
  5
FFBBDAE469BC00C6
  8
0
  6
CONTINUOUS
 10
154.90381056766819
 20
268.30127018922099
 30
0.0
 11
159.8587790368577
 21
265.44051780970818
 31
0.0
  0
LINE
  5
FFBBDAE469BC00C7
  8
0
  6
CONTINUOUS
 10
113.4414585347576
 20
265.44051780970818
 30
0.0
 11
108.5508364907009
 21
261.91052419138151
 31
0.0
  0
LINE
  5
FFBBDAE469BC00C8
  8
0
  6
CONTINUOUS
 10
159.8587790368577
 20
265.44051780970818
 30
0.0
 11
165.9729073341932
 21
261.91052419138151
 31
0.0
  0
LINE
  5
FFBBDAE469BC00C9
  8
0
  6
CONTINUOUS
 10
108.5508364907009
 20
261.91052419138151
 30
0.0
 11
106.746353016764
 21
260.28109645058157
 31
0.0
  0
LINE
  5
FFBBDAE469BC00CA
  8
0
  6
CONTINUOUS
 10
165.9729073341932
 20
261.91052419138151
 30
0.0
 11
168.79515896852081
 21
260.28109645058157
 31
0.0
  0
LINE
  5
FFBBDAE469BC00CB
  8
0
  6
CONTINUOUS
 10
168.79515896852081
 20
260.28109645058157
 30
0.0
 11
168.80319734787889
 21
260.27645549009532
 31
0.0
  0
LINE
  5
FFBBDAE469BC00CC
  8
0
  6
CONTINUOUS
 10
106.746353016764
 20
260.28109645058157
 30
0.0
 11
106.7412134599178
 21
260.27645549009532
 31
0.0
  0
LINE
  5
FFBBDAE469BC00CD
  8
0
  6
CONTINUOUS
 10
106.7412134599178
 20
260.27645549009532
 30
0.0
 11
105.917000801904
 21
259.53220097699858
 31
0.0
  0
LINE
  5
FFBBDAE469BC00CE
  8
0
  6
CONTINUOUS
 10
156.3921654377468
 20
260.27645549009532
 30
0.0
 11
150.99398341582031
 21
259.53220097699858
 31
0.0
  0
LINE
  5
FFBBDAE469BC00CF
  8
0
  6
CONTINUOUS
 10
161.78084593670479
 20
260.27645549009532
 30
0.0
 11
166.9745884592185
 21
259.51835128625908
 31
0.0
  0
LINE
  5
FFBBDAE469BC00D0
  8
0
  6
CONTINUOUS
 10
168.80319734787889
 20
260.27645549009532
 30
0.0
 11
170.11627234635469
 21
259.51835128625908
 31
0.0
  0
LINE
  5
FFBBDAE469BC00D1
  8
0
  6
CONTINUOUS
 10
105.917000801904
 20
259.53220097699858
 30
0.0
 11
104.26623619519739
 21
258.04157959833339
 31
0.0
  0
LINE
  5
FFBBDAE469BC00D2
  8
0
  6
CONTINUOUS
 10
150.99398341582031
 20
259.53220097699858
 30
0.0
 11
145.5709786831633
 21
258.04157959833339
 31
0.0
  0
LINE
  5
FFBBDAE469BC00D3
  8
0
  6
CONTINUOUS
 10
166.9745884592185
 20
259.51835128625908
 30
0.0
 11
171.92514611827781
 21
258.01873959523698
 31
0.0
  0
LINE
  5
FFBBDAE469BC00D4
  8
0
  6
CONTINUOUS
 10
170.11627234635469
 20
259.51835128625908
 30
0.0
 11
172.7136759868292
 21
258.01873959523698
 31
0.0
  0
LINE
  5
FFBBDAE469BC00D5
  8
0
  6
CONTINUOUS
 10
104.26623619519739
 20
258.04157959833339
 30
0.0
 11
103.99696360348641
 21
257.79842955727833
 31
0.0
  0
LINE
  5
FFBBDAE469BC00D6
  8
0
  6
CONTINUOUS
 10
145.5709786831633
 20
258.04157959833339
 30
0.0
 11
144.9843993442752
 21
257.79842955727833
 31
0.0
  0
LINE
  5
FFBBDAE469BC00D7
  8
0
  6
CONTINUOUS
 10
176.4999378242469
 20
255.83274030418141
 30
0.0
 11
176.55444566227541
 21
255.80127018922269
 31
0.0
  0
LINE
  5
FFBBDAE469BC00D8
  8
0
  6
CONTINUOUS
 10
176.55444566227541
 20
255.80127018922269
 30
0.0
 11
176.48874708333091
 21
255.83274030418141
 31
0.0
  0
LINE
  5
FFBBDAE469BC00D9
  8
0
  6
CONTINUOUS
 10
171.92514611827781
 20
258.01873959523698
 30
0.0
 11
176.48874708333091
 21
255.83274030418141
 31
0.0
  0
LINE
  5
FFBBDAE469BC00DA
  8
0
  6
CONTINUOUS
 10
172.7136759868292
 20
258.01873959523698
 30
0.0
 11
176.4999378242469
 21
255.83274030418141
 31
0.0
  0
LINE
  5
FFBBDAE469BC00DB
  8
0
  6
CONTINUOUS
 10
103.99696360348641
 20
257.79842955727833
 30
0.0
 11
102.23680455339669
 21
255.83274030418141
 31
0.0
  0
LINE
  5
FFBBDAE469BC00DC
  8
0
  6
CONTINUOUS
 10
144.9843993442752
 20
257.79842955727833
 30
0.0
 11
140.2423367991168
 21
255.83274030418141
 31
0.0
  0
LINE
  5
FFBBDAE469BC00DD
  8
0
  6
CONTINUOUS
 10
102.23680455339669
 20
255.83274030418141
 30
0.0
 11
99.851657168897376
 21
253.16908409622479
 31
0.0
  0
LINE
  5
FFBBDAE469BC00DE
  8
0
  6
CONTINUOUS
 10
140.2423367991168
 20
255.83274030418141
 30
0.0
 11
135.49910656084819
 21
253.16908409622479
 31
0.0
  0
LINE
  5
FFBBDAE469BC00DF
  8
0
  6
CONTINUOUS
 10
99.851657168897376
 20
253.16908409622479
 30
0.0
 11
99.686261323746876
 21
252.94051780970821
 31
0.0
  0
LINE
  5
FFBBDAE469BC00E0
  8
0
  6
CONTINUOUS
 10
135.49910656084819
 20
253.16908409622479
 30
0.0
 11
135.09209362936869
 21
252.94051780970821
 31
0.0
  0
LINE
  5
FFBBDAE469BC00E1
  8
0
  6
CONTINUOUS
 10
99.686261323746876
 20
252.94051780970821
 30
0.0
 11
97.131876393330927
 21
249.41052419138151
 31
0.0
  0
LINE
  5
FFBBDAE469BC00E2
  8
0
  6
CONTINUOUS
 10
135.09209362936869
 20
252.94051780970821
 30
0.0
 11
130.20147158531199
 21
249.41052419138151
 31
0.0
  0
LINE
  5
FFBBDAE469BC00E3
  8
0
  6
CONTINUOUS
 10
97.131876393330927
 20
249.41052419138151
 30
0.0
 11
96.180291145693118
 21
248.09549535157851
 31
0.0
  0
LINE
  5
FFBBDAE469BC00E4
  8
0
  6
CONTINUOUS
 10
130.20147158531199
 20
249.41052419138151
 30
0.0
 11
128.74516410400571
 21
248.09549535157851
 31
0.0
  0
LINE
  5
FFBBDAE469BC00E5
  8
0
  6
CONTINUOUS
 10
96.180291145693118
 20
248.09549535157851
 30
0.0
 11
94.565404456412836
 21
245.2984295572783
 31
0.0
  0
LINE
  5
FFBBDAE469BC00E6
  8
0
  6
CONTINUOUS
 10
128.74516410400571
 20
248.09549535157851
 30
0.0
 11
125.6475986980975
 21
245.2984295572783
 31
0.0
  0
LINE
  5
FFBBDAE469BC00E7
  8
0
  6
CONTINUOUS
 10
94.565404456412836
 20
245.2984295572783
 30
0.0
 11
93.040765169227456
 21
242.6576768486577
 31
0.0
  0
LINE
  5
FFBBDAE469BC00E8
  8
0
  6
CONTINUOUS
 10
125.6475986980975
 20
245.2984295572783
 30
0.0
 11
123.282960049438
 21
242.6576768486577
 31
0.0
  0
LINE
  5
FFBBDAE469BC00E9
  8
0
  6
CONTINUOUS
 10
93.040765169227456
 20
242.6576768486577
 30
0.0
 11
92.150823407900234
 21
240.66908409622479
 31
0.0
  0
LINE
  5
FFBBDAE469BC00EA
  8
0
  6
CONTINUOUS
 10
123.282960049438
 20
242.6576768486577
 30
0.0
 11
121.50229226350839
 21
240.66908409622479
 31
0.0
  0
LINE
  5
FFBBDAE469BC00EB
  8
0
  6
CONTINUOUS
 10
92.150823407900234
 20
240.66908409622479
 30
0.0
 11
90.482591439611113
 21
236.94138623364859
 31
0.0
  0
LINE
  5
FFBBDAE469BC00EC
  8
0
  6
CONTINUOUS
 10
121.50229226350839
 20
240.66908409622479
 30
0.0
 11
118.80484397468631
 21
236.94138623364859
 31
0.0
  0
LINE
  5
FFBBDAE469BC00ED
  8
0
  6
CONTINUOUS
 10
90.482591439611113
 20
236.94138623364859
 30
0.0
 11
90.041192942580352
 21
235.59549535157851
 31
0.0
  0
LINE
  5
FFBBDAE469BC00EE
  8
0
  6
CONTINUOUS
 10
118.80484397468631
 20
236.94138623364859
 30
0.0
 11
117.83092624030419
 21
235.59549535157851
 31
0.0
  0
LINE
  5
FFBBDAE469BC00EF
  8
0
  6
CONTINUOUS
 10
90.041192942580352
 20
235.59549535157851
 30
0.0
 11
88.546113884739071
 21
231.03677282429661
 31
0.0
  0
LINE
  5
FFBBDAE469BC00F0
  8
0
  6
CONTINUOUS
 10
117.83092624030419
 20
235.59549535157851
 30
0.0
 11
115.1989465620171
 21
231.03677282429661
 31
0.0
  0
LINE
  5
FFBBDAE469BC00F1
  8
0
  6
CONTINUOUS
 10
88.546113884739071
 20
231.03677282429661
 30
0.0
 11
88.357946151609866
 21
230.1576768486577
 31
0.0
  0
LINE
  5
FFBBDAE469BC00F2
  8
0
  6
CONTINUOUS
 10
115.1989465620171
 20
231.03677282429661
 30
0.0
 11
114.6914002638385
 21
230.1576768486577
 31
0.0
  0
LINE
  5
FFBBDAE469BC00F3
  8
0
  6
CONTINUOUS
 10
88.357946151609866
 20
230.1576768486577
 30
0.0
 11
87.26187191244729
 21
225.0369559013121
 31
0.0
  0
LINE
  5
FFBBDAE469BC00F4
  8
0
  6
CONTINUOUS
 10
114.6914002638385
 20
230.1576768486577
 30
0.0
 11
112.3997578883091
 21
225.0369559013121
 31
0.0
  0
LINE
  5
FFBBDAE469BC00F5
  8
0
  6
CONTINUOUS
 10
87.26187191244729
 20
225.0369559013121
 30
0.0
 11
87.201152356728571
 21
224.4413862336487
 31
0.0
  0
LINE
  5
FFBBDAE469BC00F6
  8
0
  6
CONTINUOUS
 10
112.3997578883091
 20
225.0369559013121
 30
0.0
 11
112.1332265342222
 21
224.4413862336487
 31
0.0
  0
LINE
  5
FFBBDAE469BC00F7
  8
0
  6
CONTINUOUS
 10
87.201152356728571
 20
224.4413862336487
 30
0.0
 11
86.650118785807749
 21
219.03655616168751
 31
0.0
  0
LINE
  5
FFBBDAE469BC00F8
  8
0
  6
CONTINUOUS
 10
112.1332265342222
 20
224.4413862336487
 30
0.0
 11
110.3606579684846
 21
219.03655616168751
 31
0.0
  0
LINE
  5
FFBBDAE469BC00F9
  8
0
  6
CONTINUOUS
 10
86.650118785807749
 20
219.03655616168751
 30
0.0
 11
86.656074486076903
 21
218.53677282429661
 31
0.0
  0
LINE
  5
FFBBDAE469BC00FA
  8
0
  6
CONTINUOUS
 10
110.3606579684846
 20
219.03655616168751
 30
0.0
 11
110.1967489793501
 21
218.53677282429661
 31
0.0
  0
LINE
  5
FFBBDAE469BC00FB
  8
0
  6
CONTINUOUS
 10
86.656074486076903
 20
218.53677282429661
 30
0.0
 11
86.720502217071214
 21
213.13020349378169
 31
0.0
  0
LINE
  5
FFBBDAE469BC00FC
  8
0
  6
CONTINUOUS
 10
110.1967489793501
 20
218.53677282429661
 30
0.0
 11
109.039489791365
 21
213.13020349378169
 31
0.0
  0
LINE
  5
FFBBDAE469BC00FD
  8
0
  6
CONTINUOUS
 10
86.720502217071214
 20
213.13020349378169
 30
0.0
 11
86.798445876717835
 21
212.5369559013121
 31
0.0
  0
LINE
  5
FFBBDAE469BC00FE
  8
0
  6
CONTINUOUS
 10
109.039489791365
 20
213.13020349378169
 30
0.0
 11
108.91250700705839
 21
212.5369559013121
 31
0.0
  0
LINE
  5
FFBBDAE469BC00FF
  8
0
  6
CONTINUOUS
 10
86.798445876717835
 20
212.5369559013121
 30
0.0
 11
87.471912217481574
 21
207.41104460745169
 31
0.0
  0
LINE
  5
FFBBDAE469BC0100
  8
0
  6
CONTINUOUS
 10
108.91250700705839
 20
212.5369559013121
 30
0.0
 11
108.3899097807122
 21
207.41104460745169
 31
0.0
  0
LINE
  5
FFBBDAE469BC0101
  8
0
  6
CONTINUOUS
 10
87.471912217481574
 20
207.41104460745169
 30
0.0
 11
87.700199383920207
 21
206.53655616168751
 31
0.0
  0
LINE
  5
FFBBDAE469BC0102
  8
0
  6
CONTINUOUS
 10
108.3899097807122
 20
207.41104460745169
 30
0.0
 11
108.3007538804188
 21
206.53655616168751
 31
0.0
  0
LINE
  5
FFBBDAE469BC0103
  8
0
  6
CONTINUOUS
 10
87.700199383920207
 20
206.53655616168751
 30
0.0
 11
88.892498602461814
 21
201.96927405479491
 31
0.0
  0
LINE
  5
FFBBDAE469BC0104
  8
0
  6
CONTINUOUS
 10
108.3007538804188
 20
206.53655616168751
 30
0.0
 11
108.3551801912584
 21
201.96927405479491
 31
0.0
  0
LINE
  5
FFBBDAE469BC0105
  8
0
  6
CONTINUOUS
 10
88.892498602461814
 20
201.96927405479491
 30
0.0
 11
89.437601686354895
 21
200.63020349378169
 31
0.0
  0
LINE
  5
FFBBDAE469BC0106
  8
0
  6
CONTINUOUS
 10
108.3551801912584
 20
201.96927405479491
 30
0.0
 11
108.3711373116823
 21
200.63020349378169
 31
0.0
  0
LINE
  5
FFBBDAE469BC0107
  8
0
  6
CONTINUOUS
 10
89.437601686354895
 20
200.63020349378169
 30
0.0
 11
90.959857876103626
 21
196.89071180818269
 31
0.0
  0
LINE
  5
FFBBDAE469BC0108
  8
0
  6
CONTINUOUS
 10
108.3711373116823
 20
200.63020349378169
 30
0.0
 11
108.8624493218673
 21
196.89071180818269
 31
0.0
  0
LINE
  5
FFBBDAE469BC0109
  8
0
  6
CONTINUOUS
 10
90.959857876103626
 20
196.89071180818269
 30
0.0
 11
92.105108000405565
 21
194.91104460745169
 31
0.0
  0
LINE
  5
FFBBDAE469BC010A
  8
0
  6
CONTINUOUS
 10
108.8624493218673
 20
196.89071180818269
 30
0.0
 11
109.12254731209261
 21
194.91104460745169
 31
0.0
  0
LINE
  5
FFBBDAE469BC010B
  8
0
  6
CONTINUOUS
 10
92.105108000405565
 20
194.91104460745169
 30
0.0
 11
93.641386547681094
 21
192.25544982803029
 31
0.0
  0
LINE
  5
FFBBDAE469BC010C
  8
0
  6
CONTINUOUS
 10
109.12254731209261
 20
194.91104460745169
 30
0.0
 11
109.8157962742028
 21
192.25544982803029
 31
0.0
  0
LINE
  5
FFBBDAE469BC010D
  8
0
  6
CONTINUOUS
 10
93.641386547681094
 20
192.25544982803029
 30
0.0
 11
95.842133057402364
 21
189.46927405479491
 31
0.0
  0
LINE
  5
FFBBDAE469BC010E
  8
0
  6
CONTINUOUS
 10
109.8157962742028
 20
192.25544982803029
 30
0.0
 11
110.5431336970729
 21
189.46927405479491
 31
0.0
  0
LINE
  5
FFBBDAE469BC010F
  8
0
  6
CONTINUOUS
 10
95.842133057402364
 20
189.46927405479491
 30
0.0
 11
96.894795308175844
 21
188.13658896473601
 31
0.0
  0
LINE
  5
FFBBDAE469BC0110
  8
0
  6
CONTINUOUS
 10
110.5431336970729
 20
189.46927405479491
 30
0.0
 11
111.0856374109173
 21
188.13658896473601
 31
0.0
  0
LINE
  5
FFBBDAE469BC0111
  8
0
  6
CONTINUOUS
 10
96.894795308175844
 20
188.13658896473601
 30
0.0
 11
100.6687759579427
 21
184.59908611460219
 31
0.0
  0
LINE
  5
FFBBDAE469BC0112
  8
0
  6
CONTINUOUS
 10
111.0856374109173
 20
188.13658896473601
 30
0.0
 11
112.5256688543908
 21
184.59908611460219
 31
0.0
  0
LINE
  5
FFBBDAE469BC0113
  8
0
  6
CONTINUOUS
 10
100.6687759579427
 20
184.59908611460219
 30
0.0
 11
100.9730394025064
 21
184.39071180818269
 31
0.0
  0
LINE
  5
FFBBDAE469BC0114
  8
0
  6
CONTINUOUS
 10
112.5256688543908
 20
184.59908611460219
 30
0.0
 11
112.6104929707147
 21
184.39071180818269
 31
0.0
  0
LINE
  5
FFBBDAE469BC0115
  8
0
  6
CONTINUOUS
 10
100.9730394025064
 20
184.39071180818269
 30
0.0
 11
104.9038105676711
 21
181.69872981077501
 31
0.0
  0
LINE
  5
FFBBDAE469BC0116
  8
0
  6
CONTINUOUS
 10
112.6104929707147
 20
184.39071180818269
 30
0.0
 11
114.167821756084
 21
181.69872981077501
 31
0.0
  0
LINE
  5
FFBBDAE469BC0117
  8
0
  6
CONTINUOUS
 10
104.9038105676711
 20
181.69872981077501
 30
0.0
 11
108.26967023111661
 21
179.75544982803029
 31
0.0
  0
LINE
  5
FFBBDAE469BC0118
  8
0
  6
CONTINUOUS
 10
114.167821756084
 20
181.69872981077501
 30
0.0
 11
115.2920216422922
 21
179.75544982803029
 31
0.0
  0
LINE
  5
FFBBDAE469BC0119
  8
0
  6
CONTINUOUS
 10
108.26967023111661
 20
179.75544982803029
 30
0.0
 11
115.4037465156496
 21
175.63658896473601
 31
0.0
  0
LINE
  5
FFBBDAE469BC011A
  8
0
  6
CONTINUOUS
 10
115.2920216422922
 20
179.75544982803029
 30
0.0
 11
118.54543040278691
 21
175.63658896473601
 31
0.0
  0
LINE
  5
FFBBDAE469BC011B
  8
0
  6
CONTINUOUS
 10
122.3194110525538
 20
172.09908611460219
 30
0.0
 11
126.55444566227921
 21
169.19872981077719
 31
0.0
  0
LINE
  5
FFBBDAE469BC011C
  8
0
  6
CONTINUOUS
 10
126.55444566227921
 20
169.19872981077719
 30
0.0
 11
121.5308811840014
 21
172.09908611460219
 31
0.0
  0
LINE
  5
FFBBDAE469BC011D
  8
0
  6
CONTINUOUS
 10
115.4037465156496
 20
175.63658896473601
 30
0.0
 11
121.5308811840014
 21
172.09908611460219
 31
0.0
  0
LINE
  5
FFBBDAE469BC011E
  8
0
  6
CONTINUOUS
 10
118.54543040278691
 20
175.63658896473601
 30
0.0
 11
122.3194110525538
 21
172.09908611460219
 31
0.0
  0
ENDBLK
  5
FFBBDAE469BC0120
  8
0
  0
BLOCK
  8
0
  2
*U7
 70
     1
 10
0.0
 20
0.0
 30
0.0
  3
*U7
  1

  0
SOLID
  5
FFBBDAE469BC0122
  8
0
  6
CONTINUOUS
 10
259.80762113533092
 20
449.99999999999841
 30
0.0
 11
0.0
 21
299.99999999999841
 31
0.0
 12
259.80762113533092
 22
299.99999999999841
 32
0.0
 13
259.80762113533092
 23
299.99999999999841
 33
0.0
210
0.0
220
0.0
230
1.0
  0
SOLID
  5
FFBBDAE469BC0123
  8
0
  6
CONTINUOUS
 10
0.0
 20
299.99999999999841
 30
0.0
 11
-0.0000000000000026
 21
272.78109645058157
 31
0.0
 12
259.80762113533092
 22
272.78109645058157
 32
0.0
 13
259.80762113533092
 23
272.78109645058157
 33
0.0
210
0.0
220
0.0
230
1.0
  0
SOLID
  5
FFBBDAE469BC0124
  8
0
  6
CONTINUOUS
 10
0.0
 20
299.99999999999841
 30
0.0
 11
-259.80762113533092
 21
299.99999999999841
 31
0.0
 12
-259.80762113533092
 22
272.78109645058157
 32
0.0
 13
-259.80762113533092
 23
272.78109645058157
 33
0.0
210
0.0
220
0.0
230
-1.0
  0
SOLID
  5
FFBBDAE469BC0125
  8
0
  6
CONTINUOUS
 10
134.77519187829679
 20
272.78109645058157
 30
0.0
 11
140.1302108420937
 21
272.77645549009532
 31
0.0
 12
259.80762113533092
 22
272.77645549009532
 32
0.0
 13
259.80762113533092
 23
272.77645549009532
 33
0.0
  0
SOLID
  5
FFBBDAE469BC0126
  8
0
  6
CONTINUOUS
 10
-134.77519187829679
 20
272.78109645058157
 30
0.0
 11
-259.80762113533092
 21
272.78109645058157
 31
0.0
 12
-259.80762113533092
 22
272.77645549009532
 32
0.0
 13
-259.80762113533092
 23
272.77645549009532
 33
0.0
210
0.0
220
0.0
230
-1.0
  0
SOLID
  5
FFBBDAE469BC0127
  8
0
  6
CONTINUOUS
 10
-0.0000000000000026
 20
272.78109645058157
 30
0.0
 11
-0.0000000000000026
 21
272.03220097699858
 31
0.0
 12
129.34334832120919
 22
272.03220097699858
 32
0.0
 13
129.34334832120919
 23
272.03220097699858
 33
0.0
210
0.0
220
0.0
230
1.0
  0
SOLID
  5
FFBBDAE469BC0128
  8
0
  6
CONTINUOUS
 10
0.0000000000000026
 20
272.78109645058157
 30
0.0
 11
-134.77519187829679
 21
272.78109645058157
 31
0.0
 12
-129.34334832120919
 22
272.03220097699858
 32
0.0
 13
-129.34334832120919
 23
272.03220097699858
 33
0.0
210
0.0
220
0.0
230
-1.0
  0
SOLID
  5
FFBBDAE469BC0129
  8
0
  6
CONTINUOUS
 10
140.1302108420937
 20
272.77645549009532
 30
0.0
 11
145.32395336460749
 21
272.01835128625908
 31
0.0
 12
259.80762113533092
 22
272.01835128625908
 32
0.0
 13
259.80762113533092
 23
272.01835128625908
 33
0.0
210
0.0
220
0.0
230
1.0
  0
SOLID
  5
FFBBDAE469BC012A
  8
0
  6
CONTINUOUS
 10
-140.1302108420937
 20
272.77645549009532
 30
0.0
 11
-259.80762113533092
 21
272.77645549009532
 31
0.0
 12
-259.80762113533092
 22
272.01835128625908
 32
0.0
 13
-259.80762113533092
 23
272.01835128625908
 33
0.0
210
0.0
220
0.0
230
-1.0
  0
SOLID
  5
FFBBDAE469BC012B
  8
0
  6
CONTINUOUS
 10
-0.0000000000000026
 20
272.03220097699858
 30
0.0
 11
-0.0000000000000028
 21
270.54157959833339
 31
0.0
 12
123.9203435885522
 22
270.54157959833339
 32
0.0
 13
123.9203435885522
 23
270.54157959833339
 33
0.0
  0
SOLID
  5
FFBBDAE469BC012C
  8
0
  6
CONTINUOUS
 10
0.0000000000000026
 20
272.03220097699858
 30
0.0
 11
-129.34334832120919
 21
272.03220097699858
 31
0.0
 12
-123.9203435885522
 22
270.54157959833339
 32
0.0
 13
-123.9203435885522
 23
270.54157959833339
 33
0.0
210
0.0
220
0.0
230
-1.0
  0
SOLID
  5
FFBBDAE469BC012D
  8
0
  6
CONTINUOUS
 10
145.32395336460749
 20
272.01835128625908
 30
0.0
 11
150.27451102366669
 21
270.51873959523698
 31
0.0
 12
259.80762113533092
 22
270.51873959523698
 32
0.0
 13
259.80762113533092
 23
270.51873959523698
 33
0.0
210
0.0
220
0.0
230
1.0
  0
SOLID
  5
FFBBDAE469BC012E
  8
0
  6
CONTINUOUS
 10
-145.32395336460749
 20
272.01835128625908
 30
0.0
 11
-259.80762113533092
 21
272.01835128625908
 31
0.0
 12
-259.80762113533092
 22
270.51873959523698
 32
0.0
 13
-259.80762113533092
 23
270.51873959523698
 33
0.0
210
0.0
220
0.0
230
-1.0
  0
SOLID
  5
FFBBDAE469BC012F
  8
0
  6
CONTINUOUS
 10
-0.0000000000000028
 20
270.54157959833339
 30
0.0
 11
-0.000000000000003
 21
268.33274030418141
 31
0.0
 12
118.5917017045057
 22
268.33274030418141
 32
0.0
 13
118.5917017045057
 23
268.33274030418141
 33
0.0
210
0.0
220
0.0
230
1.0
  0
SOLID
  5
FFBBDAE469BC0130
  8
0
  6
CONTINUOUS
 10
0.0000000000000028
 20
270.54157959833339
 30
0.0
 11
-123.9203435885522
 21
270.54157959833339
 31
0.0
 12
-118.5917017045057
 22
268.33274030418141
 32
0.0
 13
-118.5917017045057
 23
268.33274030418141
 33
0.0
210
0.0
220
0.0
230
-1.0
  0
SOLID
  5
FFBBDAE469BC0131
  8
0
  6
CONTINUOUS
 10
150.27451102366669
 20
270.51873959523698
 30
0.0
 11
154.90381056766489
 21
268.30127018922241
 31
0.0
 12
259.80762113533092
 22
268.30127018922241
 32
0.0
 13
259.80762113533092
 23
268.30127018922241
 33
0.0
210
0.0
220
0.0
230
1.0
  0
SOLID
  5
FFBBDAE469BC0132
  8
0
  6
CONTINUOUS
 10
-150.27451102366669
 20
270.51873959523698
 30
0.0
 11
-259.80762113533092
 21
270.51873959523698
 31
0.0
 12
-259.80762113533092
 22
268.30127018922241
 32
0.0
 13
-259.80762113533092
 23
268.30127018922241
 33
0.0
210
0.0
220
0.0
230
-1.0
  0
SOLID
  5
FFBBDAE469BC0133
  8
0
  6
CONTINUOUS
 10
-0.000000000000003
 20
268.33274030418141
 30
0.0
 11
-0.0000000000000033
 21
265.44051780970818
 31
0.0
 12
113.4414585347576
 22
265.44051780970818
 32
0.0
 13
113.4414585347576
 23
265.44051780970818
 33
0.0
  0
SOLID
  5
FFBBDAE469BC0134
  8
0
  6
CONTINUOUS
 10
0.000000000000003
 20
268.33274030418141
 30
0.0
 11
-118.5917017045057
 21
268.33274030418141
 31
0.0
 12
-113.4414585347576
 22
265.44051780970818
 32
0.0
 13
-113.4414585347576
 23
265.44051780970818
 33
0.0
210
0.0
220
0.0
230
-1.0
  0
SOLID
  5
FFBBDAE469BC0135
  8
0
  6
CONTINUOUS
 10
-0.0000000000000033
 20
265.44051780970818
 30
0.0
 11
-0.0000000000000036
 21
261.91052419138151
 31
0.0
 12
108.5508364907009
 22
261.91052419138151
 32
0.0
 13
108.5508364907009
 23
261.91052419138151
 33
0.0
210
0.0
220
0.0
230
1.0
  0
SOLID
  5
FFBBDAE469BC0136
  8
0
  6
CONTINUOUS
 10
0.0000000000000033
 20
265.44051780970818
 30
0.0
 11
-113.4414585347576
 21
265.44051780970818
 31
0.0
 12
-108.5508364907009
 22
261.91052419138151
 32
0.0
 13
-108.5508364907009
 23
261.91052419138151
 33
0.0
210
0.0
220
0.0
230
-1.0
  0
SOLID
  5
FFBBDAE469BC0137
  8
0
  6
CONTINUOUS
 10
-0.0000000000000036
 20
261.91052419138151
 30
0.0
 11
-0.000000000000004
 21
257.79842955727838
 31
0.0
 12
103.99696360348641
 22
257.79842955727838
 32
0.0
 13
103.99696360348641
 23
257.79842955727838
 33
0.0
210
0.0
220
0.0
230
1.0
  0
SOLID
  5
FFBBDAE469BC0138
  8
0
  6
CONTINUOUS
 10
0.0000000000000036
 20
261.91052419138151
 30
0.0
 11
-108.5508364907009
 21
261.91052419138151
 31
0.0
 12
-103.99696360348641
 22
257.79842955727838
 32
0.0
 13
-103.99696360348641
 23
257.79842955727838
 33
0.0
210
0.0
220
0.0
230
-1.0
  0
SOLID
  5
FFBBDAE469BC0139
  8
0
  6
CONTINUOUS
 10
-0.000000000000004
 20
257.79842955727838
 30
0.0
 11
-0.0000000000000044
 21
253.16908409622479
 31
0.0
 12
99.851657168897376
 22
253.16908409622479
 32
0.0
 13
99.851657168897376
 23
253.16908409622479
 33
0.0
210
0.0
220
0.0
230
1.0
  0
SOLID
  5
FFBBDAE469BC013A
  8
0
  6
CONTINUOUS
 10
0.000000000000004
 20
257.79842955727838
 30
0.0
 11
-103.99696360348641
 21
257.79842955727838
 31
0.0
 12
-99.851657168897376
 22
253.16908409622479
 32
0.0
 13
-99.851657168897376
 23
253.16908409622479
 33
0.0
210
0.0
220
0.0
230
-1.0
  0
SOLID
  5
FFBBDAE469BC013B
  8
0
  6
CONTINUOUS
 10
-0.0000000000000044
 20
253.16908409622479
 30
0.0
 11
-0.0000000000000049
 21
248.09549535157851
 31
0.0
 12
96.180291145693133
 22
248.09549535157851
 32
0.0
 13
96.180291145693133
 23
248.09549535157851
 33
0.0
210
0.0
220
0.0
230
1.0
  0
SOLID
  5
FFBBDAE469BC013C
  8
0
  6
CONTINUOUS
 10
0.0000000000000044
 20
253.16908409622479
 30
0.0
 11
-99.851657168897376
 21
253.16908409622479
 31
0.0
 12
-96.180291145693133
 22
248.09549535157851
 32
0.0
 13
-96.180291145693133
 23
248.09549535157851
 33
0.0
210
0.0
220
0.0
230
-1.0
  0
SOLID
  5
FFBBDAE469BC013D
  8
0
  6
CONTINUOUS
 10
-0.0000000000000049
 20
248.09549535157851
 30
0.0
 11
-0.0000000000000054
 21
242.6576768486577
 31
0.0
 12
93.040765169227456
 22
242.6576768486577
 32
0.0
 13
93.040765169227456
 23
242.6576768486577
 33
0.0
210
0.0
220
0.0
230
1.0
  0
SOLID
  5
FFBBDAE469BC013E
  8
0
  6
CONTINUOUS
 10
0.0000000000000049
 20
248.09549535157851
 30
0.0
 11
-96.180291145693133
 21
248.09549535157851
 31
0.0
 12
-93.040765169227456
 22
242.6576768486577
 32
0.0
 13
-93.040765169227456
 23
242.6576768486577
 33
0.0
210
0.0
220
0.0
230
-1.0
  0
SOLID
  5
FFBBDAE469BC013F
  8
0
  6
CONTINUOUS
 10
-0.0000000000000054
 20
242.6576768486577
 30
0.0
 11
-0.000000000000006
 21
236.9413862336487
 31
0.0
 12
90.482591439611127
 22
236.9413862336487
 32
0.0
 13
90.482591439611127
 23
236.9413862336487
 33
0.0
210
0.0
220
0.0
230
1.0
  0
SOLID
  5
FFBBDAE469BC0140
  8
0
  6
CONTINUOUS
 10
0.0000000000000054
 20
242.6576768486577
 30
0.0
 11
-93.040765169227456
 21
242.6576768486577
 31
0.0
 12
-90.482591439611127
 22
236.9413862336487
 32
0.0
 13
-90.482591439611127
 23
236.9413862336487
 33
0.0
210
0.0
220
0.0
230
-1.0
  0
SOLID
  5
FFBBDAE469BC0141
  8
0
  6
CONTINUOUS
 10
-0.000000000000006
 20
236.9413862336487
 30
0.0
 11
-0.0000000000000065
 21
231.03677282429661
 31
0.0
 12
88.546113884739114
 22
231.03677282429661
 32
0.0
 13
88.546113884739114
 23
231.03677282429661
 33
0.0
210
0.0
220
0.0
230
1.0
  0
SOLID
  5
FFBBDAE469BC0142
  8
0
  6
CONTINUOUS
 10
0.000000000000006
 20
236.9413862336487
 30
0.0
 11
-90.482591439611127
 21
236.9413862336487
 31
0.0
 12
-88.546113884739114
 22
231.03677282429661
 32
0.0
 13
-88.546113884739114
 23
231.03677282429661
 33
0.0
210
0.0
220
0.0
230
-1.0
  0
SOLID
  5
FFBBDAE469BC0143
  8
0
  6
CONTINUOUS
 10
-0.0000000000000065
 20
231.03677282429661
 30
0.0
 11
-0.0000000000000071
 21
225.0369559013121
 31
0.0
 12
87.261871912447305
 22
225.0369559013121
 32
0.0
 13
87.261871912447305
 23
225.0369559013121
 33
0.0
210
0.0
220
0.0
230
1.0
  0
SOLID
  5
FFBBDAE469BC0144
  8
0
  6
CONTINUOUS
 10
0.0000000000000065
 20
231.03677282429661
 30
0.0
 11
-88.546113884739114
 21
231.03677282429661
 31
0.0
 12
-87.261871912447305
 22
225.0369559013121
 32
0.0
 13
-87.261871912447305
 23
225.0369559013121
 33
0.0
210
0.0
220
0.0
230
-1.0
  0
SOLID
  5
FFBBDAE469BC0145
  8
0
  6
CONTINUOUS
 10
-0.0000000000000071
 20
225.0369559013121
 30
0.0
 11
-0.0000000000000077
 21
219.03655616168751
 31
0.0
 12
86.650118785807791
 22
219.03655616168751
 32
0.0
 13
86.650118785807791
 23
219.03655616168751
 33
0.0
  0
SOLID
  5
FFBBDAE469BC0146
  8
0
  6
CONTINUOUS
 10
0.0000000000000071
 20
225.0369559013121
 30
0.0
 11
-87.261871912447305
 21
225.0369559013121
 31
0.0
 12
-86.650118785807791
 22
219.03655616168751
 32
0.0
 13
-86.650118785807791
 23
219.03655616168751
 33
0.0
210
0.0
220
0.0
230
-1.0
  0
SOLID
  5
FFBBDAE469BC0147
  8
0
  6
CONTINUOUS
 10
-250.4629011919393
 20
213.13020349378169
 30
0.0
 11
-259.80762113533092
 21
213.13020349378169
 31
0.0
 12
-259.80762113533092
 22
207.73502691896289
 32
0.0
 13
-259.80762113533092
 23
207.73502691896289
 33
0.0
210
0.0
220
0.0
230
-1.0
  0
SOLID
  5
FFBBDAE469BC0148
  8
0
  6
CONTINUOUS
 10
154.90381056766489
 20
268.30127018922241
 30
0.0
 11
250.4629011919393
 21
213.13020349378169
 31
0.0
 12
259.80762113533092
 22
213.13020349378169
 32
0.0
 13
259.80762113533092
 23
213.13020349378169
 33
0.0
210
0.0
220
0.0
230
1.0
  0
SOLID
  5
FFBBDAE469BC0149
  8
0
  6
CONTINUOUS
 10
-154.90381056766489
 20
268.30127018922241
 30
0.0
 11
-259.80762113533092
 21
268.30127018922241
 31
0.0
 12
-259.80762113533092
 22
213.13020349378169
 32
0.0
 13
-259.80762113533092
 23
213.13020349378169
 33
0.0
210
0.0
220
0.0
230
-1.0
  0
SOLID
  5
FFBBDAE469BC014A
  8
0
  6
CONTINUOUS
 10
-0.0000000000000077
 20
219.03655616168751
 30
0.0
 11
-0.0000000000000082
 21
213.13020349378169
 31
0.0
 12
86.720502217071243
 22
213.13020349378169
 32
0.0
 13
86.720502217071243
 23
213.13020349378169
 33
0.0
210
0.0
220
0.0
230
1.0
  0
SOLID
  5
FFBBDAE469BC014B
  8
0
  6
CONTINUOUS
 10
0.0000000000000077
 20
219.03655616168751
 30
0.0
 11
-86.650118785807791
 21
219.03655616168751
 31
0.0
 12
-86.720502217071243
 22
213.13020349378169
 32
0.0
 13
-86.720502217071243
 23
213.13020349378169
 33
0.0
210
0.0
220
0.0
230
-1.0
  0
SOLID
  5
FFBBDAE469BC014C
  8
0
  6
CONTINUOUS
 10
-0.0000000000000082
 20
213.13020349378169
 30
0.0
 11
-0.0000000000000088
 21
207.4110446074518
 31
0.0
 12
87.471912217481616
 22
207.4110446074518
 32
0.0
 13
87.471912217481616
 23
207.4110446074518
 33
0.0
210
0.0
220
0.0
230
1.0
  0
SOLID
  5
FFBBDAE469BC014D
  8
0
  6
CONTINUOUS
 10
0.0000000000000082
 20
213.13020349378169
 30
0.0
 11
-86.720502217071243
 21
213.13020349378169
 31
0.0
 12
-87.471912217481616
 22
207.4110446074518
 32
0.0
 13
-87.471912217481616
 23
207.4110446074518
 33
0.0
210
0.0
220
0.0
230
-1.0
  0
SOLID
  5
FFBBDAE469BC014E
  8
0
  6
CONTINUOUS
 10
-0.0000000000000088
 20
207.4110446074518
 30
0.0
 11
-0.0000000000000093
 21
201.96927405479491
 31
0.0
 12
88.892498602461856
 22
201.96927405479491
 32
0.0
 13
88.892498602461856
 23
201.96927405479491
 33
0.0
210
0.0
220
0.0
230
1.0
  0
SOLID
  5
FFBBDAE469BC014F
  8
0
  6
CONTINUOUS
 10
0.0000000000000088
 20
207.4110446074518
 30
0.0
 11
-87.471912217481616
 21
207.4110446074518
 31
0.0
 12
-88.892498602461856
 22
201.96927405479491
 32
0.0
 13
-88.892498602461856
 23
201.96927405479491
 33
0.0
210
0.0
220
0.0
230
-1.0
  0
SOLID
  5
FFBBDAE469BC0150
  8
0
  6
CONTINUOUS
 10
-0.0000000000000093
 20
201.96927405479491
 30
0.0
 11
-0.0000000000000098
 21
196.89071180818269
 31
0.0
 12
90.959857876103655
 22
196.89071180818269
 32
0.0
 13
90.959857876103655
 23
196.89071180818269
 33
0.0
210
0.0
220
0.0
230
1.0
  0
SOLID
  5
FFBBDAE469BC0151
  8
0
  6
CONTINUOUS
 10
0.0000000000000093
 20
201.96927405479491
 30
0.0
 11
-88.892498602461856
 21
201.96927405479491
 31
0.0
 12
-90.959857876103655
 22
196.89071180818269
 32
0.0
 13
-90.959857876103655
 23
196.89071180818269
 33
0.0
210
0.0
220
0.0
230
-1.0
  0
SOLID
  5
FFBBDAE469BC0152
  8
0
  6
CONTINUOUS
 10
-0.0000000000000098
 20
196.89071180818269
 30
0.0
 11
-0.0000000000000102
 21
192.25544982803029
 31
0.0
 12
93.641386547681122
 22
192.25544982803029
 32
0.0
 13
93.641386547681122
 23
192.25544982803029
 33
0.0
210
0.0
220
0.0
230
1.0
  0
SOLID
  5
FFBBDAE469BC0153
  8
0
  6
CONTINUOUS
 10
0.0000000000000098
 20
196.89071180818269
 30
0.0
 11
-90.959857876103655
 21
196.89071180818269
 31
0.0
 12
-93.641386547681122
 22
192.25544982803029
 32
0.0
 13
-93.641386547681122
 23
192.25544982803029
 33
0.0
210
0.0
220
0.0
230
-1.0
  0
SOLID
  5
FFBBDAE469BC0154
  8
0
  6
CONTINUOUS
 10
-0.0000000000000102
 20
192.25544982803029
 30
0.0
 11
-0.0000000000000106
 21
188.13658896473601
 31
0.0
 12
96.894795308175915
 22
188.13658896473601
 32
0.0
 13
96.894795308175915
 23
188.13658896473601
 33
0.0
210
0.0
220
0.0
230
1.0
  0
SOLID
  5
FFBBDAE469BC0155
  8
0
  6
CONTINUOUS
 10
0.0000000000000102
 20
192.25544982803029
 30
0.0
 11
-93.641386547681122
 21
192.25544982803029
 31
0.0
 12
-96.894795308175915
 22
188.13658896473601
 32
0.0
 13
-96.894795308175915
 23
188.13658896473601
 33
0.0
210
0.0
220
0.0
230
-1.0
  0
SOLID
  5
FFBBDAE469BC0156
  8
0
  6
CONTINUOUS
 10
-0.0000000000000106
 20
188.13658896473601
 30
0.0
 11
-0.0000000000000109
 21
184.59908611460219
 31
0.0
 12
100.6687759579428
 22
184.59908611460219
 32
0.0
 13
100.6687759579428
 23
184.59908611460219
 33
0.0
210
0.0
220
0.0
230
1.0
  0
SOLID
  5
FFBBDAE469BC0157
  8
0
  6
CONTINUOUS
 10
0.0000000000000106
 20
188.13658896473601
 30
0.0
 11
-96.894795308175915
 21
188.13658896473601
 31
0.0
 12
-100.6687759579428
 22
184.59908611460219
 32
0.0
 13
-100.6687759579428
 23
184.59908611460219
 33
0.0
210
0.0
220
0.0
230
-1.0
  0
SOLID
  5
FFBBDAE469BC0158
  8
0
  6
CONTINUOUS
 10
-0.0000000000000109
 20
184.59908611460219
 30
0.0
 11
-0.0000000000000112
 21
181.69872981077719
 31
0.0
 12
104.9038105676682
 22
181.69872981077719
 32
0.0
 13
104.9038105676682
 23
181.69872981077719
 33
0.0
  0
SOLID
  5
FFBBDAE469BC0159
  8
0
  6
CONTINUOUS
 10
0.0000000000000109
 20
184.59908611460219
 30
0.0
 11
-100.6687759579428
 21
184.59908611460219
 31
0.0
 12
-104.9038105676682
 22
181.69872981077719
 32
0.0
 13
-104.9038105676682
 23
181.69872981077719
 33
0.0
210
0.0
220
0.0
230
-1.0
  0
SOLID
  5
FFBBDAE469BC015A
  8
0
  6
CONTINUOUS
 10
0.0000000000000169
 20
121.1324865405181
 30
0.0
 11
-209.80762113533271
 21
121.1324865405181
 31
0.0
 12
0.0000000000000284
 22
-0.0000000000016485
 32
0.0
 13
0.0000000000000284
 23
-0.0000000000016485
 33
0.0
210
0.0
220
0.0
230
-1.0
  0
SOLID
  5
FFBBDAE469BC015B
  8
0
  6
CONTINUOUS
 10
-0.0000000000000112
 20
181.69872981077719
 30
0.0
 11
-0.0000000000000169
 21
121.1324865405181
 31
0.0
 12
209.80762113533271
 22
121.1324865405181
 32
0.0
 13
209.80762113533271
 23
121.1324865405181
 33
0.0
210
0.0
220
0.0
230
1.0
  0
SOLID
  5
FFBBDAE469BC015C
  8
0
  6
CONTINUOUS
 10
0.0000000000000112
 20
181.69872981077719
 30
0.0
 11
-104.9038105676682
 21
181.69872981077719
 31
0.0
 12
-209.80762113533271
 22
121.1324865405181
 32
0.0
 13
-209.80762113533271
 23
121.1324865405181
 33
0.0
210
0.0
220
0.0
230
-1.0
  0
LINE
  5
FFBBDAE469BC015D
  8
0
  6
CONTINUOUS
 10
259.80762113533092
 20
449.99999999999841
 30
0.0
 11
0.0
 21
299.99999999999841
 31
0.0
  0
LINE
  5
FFBBDAE469BC015E
  8
0
  6
CONTINUOUS
 10
259.80762113533092
 20
299.99999999999841
 30
0.0
 11
259.80762113533092
 21
449.99999999999841
 31
0.0
  0
LINE
  5
FFBBDAE469BC015F
  8
0
  6
CONTINUOUS
 10
0.0
 20
299.99999999999841
 30
0.0
 11
-0.0000000000000026
 21
272.78109645058157
 31
0.0
  0
LINE
  5
FFBBDAE469BC0160
  8
0
  6
CONTINUOUS
 10
259.80762113533092
 20
299.99999999999841
 30
0.0
 11
259.80762113533092
 21
272.78109645058157
 31
0.0
  0
LINE
  5
FFBBDAE469BC0161
  8
0
  6
CONTINUOUS
 10
134.77519187829679
 20
272.78109645058157
 30
0.0
 11
140.1302108420937
 21
272.77645549009532
 31
0.0
  0
LINE
  5
FFBBDAE469BC0162
  8
0
  6
CONTINUOUS
 10
259.80762113533092
 20
272.78109645058157
 30
0.0
 11
259.80762113533092
 21
272.77645549009532
 31
0.0
  0
LINE
  5
FFBBDAE469BC0163
  8
0
  6
CONTINUOUS
 10
-0.0000000000000026
 20
272.78109645058157
 30
0.0
 11
-0.0000000000000026
 21
272.03220097699858
 31
0.0
  0
LINE
  5
FFBBDAE469BC0164
  8
0
  6
CONTINUOUS
 10
134.77519187829679
 20
272.78109645058157
 30
0.0
 11
129.34334832120919
 21
272.03220097699858
 31
0.0
  0
LINE
  5
FFBBDAE469BC0165
  8
0
  6
CONTINUOUS
 10
140.1302108420937
 20
272.77645549009532
 30
0.0
 11
145.32395336460749
 21
272.01835128625908
 31
0.0
  0
LINE
  5
FFBBDAE469BC0166
  8
0
  6
CONTINUOUS
 10
259.80762113533092
 20
272.77645549009532
 30
0.0
 11
259.80762113533092
 21
272.01835128625908
 31
0.0
  0
LINE
  5
FFBBDAE469BC0167
  8
0
  6
CONTINUOUS
 10
-0.0000000000000026
 20
272.03220097699858
 30
0.0
 11
-0.0000000000000028
 21
270.54157959833339
 31
0.0
  0
LINE
  5
FFBBDAE469BC0168
  8
0
  6
CONTINUOUS
 10
129.34334832120919
 20
272.03220097699858
 30
0.0
 11
123.9203435885522
 21
270.54157959833339
 31
0.0
  0
LINE
  5
FFBBDAE469BC0169
  8
0
  6
CONTINUOUS
 10
145.32395336460749
 20
272.01835128625908
 30
0.0
 11
150.27451102366669
 21
270.51873959523698
 31
0.0
  0
LINE
  5
FFBBDAE469BC016A
  8
0
  6
CONTINUOUS
 10
259.80762113533092
 20
272.01835128625908
 30
0.0
 11
259.80762113533092
 21
270.51873959523698
 31
0.0
  0
LINE
  5
FFBBDAE469BC016B
  8
0
  6
CONTINUOUS
 10
-0.0000000000000028
 20
270.54157959833339
 30
0.0
 11
-0.000000000000003
 21
268.33274030418141
 31
0.0
  0
LINE
  5
FFBBDAE469BC016C
  8
0
  6
CONTINUOUS
 10
123.9203435885522
 20
270.54157959833339
 30
0.0
 11
118.5917017045057
 21
268.33274030418141
 31
0.0
  0
LINE
  5
FFBBDAE469BC016D
  8
0
  6
CONTINUOUS
 10
150.27451102366669
 20
270.51873959523698
 30
0.0
 11
154.90381056766489
 21
268.30127018922241
 31
0.0
  0
LINE
  5
FFBBDAE469BC016E
  8
0
  6
CONTINUOUS
 10
259.80762113533092
 20
270.51873959523698
 30
0.0
 11
259.80762113533092
 21
268.30127018922241
 31
0.0
  0
LINE
  5
FFBBDAE469BC016F
  8
0
  6
CONTINUOUS
 10
-0.000000000000003
 20
268.33274030418141
 30
0.0
 11
-0.0000000000000033
 21
265.44051780970818
 31
0.0
  0
LINE
  5
FFBBDAE469BC0170
  8
0
  6
CONTINUOUS
 10
118.5917017045057
 20
268.33274030418141
 30
0.0
 11
113.4414585347576
 21
265.44051780970818
 31
0.0
  0
LINE
  5
FFBBDAE469BC0171
  8
0
  6
CONTINUOUS
 10
-0.0000000000000033
 20
265.44051780970818
 30
0.0
 11
-0.0000000000000036
 21
261.91052419138151
 31
0.0
  0
LINE
  5
FFBBDAE469BC0172
  8
0
  6
CONTINUOUS
 10
113.4414585347576
 20
265.44051780970818
 30
0.0
 11
108.5508364907009
 21
261.91052419138151
 31
0.0
  0
LINE
  5
FFBBDAE469BC0173
  8
0
  6
CONTINUOUS
 10
-0.0000000000000036
 20
261.91052419138151
 30
0.0
 11
-0.000000000000004
 21
257.79842955727838
 31
0.0
  0
LINE
  5
FFBBDAE469BC0174
  8
0
  6
CONTINUOUS
 10
108.5508364907009
 20
261.91052419138151
 30
0.0
 11
103.99696360348641
 21
257.79842955727838
 31
0.0
  0
LINE
  5
FFBBDAE469BC0175
  8
0
  6
CONTINUOUS
 10
-0.000000000000004
 20
257.79842955727838
 30
0.0
 11
-0.0000000000000044
 21
253.16908409622479
 31
0.0
  0
LINE
  5
FFBBDAE469BC0176
  8
0
  6
CONTINUOUS
 10
103.99696360348641
 20
257.79842955727838
 30
0.0
 11
99.851657168897376
 21
253.16908409622479
 31
0.0
  0
LINE
  5
FFBBDAE469BC0177
  8
0
  6
CONTINUOUS
 10
-0.0000000000000044
 20
253.16908409622479
 30
0.0
 11
-0.0000000000000049
 21
248.09549535157851
 31
0.0
  0
LINE
  5
FFBBDAE469BC0178
  8
0
  6
CONTINUOUS
 10
99.851657168897376
 20
253.16908409622479
 30
0.0
 11
96.180291145693133
 21
248.09549535157851
 31
0.0
  0
LINE
  5
FFBBDAE469BC0179
  8
0
  6
CONTINUOUS
 10
-0.0000000000000049
 20
248.09549535157851
 30
0.0
 11
-0.0000000000000054
 21
242.6576768486577
 31
0.0
  0
LINE
  5
FFBBDAE469BC017A
  8
0
  6
CONTINUOUS
 10
96.180291145693133
 20
248.09549535157851
 30
0.0
 11
93.040765169227456
 21
242.6576768486577
 31
0.0
  0
LINE
  5
FFBBDAE469BC017B
  8
0
  6
CONTINUOUS
 10
-0.0000000000000054
 20
242.6576768486577
 30
0.0
 11
-0.000000000000006
 21
236.9413862336487
 31
0.0
  0
LINE
  5
FFBBDAE469BC017C
  8
0
  6
CONTINUOUS
 10
93.040765169227456
 20
242.6576768486577
 30
0.0
 11
90.482591439611127
 21
236.9413862336487
 31
0.0
  0
LINE
  5
FFBBDAE469BC017D
  8
0
  6
CONTINUOUS
 10
-0.000000000000006
 20
236.9413862336487
 30
0.0
 11
-0.0000000000000065
 21
231.03677282429661
 31
0.0
  0
LINE
  5
FFBBDAE469BC017E
  8
0
  6
CONTINUOUS
 10
90.482591439611127
 20
236.9413862336487
 30
0.0
 11
88.546113884739114
 21
231.03677282429661
 31
0.0
  0
LINE
  5
FFBBDAE469BC017F
  8
0
  6
CONTINUOUS
 10
-0.0000000000000065
 20
231.03677282429661
 30
0.0
 11
-0.0000000000000071
 21
225.0369559013121
 31
0.0
  0
LINE
  5
FFBBDAE469BC0180
  8
0
  6
CONTINUOUS
 10
88.546113884739114
 20
231.03677282429661
 30
0.0
 11
87.261871912447305
 21
225.0369559013121
 31
0.0
  0
LINE
  5
FFBBDAE469BC0181
  8
0
  6
CONTINUOUS
 10
-0.0000000000000071
 20
225.0369559013121
 30
0.0
 11
-0.0000000000000077
 21
219.03655616168751
 31
0.0
  0
LINE
  5
FFBBDAE469BC0182
  8
0
  6
CONTINUOUS
 10
87.261871912447305
 20
225.0369559013121
 30
0.0
 11
86.650118785807791
 21
219.03655616168751
 31
0.0
  0
LINE
  5
FFBBDAE469BC0183
  8
0
  6
CONTINUOUS
 10
259.80762113533092
 20
213.13020349378169
 30
0.0
 11
259.80762113533092
 21
207.73502691896289
 31
0.0
  0
LINE
  5
FFBBDAE469BC0184
  8
0
  6
CONTINUOUS
 10
259.80762113533092
 20
207.73502691896289
 30
0.0
 11
250.4629011919393
 21
213.13020349378169
 31
0.0
  0
LINE
  5
FFBBDAE469BC0185
  8
0
  6
CONTINUOUS
 10
154.90381056766489
 20
268.30127018922241
 30
0.0
 11
250.4629011919393
 21
213.13020349378169
 31
0.0
  0
LINE
  5
FFBBDAE469BC0186
  8
0
  6
CONTINUOUS
 10
259.80762113533092
 20
268.30127018922241
 30
0.0
 11
259.80762113533092
 21
213.13020349378169
 31
0.0
  0
LINE
  5
FFBBDAE469BC0187
  8
0
  6
CONTINUOUS
 10
-0.0000000000000077
 20
219.03655616168751
 30
0.0
 11
-0.0000000000000082
 21
213.13020349378169
 31
0.0
  0
LINE
  5
FFBBDAE469BC0188
  8
0
  6
CONTINUOUS
 10
86.650118785807791
 20
219.03655616168751
 30
0.0
 11
86.720502217071243
 21
213.13020349378169
 31
0.0
  0
LINE
  5
FFBBDAE469BC0189
  8
0
  6
CONTINUOUS
 10
-0.0000000000000082
 20
213.13020349378169
 30
0.0
 11
-0.0000000000000088
 21
207.4110446074518
 31
0.0
  0
LINE
  5
FFBBDAE469BC018A
  8
0
  6
CONTINUOUS
 10
86.720502217071243
 20
213.13020349378169
 30
0.0
 11
87.471912217481616
 21
207.4110446074518
 31
0.0
  0
LINE
  5
FFBBDAE469BC018B
  8
0
  6
CONTINUOUS
 10
-0.0000000000000088
 20
207.4110446074518
 30
0.0
 11
-0.0000000000000093
 21
201.96927405479491
 31
0.0
  0
LINE
  5
FFBBDAE469BC018C
  8
0
  6
CONTINUOUS
 10
87.471912217481616
 20
207.4110446074518
 30
0.0
 11
88.892498602461856
 21
201.96927405479491
 31
0.0
  0
LINE
  5
FFBBDAE469BC018D
  8
0
  6
CONTINUOUS
 10
-0.0000000000000093
 20
201.96927405479491
 30
0.0
 11
-0.0000000000000098
 21
196.89071180818269
 31
0.0
  0
LINE
  5
FFBBDAE469BC018E
  8
0
  6
CONTINUOUS
 10
88.892498602461856
 20
201.96927405479491
 30
0.0
 11
90.959857876103655
 21
196.89071180818269
 31
0.0
  0
LINE
  5
FFBBDAE469BC018F
  8
0
  6
CONTINUOUS
 10
-0.0000000000000098
 20
196.89071180818269
 30
0.0
 11
-0.0000000000000102
 21
192.25544982803029
 31
0.0
  0
LINE
  5
FFBBDAE469BC0190
  8
0
  6
CONTINUOUS
 10
90.959857876103655
 20
196.89071180818269
 30
0.0
 11
93.641386547681122
 21
192.25544982803029
 31
0.0
  0
LINE
  5
FFBBDAE469BC0191
  8
0
  6
CONTINUOUS
 10
-0.0000000000000102
 20
192.25544982803029
 30
0.0
 11
-0.0000000000000106
 21
188.13658896473601
 31
0.0
  0
LINE
  5
FFBBDAE469BC0192
  8
0
  6
CONTINUOUS
 10
93.641386547681122
 20
192.25544982803029
 30
0.0
 11
96.894795308175915
 21
188.13658896473601
 31
0.0
  0
LINE
  5
FFBBDAE469BC0193
  8
0
  6
CONTINUOUS
 10
-0.0000000000000106
 20
188.13658896473601
 30
0.0
 11
-0.0000000000000109
 21
184.59908611460219
 31
0.0
  0
LINE
  5
FFBBDAE469BC0194
  8
0
  6
CONTINUOUS
 10
96.894795308175915
 20
188.13658896473601
 30
0.0
 11
100.6687759579428
 21
184.59908611460219
 31
0.0
  0
LINE
  5
FFBBDAE469BC0195
  8
0
  6
CONTINUOUS
 10
-0.0000000000000109
 20
184.59908611460219
 30
0.0
 11
-0.0000000000000112
 21
181.69872981077719
 31
0.0
  0
LINE
  5
FFBBDAE469BC0196
  8
0
  6
CONTINUOUS
 10
100.6687759579428
 20
184.59908611460219
 30
0.0
 11
104.9038105676682
 21
181.69872981077719
 31
0.0
  0
LINE
  5
FFBBDAE469BC0197
  8
0
  6
CONTINUOUS
 10
209.80762113533271
 20
121.1324865405181
 30
0.0
 11
-0.0000000000000284
 21
-0.0000000000016485
 31
0.0
  0
LINE
  5
FFBBDAE469BC0198
  8
0
  6
CONTINUOUS
 10
-0.0000000000000284
 20
-0.0000000000016485
 30
0.0
 11
-0.0000000000000169
 21
121.1324865405181
 31
0.0
  0
LINE
  5
FFBBDAE469BC0199
  8
0
  6
CONTINUOUS
 10
-0.0000000000000112
 20
181.69872981077719
 30
0.0
 11
-0.0000000000000169
 21
121.1324865405181
 31
0.0
  0
LINE
  5
FFBBDAE469BC019A
  8
0
  6
CONTINUOUS
 10
104.9038105676682
 20
181.69872981077719
 30
0.0
 11
209.80762113533271
 21
121.1324865405181
 31
0.0
  0
ENDBLK
  5
FFBBDAE469BC019C
  8
0
  0
BLOCK
  8
0
  2
*U8
 70
     1
 10
0.0
 20
0.0
 30
0.0
  3
*U8
  1

  0
TEXT
  5
FFBBDAE469BC019E
  8
DEFPOINTS
  6
CONTINUOUS
 10
96.436987282228856
 20
-487.56639660383269
 30
0.0
 40
20.0
  1
Cavity Pipe Penetration
  7
ARIAL
  0
ENDBLK
  5
FFBBDAE469BC01A0
  8
0
  0
BLOCK
  8
0
  2
*U9
 70
     1
 10
0.0
 20
0.0
 30
0.0
  3
*U9
  1

  0
SOLID
  5
FFBBDAE469BC01A2
  8
0
  6
CONTINUOUS
 10
224.96086119548721
 20
271.5664493388249
 30
0.0
 11
206.7561582730041
 21
272.82692206924548
 31
0.0
 12
224.3856251663002
 22
277.53881097478808
 32
0.0
 13
224.3856251663002
 23
277.53881097478808
 33
0.0
  0
POLYLINE
  8
0
  5
7FFFFFFF
  66
     1
 10
0.000000
 20
0.000000
 30
0.000000
  70
     8
  0
VERTEX
  8
0
  5
80000000
 10
224.673
 20
274.553
 30
0.000000
  70
    32
  0
VERTEX
  8
0
  5
80000001
 10
226.453
 20
274.725
 30
0.000000
  70
    32
  0
VERTEX
  8
0
  5
80000002
 10
228.233
 20
274.901
 30
0.000000
  70
    32
  0
VERTEX
  8
0
  5
80000003
 10
230.012
 20
275.079
 30
0.000000
  70
    32
  0
VERTEX
  8
0
  5
80000004
 10
231.791
 20
275.259
 30
0.000000
  70
    32
  0
VERTEX
  8
0
  5
80000005
 10
233.570
 20
275.442
 30
0.000000
  70
    32
  0
VERTEX
  8
0
  5
80000006
 10
235.350
 20
275.627
 30
0.000000
  70
    32
  0
VERTEX
  8
0
  5
80000007
 10
237.129
 20
275.815
 30
0.000000
  70
    32
  0
VERTEX
  8
0
  5
80000008
 10
238.907
 20
276.005
 30
0.000000
  70
    32
  0
VERTEX
  8
0
  5
80000009
 10
240.686
 20
276.197
 30
0.000000
  70
    32
  0
VERTEX
  8
0
  5
8000000A
 10
242.465
 20
276.391
 30
0.000000
  70
    32
  0
VERTEX
  8
0
  5
8000000B
 10
244.243
 20
276.587
 30
0.000000
  70
    32
  0
VERTEX
  8
0
  5
8000000C
 10
246.022
 20
276.786
 30
0.000000
  70
    32
  0
VERTEX
  8
0
  5
8000000D
 10
247.800
 20
276.986
 30
0.000000
  70
    32
  0
VERTEX
  8
0
  5
8000000E
 10
249.579
 20
277.188
 30
0.000000
  70
    32
  0
VERTEX
  8
0
  5
8000000F
 10
251.357
 20
277.392
 30
0.000000
  70
    32
  0
VERTEX
  8
0
  5
80000010
 10
253.135
 20
277.597
 30
0.000000
  70
    32
  0
VERTEX
  8
0
  5
80000011
 10
254.913
 20
277.805
 30
0.000000
  70
    32
  0
VERTEX
  8
0
  5
80000012
 10
256.691
 20
278.014
 30
0.000000
  70
    32
  0
VERTEX
  8
0
  5
80000013
 10
258.469
 20
278.224
 30
0.000000
  70
    32
  0
VERTEX
  8
0
  5
80000014
 10
260.247
 20
278.436
 30
0.000000
  70
    32
  0
VERTEX
  8
0
  5
80000015
 10
262.024
 20
278.649
 30
0.000000
  70
    32
  0
VERTEX
  8
0
  5
80000016
 10
263.802
 20
278.864
 30
0.000000
  70
    32
  0
VERTEX
  8
0
  5
80000017
 10
265.580
 20
279.080
 30
0.000000
  70
    32
  0
VERTEX
  8
0
  5
80000018
 10
267.357
 20
279.297
 30
0.000000
  70
    32
  0
VERTEX
  8
0
  5
80000019
 10
269.135
 20
279.516
 30
0.000000
  70
    32
  0
VERTEX
  8
0
  5
8000001A
 10
270.912
 20
279.735
 30
0.000000
  70
    32
  0
VERTEX
  8
0
  5
8000001B
 10
272.689
 20
279.956
 30
0.000000
  70
    32
  0
VERTEX
  8
0
  5
8000001C
 10
274.467
 20
280.177
 30
0.000000
  70
    32
  0
VERTEX
  8
0
  5
8000001D
 10
276.244
 20
280.400
 30
0.000000
  70
    32
  0
VERTEX
  8
0
  5
8000001E
 10
278.021
 20
280.623
 30
0.000000
  70
    32
  0
VERTEX
  8
0
  5
8000001F
 10
279.799
 20
280.847
 30
0.000000
  70
    32
  0
VERTEX
  8
0
  5
80000020
 10
281.576
 20
281.072
 30
0.000000
  70
    32
  0
VERTEX
  8
0
  5
80000021
 10
283.353
 20
281.297
 30
0.000000
  70
    32
  0
VERTEX
  8
0
  5
80000022
 10
285.130
 20
281.523
 30
0.000000
  70
    32
  0
VERTEX
  8
0
  5
80000023
 10
286.907
 20
281.750
 30
0.000000
  70
    32
  0
VERTEX
  8
0
  5
80000024
 10
288.684
 20
281.977
 30
0.000000
  70
    32
  0
VERTEX
  8
0
  5
80000025
 10
290.461
 20
282.205
 30
0.000000
  70
    32
  0
VERTEX
  8
0
  5
80000026
 10
292.238
 20
282.432
 30
0.000000
  70
    32
  0
VERTEX
  8
0
  5
80000027
 10
294.015
 20
282.661
 30
0.000000
  70
    32
  0
VERTEX
  8
0
  5
80000028
 10
295.792
 20
282.889
 30
0.000000
  70
    32
  0
VERTEX
  8
0
  5
80000029
 10
297.569
 20
283.117
 30
0.000000
  70
    32
  0
VERTEX
  8
0
  5
8000002A
 10
299.346
 20
283.346
 30
0.000000
  70
    32
  0
VERTEX
  8
0
  5
8000002B
 10
301.123
 20
283.574
 30
0.000000
  70
    32
  0
VERTEX
  8
0
  5
8000002C
 10
302.900
 20
283.803
 30
0.000000
  70
    32
  0
VERTEX
  8
0
  5
8000002D
 10
304.677
 20
284.031
 30
0.000000
  70
    32
  0
VERTEX
  8
0
  5
8000002E
 10
306.455
 20
284.260
 30
0.000000
  70
    32
  0
VERTEX
  8
0
  5
8000002F
 10
308.232
 20
284.488
 30
0.000000
  70
    32
  0
VERTEX
  8
0
  5
80000030
 10
310.009
 20
284.715
 30
0.000000
  70
    32
  0
VERTEX
  8
0
  5
80000031
 10
311.786
 20
284.943
 30
0.000000
  70
    32
  0
VERTEX
  8
0
  5
80000032
 10
313.563
 20
285.170
 30
0.000000
  70
    32
  0
VERTEX
  8
0
  5
80000033
 10
315.340
 20
285.396
 30
0.000000
  70
    32
  0
VERTEX
  8
0
  5
80000034
 10
317.117
 20
285.622
 30
0.000000
  70
    32
  0
VERTEX
  8
0
  5
80000035
 10
318.894
 20
285.847
 30
0.000000
  70
    32
  0
VERTEX
  8
0
  5
80000036
 10
320.671
 20
286.072
 30
0.000000
  70
    32
  0
VERTEX
  8
0
  5
80000037
 10
322.449
 20
286.295
 30
0.000000
  70
    32
  0
VERTEX
  8
0
  5
80000038
 10
324.226
 20
286.519
 30
0.000000
  70
    32
  0
VERTEX
  8
0
  5
80000039
 10
326.003
 20
286.741
 30
0.000000
  70
    32
  0
VERTEX
  8
0
  5
8000003A
 10
327.781
 20
286.962
 30
0.000000
  70
    32
  0
VERTEX
  8
0
  5
8000003B
 10
329.558
 20
287.182
 30
0.000000
  70
    32
  0
VERTEX
  8
0
  5
8000003C
 10
331.335
 20
287.401
 30
0.000000
  70
    32
  0
VERTEX
  8
0
  5
8000003D
 10
333.113
 20
287.619
 30
0.000000
  70
    32
  0
VERTEX
  8
0
  5
8000003E
 10
334.891
 20
287.836
 30
0.000000
  70
    32
  0
VERTEX
  8
0
  5
8000003F
 10
336.668
 20
288.052
 30
0.000000
  70
    32
  0
VERTEX
  8
0
  5
80000040
 10
338.446
 20
288.266
 30
0.000000
  70
    32
  0
VERTEX
  8
0
  5
80000041
 10
340.224
 20
288.479
 30
0.000000
  70
    32
  0
VERTEX
  8
0
  5
80000042
 10
342.001
 20
288.690
 30
0.000000
  70
    32
  0
VERTEX
  8
0
  5
80000043
 10
343.779
 20
288.900
 30
0.000000
  70
    32
  0
VERTEX
  8
0
  5
80000044
 10
345.557
 20
289.109
 30
0.000000
  70
    32
  0
VERTEX
  8
0
  5
80000045
 10
347.335
 20
289.315
 30
0.000000
  70
    32
  0
VERTEX
  8
0
  5
80000046
 10
349.114
 20
289.520
 30
0.000000
  70
    32
  0
VERTEX
  8
0
  5
80000047
 10
350.892
 20
289.724
 30
0.000000
  70
    32
  0
VERTEX
  8
0
  5
80000048
 10
352.670
 20
289.925
 30
0.000000
  70
    32
  0
VERTEX
  8
0
  5
80000049
 10
354.449
 20
290.125
 30
0.000000
  70
    32
  0
VERTEX
  8
0
  5
8000004A
 10
356.227
 20
290.322
 30
0.000000
  70
    32
  0
VERTEX
  8
0
  5
8000004B
 10
358.006
 20
290.518
 30
0.000000
  70
    32
  0
VERTEX
  8
0
  5
8000004C
 10
359.784
 20
290.711
 30
0.000000
  70
    32
  0
VERTEX
  8
0
  5
8000004D
 10
361.563
 20
290.903
 30
0.000000
  70
    32
  0
VERTEX
  8
0
  5
8000004E
 10
363.342
 20
291.092
 30
0.000000
  70
    32
  0
VERTEX
  8
0
  5
8000004F
 10
365.121
 20
291.279
 30
0.000000
  70
    32
  0
VERTEX
  8
0
  5
80000050
 10
366.900
 20
291.463
 30
0.000000
  70
    32
  0
VERTEX
  8
0
  5
80000051
 10
368.679
 20
291.645
 30
0.000000
  70
    32
  0
VERTEX
  8
0
  5
80000052
 10
370.459
 20
291.825
 30
0.000000
  70
    32
  0
VERTEX
  8
0
  5
80000053
 10
372.238
 20
292.002
 30
0.000000
  70
    32
  0
VERTEX
  8
0
  5
80000054
 10
374.018
 20
292.177
 30
0.000000
  70
    32
  0
VERTEX
  8
0
  5
80000055
 10
375.798
 20
292.348
 30
0.000000
  70
    32
  0
VERTEX
  8
0
  5
80000056
 10
377.577
 20
292.518
 30
0.000000
  70
    32
  0
VERTEX
  8
0
  5
80000057
 10
379.357
 20
292.684
 30
0.000000
  70
    32
  0
VERTEX
  8
0
  5
80000058
 10
381.138
 20
292.847
 30
0.000000
  70
    32
  0
VERTEX
  8
0
  5
80000059
 10
382.918
 20
293.008
 30
0.000000
  70
    32
  0
VERTEX
  8
0
  5
8000005A
 10
384.698
 20
293.166
 30
0.000000
  70
    32
  0
VERTEX
  8
0
  5
8000005B
 10
386.479
 20
293.320
 30
0.000000
  70
    32
  0
VERTEX
  8
0
  5
8000005C
 10
388.260
 20
293.472
 30
0.000000
  70
    32
  0
VERTEX
  8
0
  5
8000005D
 10
390.040
 20
293.620
 30
0.000000
  70
    32
  0
VERTEX
  8
0
  5
8000005E
 10
391.821
 20
293.765
 30
0.000000
  70
    32
  0
VERTEX
  8
0
  5
8000005F
 10
393.603
 20
293.907
 30
0.000000
  70
    32
  0
VERTEX
  8
0
  5
80000060
 10
395.384
 20
294.045
 30
0.000000
  70
    32
  0
VERTEX
  8
0
  5
80000061
 10
397.165
 20
294.180
 30
0.000000
  70
    32
  0
VERTEX
  8
0
  5
80000062
 10
398.947
 20
294.312
 30
0.000000
  70
    32
  0
VERTEX
  8
0
  5
80000063
 10
400.729
 20
294.440
 30
0.000000
  70
    32
  0
VERTEX
  8
0
  5
80000064
 10
402.511
 20
294.564
 30
0.000000
  70
    32
  0
VERTEX
  8
0
  5
80000065
 10
404.293
 20
294.685
 30
0.000000
  70
    32
  0
VERTEX
  8
0
  5
80000066
 10
406.076
 20
294.802
 30
0.000000
  70
    32
  0
VERTEX
  8
0
  5
80000067
 10
407.858
 20
294.915
 30
0.000000
  70
    32
  0
VERTEX
  8
0
  5
80000068
 10
409.641
 20
295.024
 30
0.000000
  70
    32
  0
VERTEX
  8
0
  5
80000069
 10
411.424
 20
295.130
 30
0.000000
  70
    32
  0
VERTEX
  8
0
  5
8000006A
 10
413.207
 20
295.231
 30
0.000000
  70
    32
  0
VERTEX
  8
0
  5
8000006B
 10
414.990
 20
295.328
 30
0.000000
  70
    32
  0
VERTEX
  8
0
  5
8000006C
 10
416.774
 20
295.421
 30
0.000000
  70
    32
  0
VERTEX
  8
0
  5
8000006D
 10
418.557
 20
295.510
 30
0.000000
  70
    32
  0
VERTEX
  8
0
  5
8000006E
 10
420.341
 20
295.595
 30
0.000000
  70
    32
  0
VERTEX
  8
0
  5
8000006F
 10
422.126
 20
295.675
 30
0.000000
  70
    32
  0
VERTEX
  8
0
  5
80000070
 10
423.910
 20
295.751
 30
0.000000
  70
    32
  0
VERTEX
  8
0
  5
80000071
 10
425.694
 20
295.823
 30
0.000000
  70
    32
  0
VERTEX
  8
0
  5
80000072
 10
427.479
 20
295.890
 30
0.000000
  70
    32
  0
VERTEX
  8
0
  5
80000073
 10
429.264
 20
295.953
 30
0.000000
  70
    32
  0
VERTEX
  8
0
  5
80000074
 10
431.049
 20
296.010
 30
0.000000
  70
    32
  0
VERTEX
  8
0
  5
80000075
 10
432.835
 20
296.064
 30
0.000000
  70
    32
  0
VERTEX
  8
0
  5
80000076
 10
434.620
 20
296.112
 30
0.000000
  70
    32
  0
VERTEX
  8
0
  5
80000077
 10
436.406
 20
296.156
 30
0.000000
  70
    32
  0
VERTEX
  8
0
  5
80000078
 10
438.193
 20
296.194
 30
0.000000
  70
    32
  0
VERTEX
  8
0
  5
80000079
 10
439.979
 20
296.228
 30
0.000000
  70
    32
  0
VERTEX
  8
0
  5
8000007A
 10
441.765
 20
296.257
 30
0.000000
  70
    32
  0
VERTEX
  8
0
  5
8000007B
 10
443.552
 20
296.280
 30
0.000000
  70
    32
  0
VERTEX
  8
0
  5
8000007C
 10
445.339
 20
296.299
 30
0.000000
  70
    32
  0
VERTEX
  8
0
  5
8000007D
 10
447.127
 20
296.312
 30
0.000000
  70
    32
  0
VERTEX
  8
0
  5
8000007E
 10
448.914
 20
296.320
 30
0.000000
  70
    32
  0
VERTEX
  8
0
  5
8000007F
 10
450.702
 20
296.323
 30
0.000000
  70
    32
  0
SEQEND
  8
0
  5
80000080
  0
ENDBLK
  5
FFBBDAE469BC01A5
  8
0
  0
BLOCK
  8
0
  2
*U10
 70
     1
 10
0.0
 20
0.0
 30
0.0
  3
*U10
  1

  0
TEXT
  5
FFBBDAE469BC01A7
  8
0
  6
CONTINUOUS
 10
459.44716661568299
 20
339.43342531742343
 30
0.0
 40
20.0
  1
Square of flexible flashing
  7
ARIAL
  0
TEXT
  5
FFBBDAE469BC01A8
  8
0
  6
CONTINUOUS
 10
460.21115024460522
 20
305.75902786403549
 30
0.0
 40
20.0
  1
tape to a min of 100mm
  7
ARIAL
  0
TEXT
  5
FFBBDAE469BC01A9
  8
0
  6
CONTINUOUS
 10
459.77458817093537
 20
272.08463041064761
 30
0.0
 40
20.0
  1
outside of pipe, ensure
  7
ARIAL
  0
TEXT
  5
FFBBDAE469BC01AA
  8
0
  6
CONTINUOUS
 10
459.84280099494629
 20
238.75129707731429
 30
0.0
 40
20.0
  1
seal with pipe bandage
  7
ARIAL
  0
ENDBLK
  5
FFBBDAE469BC01AC
  8
0
  0
BLOCK
  8
0
  2
*U11
 70
     1
 10
0.0
 20
0.0
 30
0.0
  3
*U11
  1

  0
SOLID
  5
FFBBDAE469BC01AE
  8
0
  6
CONTINUOUS
 10
378.15094127440221
 20
107.0231036360681
 30
0.0
 11
360.10105795645183
 21
104.3395030308409
 31
0.0
 12
376.30491495281763
 22
112.73206035512089
 32
0.0
 13
376.30491495281763
 23
112.73206035512089
 33
0.0
  0
POLYLINE
  8
0
  5
80000081
  66
     1
 10
0.000000
 20
0.000000
 30
0.000000
  70
     8
  0
VERTEX
  8
0
  5
80000082
 10
377.228
 20
109.878
 30
0.000000
  70
    32
  0
VERTEX
  8
0
  5
80000083
 10
377.799
 20
110.064
 30
0.000000
  70
    32
  0
VERTEX
  8
0
  5
80000084
 10
378.370
 20
110.253
 30
0.000000
  70
    32
  0
VERTEX
  8
0
  5
80000085
 10
378.940
 20
110.445
 30
0.000000
  70
    32
  0
VERTEX
  8
0
  5
80000086
 10
379.510
 20
110.639
 30
0.000000
  70
    32
  0
VERTEX
  8
0
  5
80000087
 10
380.080
 20
110.836
 30
0.000000
  70
    32
  0
VERTEX
  8
0
  5
80000088
 10
380.649
 20
111.036
 30
0.000000
  70
    32
  0
VERTEX
  8
0
  5
80000089
 10
381.217
 20
111.238
 30
0.000000
  70
    32
  0
VERTEX
  8
0
  5
8000008A
 10
381.786
 20
111.443
 30
0.000000
  70
    32
  0
VERTEX
  8
0
  5
8000008B
 10
382.354
 20
111.650
 30
0.000000
  70
    32
  0
VERTEX
  8
0
  5
8000008C
 10
382.921
 20
111.859
 30
0.000000
  70
    32
  0
VERTEX
  8
0
  5
8000008D
 10
383.489
 20
112.071
 30
0.000000
  70
    32
  0
VERTEX
  8
0
  5
8000008E
 10
384.055
 20
112.285
 30
0.000000
  70
    32
  0
VERTEX
  8
0
  5
8000008F
 10
384.622
 20
112.500
 30
0.000000
  70
    32
  0
VERTEX
  8
0
  5
80000090
 10
385.188
 20
112.718
 30
0.000000
  70
    32
  0
VERTEX
  8
0
  5
80000091
 10
385.754
 20
112.938
 30
0.000000
  70
    32
  0
VERTEX
  8
0
  5
80000092
 10
386.320
 20
113.160
 30
0.000000
  70
    32
  0
VERTEX
  8
0
  5
80000093
 10
386.885
 20
113.383
 30
0.000000
  70
    32
  0
VERTEX
  8
0
  5
80000094
 10
387.450
 20
113.608
 30
0.000000
  70
    32
  0
VERTEX
  8
0
  5
80000095
 10
388.015
 20
113.835
 30
0.000000
  70
    32
  0
VERTEX
  8
0
  5
80000096
 10
388.580
 20
114.064
 30
0.000000
  70
    32
  0
VERTEX
  8
0
  5
80000097
 10
389.144
 20
114.294
 30
0.000000
  70
    32
  0
VERTEX
  8
0
  5
80000098
 10
389.708
 20
114.525
 30
0.000000
  70
    32
  0
VERTEX
  8
0
  5
80000099
 10
390.272
 20
114.758
 30
0.000000
  70
    32
  0
VERTEX
  8
0
  5
8000009A
 10
390.836
 20
114.992
 30
0.000000
  70
    32
  0
VERTEX
  8
0
  5
8000009B
 10
391.399
 20
115.227
 30
0.000000
  70
    32
  0
VERTEX
  8
0
  5
8000009C
 10
391.962
 20
115.464
 30
0.000000
  70
    32
  0
VERTEX
  8
0
  5
8000009D
 10
392.525
 20
115.702
 30
0.000000
  70
    32
  0
VERTEX
  8
0
  5
8000009E
 10
393.088
 20
115.941
 30
0.000000
  70
    32
  0
VERTEX
  8
0
  5
8000009F
 10
393.651
 20
116.180
 30
0.000000
  70
    32
  0
VERTEX
  8
0
  5
800000A0
 10
394.214
 20
116.421
 30
0.000000
  70
    32
  0
VERTEX
  8
0
  5
800000A1
 10
394.776
 20
116.663
 30
0.000000
  70
    32
  0
VERTEX
  8
0
  5
800000A2
 10
395.339
 20
116.905
 30
0.000000
  70
    32
  0
VERTEX
  8
0
  5
800000A3
 10
395.901
 20
117.148
 30
0.000000
  70
    32
  0
VERTEX
  8
0
  5
800000A4
 10
396.463
 20
117.392
 30
0.000000
  70
    32
  0
VERTEX
  8
0
  5
800000A5
 10
397.025
 20
117.636
 30
0.000000
  70
    32
  0
VERTEX
  8
0
  5
800000A6
 10
397.587
 20
117.881
 30
0.000000
  70
    32
  0
VERTEX
  8
0
  5
800000A7
 10
398.149
 20
118.126
 30
0.000000
  70
    32
  0
VERTEX
  8
0
  5
800000A8
 10
398.711
 20
118.372
 30
0.000000
  70
    32
  0
VERTEX
  8
0
  5
800000A9
 10
399.273
 20
118.617
 30
0.000000
  70
    32
  0
VERTEX
  8
0
  5
800000AA
 10
399.834
 20
118.864
 30
0.000000
  70
    32
  0
VERTEX
  8
0
  5
800000AB
 10
400.396
 20
119.110
 30
0.000000
  70
    32
  0
VERTEX
  8
0
  5
800000AC
 10
400.958
 20
119.356
 30
0.000000
  70
    32
  0
VERTEX
  8
0
  5
800000AD
 10
401.520
 20
119.603
 30
0.000000
  70
    32
  0
VERTEX
  8
0
  5
800000AE
 10
402.081
 20
119.849
 30
0.000000
  70
    32
  0
VERTEX
  8
0
  5
800000AF
 10
402.643
 20
120.095
 30
0.000000
  70
    32
  0
VERTEX
  8
0
  5
800000B0
 10
403.205
 20
120.341
 30
0.000000
  70
    32
  0
VERTEX
  8
0
  5
800000B1
 10
403.767
 20
120.587
 30
0.000000
  70
    32
  0
VERTEX
  8
0
  5
800000B2
 10
404.329
 20
120.832
 30
0.000000
  70
    32
  0
VERTEX
  8
0
  5
800000B3
 10
404.891
 20
121.077
 30
0.000000
  70
    32
  0
VERTEX
  8
0
  5
800000B4
 10
405.453
 20
121.322
 30
0.000000
  70
    32
  0
VERTEX
  8
0
  5
800000B5
 10
406.015
 20
121.566
 30
0.000000
  70
    32
  0
VERTEX
  8
0
  5
800000B6
 10
406.577
 20
121.810
 30
0.000000
  70
    32
  0
VERTEX
  8
0
  5
800000B7
 10
407.139
 20
122.052
 30
0.000000
  70
    32
  0
VERTEX
  8
0
  5
800000B8
 10
407.702
 20
122.294
 30
0.000000
  70
    32
  0
VERTEX
  8
0
  5
800000B9
 10
408.264
 20
122.536
 30
0.000000
  70
    32
  0
VERTEX
  8
0
  5
800000BA
 10
408.827
 20
122.776
 30
0.000000
  70
    32
  0
VERTEX
  8
0
  5
800000BB
 10
409.390
 20
123.016
 30
0.000000
  70
    32
  0
VERTEX
  8
0
  5
800000BC
 10
409.953
 20
123.254
 30
0.000000
  70
    32
  0
VERTEX
  8
0
  5
800000BD
 10
410.516
 20
123.492
 30
0.000000
  70
    32
  0
VERTEX
  8
0
  5
800000BE
 10
411.079
 20
123.728
 30
0.000000
  70
    32
  0
VERTEX
  8
0
  5
800000BF
 10
411.643
 20
123.963
 30
0.000000
  70
    32
  0
VERTEX
  8
0
  5
800000C0
 10
412.206
 20
124.197
 30
0.000000
  70
    32
  0
VERTEX
  8
0
  5
800000C1
 10
412.770
 20
124.429
 30
0.000000
  70
    32
  0
VERTEX
  8
0
  5
800000C2
 10
413.335
 20
124.660
 30
0.000000
  70
    32
  0
VERTEX
  8
0
  5
800000C3
 10
413.899
 20
124.889
 30
0.000000
  70
    32
  0
VERTEX
  8
0
  5
800000C4
 10
414.464
 20
125.117
 30
0.000000
  70
    32
  0
VERTEX
  8
0
  5
800000C5
 10
415.028
 20
125.344
 30
0.000000
  70
    32
  0
VERTEX
  8
0
  5
800000C6
 10
415.594
 20
125.568
 30
0.000000
  70
    32
  0
VERTEX
  8
0
  5
800000C7
 10
416.159
 20
125.791
 30
0.000000
  70
    32
  0
VERTEX
  8
0
  5
800000C8
 10
416.725
 20
126.012
 30
0.000000
  70
    32
  0
VERTEX
  8
0
  5
800000C9
 10
417.291
 20
126.231
 30
0.000000
  70
    32
  0
VERTEX
  8
0
  5
800000CA
 10
417.857
 20
126.448
 30
0.000000
  70
    32
  0
VERTEX
  8
0
  5
800000CB
 10
418.424
 20
126.663
 30
0.000000
  70
    32
  0
VERTEX
  8
0
  5
800000CC
 10
418.991
 20
126.876
 30
0.000000
  70
    32
  0
VERTEX
  8
0
  5
800000CD
 10
419.558
 20
127.087
 30
0.000000
  70
    32
  0
VERTEX
  8
0
  5
800000CE
 10
420.126
 20
127.296
 30
0.000000
  70
    32
  0
VERTEX
  8
0
  5
800000CF
 10
420.694
 20
127.502
 30
0.000000
  70
    32
  0
VERTEX
  8
0
  5
800000D0
 10
421.262
 20
127.706
 30
0.000000
  70
    32
  0
VERTEX
  8
0
  5
800000D1
 10
421.831
 20
127.907
 30
0.000000
  70
    32
  0
VERTEX
  8
0
  5
800000D2
 10
422.400
 20
128.106
 30
0.000000
  70
    32
  0
VERTEX
  8
0
  5
800000D3
 10
422.970
 20
128.303
 30
0.000000
  70
    32
  0
VERTEX
  8
0
  5
800000D4
 10
423.540
 20
128.496
 30
0.000000
  70
    32
  0
VERTEX
  8
0
  5
800000D5
 10
424.111
 20
128.687
 30
0.000000
  70
    32
  0
VERTEX
  8
0
  5
800000D6
 10
424.682
 20
128.875
 30
0.000000
  70
    32
  0
VERTEX
  8
0
  5
800000D7
 10
425.253
 20
129.060
 30
0.000000
  70
    32
  0
VERTEX
  8
0
  5
800000D8
 10
425.825
 20
129.243
 30
0.000000
  70
    32
  0
VERTEX
  8
0
  5
800000D9
 10
426.397
 20
129.422
 30
0.000000
  70
    32
  0
VERTEX
  8
0
  5
800000DA
 10
426.970
 20
129.598
 30
0.000000
  70
    32
  0
VERTEX
  8
0
  5
800000DB
 10
427.543
 20
129.771
 30
0.000000
  70
    32
  0
VERTEX
  8
0
  5
800000DC
 10
428.117
 20
129.941
 30
0.000000
  70
    32
  0
VERTEX
  8
0
  5
800000DD
 10
428.691
 20
130.108
 30
0.000000
  70
    32
  0
VERTEX
  8
0
  5
800000DE
 10
429.266
 20
130.271
 30
0.000000
  70
    32
  0
VERTEX
  8
0
  5
800000DF
 10
429.841
 20
130.431
 30
0.000000
  70
    32
  0
VERTEX
  8
0
  5
800000E0
 10
430.417
 20
130.588
 30
0.000000
  70
    32
  0
VERTEX
  8
0
  5
800000E1
 10
430.994
 20
130.740
 30
0.000000
  70
    32
  0
VERTEX
  8
0
  5
800000E2
 10
431.571
 20
130.890
 30
0.000000
  70
    32
  0
VERTEX
  8
0
  5
800000E3
 10
432.149
 20
131.035
 30
0.000000
  70
    32
  0
VERTEX
  8
0
  5
800000E4
 10
432.727
 20
131.177
 30
0.000000
  70
    32
  0
VERTEX
  8
0
  5
800000E5
 10
433.306
 20
131.315
 30
0.000000
  70
    32
  0
VERTEX
  8
0
  5
800000E6
 10
433.885
 20
131.449
 30
0.000000
  70
    32
  0
VERTEX
  8
0
  5
800000E7
 10
434.465
 20
131.579
 30
0.000000
  70
    32
  0
VERTEX
  8
0
  5
800000E8
 10
435.046
 20
131.705
 30
0.000000
  70
    32
  0
VERTEX
  8
0
  5
800000E9
 10
435.627
 20
131.827
 30
0.000000
  70
    32
  0
VERTEX
  8
0
  5
800000EA
 10
436.209
 20
131.945
 30
0.000000
  70
    32
  0
VERTEX
  8
0
  5
800000EB
 10
436.792
 20
132.058
 30
0.000000
  70
    32
  0
VERTEX
  8
0
  5
800000EC
 10
437.375
 20
132.168
 30
0.000000
  70
    32
  0
VERTEX
  8
0
  5
800000ED
 10
437.959
 20
132.272
 30
0.000000
  70
    32
  0
VERTEX
  8
0
  5
800000EE
 10
438.544
 20
132.373
 30
0.000000
  70
    32
  0
VERTEX
  8
0
  5
800000EF
 10
439.130
 20
132.469
 30
0.000000
  70
    32
  0
VERTEX
  8
0
  5
800000F0
 10
439.716
 20
132.560
 30
0.000000
  70
    32
  0
VERTEX
  8
0
  5
800000F1
 10
440.303
 20
132.647
 30
0.000000
  70
    32
  0
VERTEX
  8
0
  5
800000F2
 10
440.890
 20
132.729
 30
0.000000
  70
    32
  0
VERTEX
  8
0
  5
800000F3
 10
441.479
 20
132.806
 30
0.000000
  70
    32
  0
VERTEX
  8
0
  5
800000F4
 10
442.068
 20
132.878
 30
0.000000
  70
    32
  0
VERTEX
  8
0
  5
800000F5
 10
442.658
 20
132.946
 30
0.000000
  70
    32
  0
VERTEX
  8
0
  5
800000F6
 10
443.249
 20
133.008
 30
0.000000
  70
    32
  0
VERTEX
  8
0
  5
800000F7
 10
443.840
 20
133.065
 30
0.000000
  70
    32
  0
VERTEX
  8
0
  5
800000F8
 10
444.432
 20
133.117
 30
0.000000
  70
    32
  0
VERTEX
  8
0
  5
800000F9
 10
445.026
 20
133.164
 30
0.000000
  70
    32
  0
VERTEX
  8
0
  5
800000FA
 10
445.620
 20
133.206
 30
0.000000
  70
    32
  0
VERTEX
  8
0
  5
800000FB
 10
446.215
 20
133.243
 30
0.000000
  70
    32
  0
VERTEX
  8
0
  5
800000FC
 10
446.810
 20
133.273
 30
0.000000
  70
    32
  0
VERTEX
  8
0
  5
800000FD
 10
447.407
 20
133.299
 30
0.000000
  70
    32
  0
VERTEX
  8
0
  5
800000FE
 10
448.004
 20
133.319
 30
0.000000
  70
    32
  0
VERTEX
  8
0
  5
800000FF
 10
448.603
 20
133.333
 30
0.000000
  70
    32
  0
VERTEX
  8
0
  5
80000100
 10
449.202
 20
133.342
 30
0.000000
  70
    32
  0
VERTEX
  8
0
  5
80000101
 10
449.802
 20
133.345
 30
0.000000
  70
    32
  0
SEQEND
  8
0
  5
80000102
  0
ENDBLK
  5
FFBBDAE469BC01B1
  8
0
  0
BLOCK
  8
0
  2
*U12
 70
     1
 10
0.0
 20
0.0
 30
0.0
  3
*U12
  1

  0
TEXT
  5
FFBBDAE469BC01B3
  8
0
  6
CONTINUOUS
 10
457.64634806179441
 20
140.00465960272689
 30
0.0
 40
20.0
  1
Pipe to have min 5° fall
  7
ARIAL
  0
TEXT
  5
FFBBDAE469BC01B4
  8
0
  6
CONTINUOUS
 10
459.31074096766059
 20
106.6713262693935
 30
0.0
 40
20.0
  1
to outside
  7
ARIAL
  0
ENDBLK
  5
FFBBDAE469BC01B6
  8
0
  0
BLOCK
  8
0
  2
*U13
 70
     1
 10
0.0
 20
0.0
 30
0.0
  3
*U13
  1

  0
SOLID
  5
FFBBDAE469BC01B8
  8
0
  6
CONTINUOUS
 10
118.0098329764525
 20
169.00100652585499
 30
0.0
 11
104.9038105676682
 21
181.69872981077671
 31
0.0
 12
121.41957985757389
 22
173.93797180896999
 32
0.0
 13
121.41957985757389
 23
173.93797180896999
 33
0.0
  0
POLYLINE
  8
0
  5
80000103
  66
     1
 10
0.000000
 20
0.000000
 30
0.000000
  70
     8
  0
VERTEX
  8
0
  5
80000104
 10
119.715
 20
171.469
 30
0.000000
  70
    32
  0
VERTEX
  8
0
  5
80000105
 10
122.308
 20
169.661
 30
0.000000
  70
    32
  0
VERTEX
  8
0
  5
80000106
 10
124.893
 20
167.825
 30
0.000000
  70
    32
  0
VERTEX
  8
0
  5
80000107
 10
127.470
 20
165.962
 30
0.000000
  70
    32
  0
VERTEX
  8
0
  5
80000108
 10
130.039
 20
164.073
 30
0.000000
  70
    32
  0
VERTEX
  8
0
  5
80000109
 10
132.599
 20
162.158
 30
0.000000
  70
    32
  0
VERTEX
  8
0
  5
8000010A
 10
135.152
 20
160.219
 30
0.000000
  70
    32
  0
VERTEX
  8
0
  5
8000010B
 10
137.697
 20
158.255
 30
0.000000
  70
    32
  0
VERTEX
  8
0
  5
8000010C
 10
140.235
 20
156.267
 30
0.000000
  70
    32
  0
VERTEX
  8
0
  5
8000010D
 10
142.766
 20
154.257
 30
0.000000
  70
    32
  0
VERTEX
  8
0
  5
8000010E
 10
145.289
 20
152.224
 30
0.000000
  70
    32
  0
VERTEX
  8
0
  5
8000010F
 10
147.806
 20
150.170
 30
0.000000
  70
    32
  0
VERTEX
  8
0
  5
80000110
 10
150.317
 20
148.095
 30
0.000000
  70
    32
  0
VERTEX
  8
0
  5
80000111
 10
152.821
 20
146.000
 30
0.000000
  70
    32
  0
VERTEX
  8
0
  5
80000112
 10
155.319
 20
143.885
 30
0.000000
  70
    32
  0
VERTEX
  8
0
  5
80000113
 10
157.811
 20
141.751
 30
0.000000
  70
    32
  0
VERTEX
  8
0
  5
80000114
 10
160.298
 20
139.599
 30
0.000000
  70
    32
  0
VERTEX
  8
0
  5
80000115
 10
162.779
 20
137.429
 30
0.000000
  70
    32
  0
VERTEX
  8
0
  5
80000116
 10
165.254
 20
135.242
 30
0.000000
  70
    32
  0
VERTEX
  8
0
  5
80000117
 10
167.725
 20
133.039
 30
0.000000
  70
    32
  0
VERTEX
  8
0
  5
80000118
 10
170.191
 20
130.821
 30
0.000000
  70
    32
  0
VERTEX
  8
0
  5
80000119
 10
172.652
 20
128.588
 30
0.000000
  70
    32
  0
VERTEX
  8
0
  5
8000011A
 10
175.109
 20
126.340
 30
0.000000
  70
    32
  0
VERTEX
  8
0
  5
8000011B
 10
177.561
 20
124.079
 30
0.000000
  70
    32
  0
VERTEX
  8
0
  5
8000011C
 10
180.010
 20
121.805
 30
0.000000
  70
    32
  0
VERTEX
  8
0
  5
8000011D
 10
182.455
 20
119.519
 30
0.000000
  70
    32
  0
VERTEX
  8
0
  5
8000011E
 10
184.896
 20
117.221
 30
0.000000
  70
    32
  0
VERTEX
  8
0
  5
8000011F
 10
187.333
 20
114.912
 30
0.000000
  70
    32
  0
VERTEX
  8
0
  5
80000120
 10
189.768
 20
112.593
 30
0.000000
  70
    32
  0
VERTEX
  8
0
  5
80000121
 10
192.199
 20
110.264
 30
0.000000
  70
    32
  0
VERTEX
  8
0
  5
80000122
 10
194.628
 20
107.927
 30
0.000000
  70
    32
  0
VERTEX
  8
0
  5
80000123
 10
197.054
 20
105.581
 30
0.000000
  70
    32
  0
VERTEX
  8
0
  5
80000124
 10
199.478
 20
103.228
 30
0.000000
  70
    32
  0
VERTEX
  8
0
  5
80000125
 10
201.900
 20
100.868
 30
0.000000
  70
    32
  0
VERTEX
  8
0
  5
80000126
 10
204.319
 20
98.5013
 30
0.000000
  70
    32
  0
VERTEX
  8
0
  5
80000127
 10
206.737
 20
96.1293
 30
0.000000
  70
    32
  0
VERTEX
  8
0
  5
80000128
 10
209.154
 20
93.7525
 30
0.000000
  70
    32
  0
VERTEX
  8
0
  5
80000129
 10
211.569
 20
91.3714
 30
0.000000
  70
    32
  0
VERTEX
  8
0
  5
8000012A
 10
213.983
 20
88.9867
 30
0.000000
  70
    32
  0
VERTEX
  8
0
  5
8000012B
 10
216.396
 20
86.5992
 30
0.000000
  70
    32
  0
VERTEX
  8
0
  5
8000012C
 10
218.808
 20
84.2094
 30
0.000000
  70
    32
  0
VERTEX
  8
0
  5
8000012D
 10
221.220
 20
81.8181
 30
0.000000
  70
    32
  0
VERTEX
  8
0
  5
8000012E
 10
223.632
 20
79.4259
 30
0.000000
  70
    32
  0
VERTEX
  8
0
  5
8000012F
 10
226.043
 20
77.0335
 30
0.000000
  70
    32
  0
VERTEX
  8
0
  5
80000130
 10
228.455
 20
74.6415
 30
0.000000
  70
    32
  0
VERTEX
  8
0
  5
80000131
 10
230.867
 20
72.2506
 30
0.000000
  70
    32
  0
VERTEX
  8
0
  5
80000132
 10
233.280
 20
69.8615
 30
0.000000
  70
    32
  0
VERTEX
  8
0
  5
80000133
 10
235.693
 20
67.4749
 30
0.000000
  70
    32
  0
VERTEX
  8
0
  5
80000134
 10
238.108
 20
65.0914
 30
0.000000
  70
    32
  0
VERTEX
  8
0
  5
80000135
 10
240.523
 20
62.7116
 30
0.000000
  70
    32
  0
VERTEX
  8
0
  5
80000136
 10
242.940
 20
60.3363
 30
0.000000
  70
    32
  0
VERTEX
  8
0
  5
80000137
 10
245.358
 20
57.9661
 30
0.000000
  70
    32
  0
VERTEX
  8
0
  5
80000138
 10
247.779
 20
55.6017
 30
0.000000
  70
    32
  0
VERTEX
  8
0
  5
80000139
 10
250.201
 20
53.2438
 30
0.000000
  70
    32
  0
VERTEX
  8
0
  5
8000013A
 10
252.626
 20
50.8930
 30
0.000000
  70
    32
  0
VERTEX
  8
0
  5
8000013B
 10
255.053
 20
48.5499
 30
0.000000
  70
    32
  0
VERTEX
  8
0
  5
8000013C
 10
257.482
 20
46.2153
 30
0.000000
  70
    32
  0
VERTEX
  8
0
  5
8000013D
 10
259.915
 20
43.8899
 30
0.000000
  70
    32
  0
VERTEX
  8
0
  5
8000013E
 10
262.350
 20
41.5742
 30
0.000000
  70
    32
  0
VERTEX
  8
0
  5
8000013F
 10
264.789
 20
39.2690
 30
0.000000
  70
    32
  0
VERTEX
  8
0
  5
80000140
 10
267.231
 20
36.9749
 30
0.000000
  70
    32
  0
VERTEX
  8
0
  5
80000141
 10
269.677
 20
34.6926
 30
0.000000
  70
    32
  0
VERTEX
  8
0
  5
80000142
 10
272.127
 20
32.4228
 30
0.000000
  70
    32
  0
VERTEX
  8
0
  5
80000143
 10
274.581
 20
30.1661
 30
0.000000
  70
    32
  0
VERTEX
  8
0
  5
80000144
 10
277.039
 20
27.9232
 30
0.000000
  70
    32
  0
VERTEX
  8
0
  5
80000145
 10
279.502
 20
25.6947
 30
0.000000
  70
    32
  0
VERTEX
  8
0
  5
80000146
 10
281.969
 20
23.4814
 30
0.000000
  70
    32
  0
VERTEX
  8
0
  5
80000147
 10
284.442
 20
21.2839
 30
0.000000
  70
    32
  0
VERTEX
  8
0
  5
80000148
 10
286.919
 20
19.1028
 30
0.000000
  70
    32
  0
VERTEX
  8
0
  5
80000149
 10
289.402
 20
16.9389
 30
0.000000
  70
    32
  0
VERTEX
  8
0
  5
8000014A
 10
291.890
 20
14.7928
 30
0.000000
  70
    32
  0
VERTEX
  8
0
  5
8000014B
 10
294.384
 20
12.6651
 30
0.000000
  70
    32
  0
VERTEX
  8
0
  5
8000014C
 10
296.884
 20
10.5566
 30
0.000000
  70
    32
  0
VERTEX
  8
0
  5
8000014D
 10
299.391
 20
8.46788
 30
0.000000
  70
    32
  0
VERTEX
  8
0
  5
8000014E
 10
301.903
 20
6.39963
 30
0.000000
  70
    32
  0
VERTEX
  8
0
  5
8000014F
 10
304.423
 20
4.35252
 30
0.000000
  70
    32
  0
VERTEX
  8
0
  5
80000150
 10
306.949
 20
2.32722
 30
0.000000
  70
    32
  0
VERTEX
  8
0
  5
80000151
 10
309.482
 20
0.324383
 30
0.000000
  70
    32
  0
VERTEX
  8
0
  5
80000152
 10
312.022
 20
-1.65531
 30
0.000000
  70
    32
  0
VERTEX
  8
0
  5
80000153
 10
314.570
 20
-3.61120
 30
0.000000
  70
    32
  0
VERTEX
  8
0
  5
80000154
 10
317.125
 20
-5.54261
 30
0.000000
  70
    32
  0
VERTEX
  8
0
  5
80000155
 10
319.688
 20
-7.44888
 30
0.000000
  70
    32
  0
VERTEX
  8
0
  5
80000156
 10
322.259
 20
-9.32934
 30
0.000000
  70
    32
  0
VERTEX
  8
0
  5
80000157
 10
324.839
 20
-11.1833
 30
0.000000
  70
    32
  0
VERTEX
  8
0
  5
80000158
 10
327.427
 20
-13.0102
 30
0.000000
  70
    32
  0
VERTEX
  8
0
  5
80000159
 10
330.023
 20
-14.8092
 30
0.000000
  70
    32
  0
VERTEX
  8
0
  5
8000015A
 10
332.629
 20
-16.5797
 30
0.000000
  70
    32
  0
VERTEX
  8
0
  5
8000015B
 10
335.243
 20
-18.3211
 30
0.000000
  70
    32
  0
VERTEX
  8
0
  5
8000015C
 10
337.867
 20
-20.0327
 30
0.000000
  70
    32
  0
VERTEX
  8
0
  5
8000015D
 10
340.500
 20
-21.7138
 30
0.000000
  70
    32
  0
VERTEX
  8
0
  5
8000015E
 10
343.143
 20
-23.3637
 30
0.000000
  70
    32
  0
VERTEX
  8
0
  5
8000015F
 10
345.796
 20
-24.9819
 30
0.000000
  70
    32
  0
VERTEX
  8
0
  5
80000160
 10
348.459
 20
-26.5675
 30
0.000000
  70
    32
  0
VERTEX
  8
0
  5
80000161
 10
351.133
 20
-28.1200
 30
0.000000
  70
    32
  0
VERTEX
  8
0
  5
80000162
 10
353.817
 20
-29.6387
 30
0.000000
  70
    32
  0
VERTEX
  8
0
  5
80000163
 10
356.512
 20
-31.1229
 30
0.000000
  70
    32
  0
VERTEX
  8
0
  5
80000164
 10
359.217
 20
-32.5719
 30
0.000000
  70
    32
  0
VERTEX
  8
0
  5
80000165
 10
361.934
 20
-33.9851
 30
0.000000
  70
    32
  0
VERTEX
  8
0
  5
80000166
 10
364.662
 20
-35.3618
 30
0.000000
  70
    32
  0
VERTEX
  8
0
  5
80000167
 10
367.402
 20
-36.7014
 30
0.000000
  70
    32
  0
VERTEX
  8
0
  5
80000168
 10
370.154
 20
-38.0031
 30
0.000000
  70
    32
  0
VERTEX
  8
0
  5
80000169
 10
372.917
 20
-39.2664
 30
0.000000
  70
    32
  0
VERTEX
  8
0
  5
8000016A
 10
375.693
 20
-40.4905
 30
0.000000
  70
    32
  0
VERTEX
  8
0
  5
8000016B
 10
378.482
 20
-41.6747
 30
0.000000
  70
    32
  0
VERTEX
  8
0
  5
8000016C
 10
381.282
 20
-42.8185
 30
0.000000
  70
    32
  0
VERTEX
  8
0
  5
8000016D
 10
384.096
 20
-43.9211
 30
0.000000
  70
    32
  0
VERTEX
  8
0
  5
8000016E
 10
386.923
 20
-44.9818
 30
0.000000
  70
    32
  0
VERTEX
  8
0
  5
8000016F
 10
389.763
 20
-46.0001
 30
0.000000
  70
    32
  0
VERTEX
  8
0
  5
80000170
 10
392.616
 20
-46.9752
 30
0.000000
  70
    32
  0
VERTEX
  8
0
  5
80000171
 10
395.483
 20
-47.9065
 30
0.000000
  70
    32
  0
VERTEX
  8
0
  5
80000172
 10
398.364
 20
-48.7933
 30
0.000000
  70
    32
  0
VERTEX
  8
0
  5
80000173
 10
401.259
 20
-49.6349
 30
0.000000
  70
    32
  0
VERTEX
  8
0
  5
80000174
 10
404.169
 20
-50.4306
 30
0.000000
  70
    32
  0
VERTEX
  8
0
  5
80000175
 10
407.093
 20
-51.1799
 30
0.000000
  70
    32
  0
VERTEX
  8
0
  5
80000176
 10
410.031
 20
-51.8820
 30
0.000000
  70
    32
  0
VERTEX
  8
0
  5
80000177
 10
412.985
 20
-52.5363
 30
0.000000
  70
    32
  0
VERTEX
  8
0
  5
80000178
 10
415.953
 20
-53.1420
 30
0.000000
  70
    32
  0
VERTEX
  8
0
  5
80000179
 10
418.937
 20
-53.6986
 30
0.000000
  70
    32
  0
VERTEX
  8
0
  5
8000017A
 10
421.937
 20
-54.2054
 30
0.000000
  70
    32
  0
VERTEX
  8
0
  5
8000017B
 10
424.952
 20
-54.6616
 30
0.000000
  70
    32
  0
VERTEX
  8
0
  5
8000017C
 10
427.983
 20
-55.0667
 30
0.000000
  70
    32
  0
VERTEX
  8
0
  5
8000017D
 10
431.030
 20
-55.4199
 30
0.000000
  70
    32
  0
VERTEX
  8
0
  5
8000017E
 10
434.094
 20
-55.7206
 30
0.000000
  70
    32
  0
VERTEX
  8
0
  5
8000017F
 10
437.174
 20
-55.9681
 30
0.000000
  70
    32
  0
VERTEX
  8
0
  5
80000180
 10
440.271
 20
-56.1618
 30
0.000000
  70
    32
  0
VERTEX
  8
0
  5
80000181
 10
443.386
 20
-56.3010
 30
0.000000
  70
    32
  0
VERTEX
  8
0
  5
80000182
 10
446.517
 20
-56.3850
 30
0.000000
  70
    32
  0
VERTEX
  8
0
  5
80000183
 10
449.665
 20
-56.4131
 30
0.000000
  70
    32
  0
SEQEND
  8
0
  5
80000184
  0
ENDBLK
  5
FFBBDAE469BC01BB
  8
0
  0
BLOCK
  8
0
  2
*U14
 70
     1
 10
0.0
 20
0.0
 30
0.0
  3
*U14
  1

  0
TEXT
  5
FFBBDAE469BC01BD
  8
0
  6
CONTINUOUS
 10
457.37349676575059
 20
-30.433125199183699
 30
0.0
 40
20.0
  1
Flexible flashing tape
  7
ARIAL
  0
TEXT
  5
FFBBDAE469BC01BE
  8
0
  6
CONTINUOUS
 10
457.83734396902469
 20
-63.848313921330131
 30
0.0
 40
20.0
  1
bandage min 25mm
  7
ARIAL
  0
TEXT
  5
FFBBDAE469BC01BF
  8
0
  6
CONTINUOUS
 10
459.58359226370419
 20
-97.18164725466346
 30
0.0
 40
20.0
  1
wide all round pipe.
  7
ARIAL
  0
ENDBLK
  5
FFBBDAE469BC01C1
  8
0
  0
BLOCK
  8
0
  2
*U15
 70
     1
 10
0.0
 20
0.0
 30
0.0
  3
*U15
  1

  0
SOLID
  5
FFBBDAE469BC01C3
  8
0
  6
CONTINUOUS
 10
-160.9589612553244
 20
95.468294090400221
 30
0.0
 11
-143.54827618911159
 21
90.003127530710117
 31
0.0
 12
-161.7903295954286
 22
89.526171011645246
 32
0.0
 13
-161.7903295954286
 23
89.526171011645246
 33
0.0
  0
POLYLINE
  8
0
  5
80000185
  66
     1
 10
0.000000
 20
0.000000
 30
0.000000
  70
     8
  0
VERTEX
  8
0
  5
80000186
 10
-161.375
 20
92.4972
 30
0.000000
  70
    32
  0
VERTEX
  8
0
  5
80000187
 10
-163.234
 20
92.7594
 30
0.000000
  70
    32
  0
VERTEX
  8
0
  5
80000188
 10
-165.093
 20
93.0256
 30
0.000000
  70
    32
  0
VERTEX
  8
0
  5
80000189
 10
-166.951
 20
93.2956
 30
0.000000
  70
    32
  0
VERTEX
  8
0
  5
8000018A
 10
-168.810
 20
93.5695
 30
0.000000
  70
    32
  0
VERTEX
  8
0
  5
8000018B
 10
-170.668
 20
93.8471
 30
0.000000
  70
    32
  0
VERTEX
  8
0
  5
8000018C
 10
-172.526
 20
94.1283
 30
0.000000
  70
    32
  0
VERTEX
  8
0
  5
8000018D
 10
-174.383
 20
94.4130
 30
0.000000
  70
    32
  0
VERTEX
  8
0
  5
8000018E
 10
-176.241
 20
94.7012
 30
0.000000
  70
    32
  0
VERTEX
  8
0
  5
8000018F
 10
-178.098
 20
94.9926
 30
0.000000
  70
    32
  0
VERTEX
  8
0
  5
80000190
 10
-179.955
 20
95.2873
 30
0.000000
  70
    32
  0
VERTEX
  8
0
  5
80000191
 10
-181.811
 20
95.5851
 30
0.000000
  70
    32
  0
VERTEX
  8
0
  5
80000192
 10
-183.668
 20
95.8860
 30
0.000000
  70
    32
  0
VERTEX
  8
0
  5
80000193
 10
-185.524
 20
96.1898
 30
0.000000
  70
    32
  0
VERTEX
  8
0
  5
80000194
 10
-187.380
 20
96.4964
 30
0.000000
  70
    32
  0
VERTEX
  8
0
  5
80000195
 10
-189.236
 20
96.8058
 30
0.000000
  70
    32
  0
VERTEX
  8
0
  5
80000196
 10
-191.092
 20
97.1178
 30
0.000000
  70
    32
  0
VERTEX
  8
0
  5
80000197
 10
-192.947
 20
97.4323
 30
0.000000
  70
    32
  0
VERTEX
  8
0
  5
80000198
 10
-194.803
 20
97.7493
 30
0.000000
  70
    32
  0
VERTEX
  8
0
  5
80000199
 10
-196.658
 20
98.0687
 30
0.000000
  70
    32
  0
VERTEX
  8
0
  5
8000019A
 10
-198.513
 20
98.3903
 30
0.000000
  70
    32
  0
VERTEX
  8
0
  5
8000019B
 10
-200.368
 20
98.7141
 30
0.000000
  70
    32
  0
VERTEX
  8
0
  5
8000019C
 10
-202.223
 20
99.0399
 30
0.000000
  70
    32
  0
VERTEX
  8
0
  5
8000019D
 10
-204.077
 20
99.3678
 30
0.000000
  70
    32
  0
VERTEX
  8
0
  5
8000019E
 10
-205.932
 20
99.6974
 30
0.000000
  70
    32
  0
VERTEX
  8
0
  5
8000019F
 10
-207.786
 20
100.029
 30
0.000000
  70
    32
  0
VERTEX
  8
0
  5
800001A0
 10
-209.640
 20
100.362
 30
0.000000
  70
    32
  0
VERTEX
  8
0
  5
800001A1
 10
-211.494
 20
100.697
 30
0.000000
  70
    32
  0
VERTEX
  8
0
  5
800001A2
 10
-213.348
 20
101.033
 30
0.000000
  70
    32
  0
VERTEX
  8
0
  5
800001A3
 10
-215.202
 20
101.371
 30
0.000000
  70
    32
  0
VERTEX
  8
0
  5
800001A4
 10
-217.056
 20
101.709
 30
0.000000
  70
    32
  0
VERTEX
  8
0
  5
800001A5
 10
-218.910
 20
102.049
 30
0.000000
  70
    32
  0
VERTEX
  8
0
  5
800001A6
 10
-220.763
 20
102.391
 30
0.000000
  70
    32
  0
VERTEX
  8
0
  5
800001A7
 10
-222.617
 20
102.733
 30
0.000000
  70
    32
  0
VERTEX
  8
0
  5
800001A8
 10
-224.471
 20
103.076
 30
0.000000
  70
    32
  0
VERTEX
  8
0
  5
800001A9
 10
-226.324
 20
103.420
 30
0.000000
  70
    32
  0
VERTEX
  8
0
  5
800001AA
 10
-228.178
 20
103.764
 30
0.000000
  70
    32
  0
VERTEX
  8
0
  5
800001AB
 10
-230.031
 20
104.110
 30
0.000000
  70
    32
  0
VERTEX
  8
0
  5
800001AC
 10
-231.884
 20
104.455
 30
0.000000
  70
    32
  0
VERTEX
  8
0
  5
800001AD
 10
-233.738
 20
104.801
 30
0.000000
  70
    32
  0
VERTEX
  8
0
  5
800001AE
 10
-235.591
 20
105.148
 30
0.000000
  70
    32
  0
VERTEX
  8
0
  5
800001AF
 10
-237.444
 20
105.495
 30
0.000000
  70
    32
  0
VERTEX
  8
0
  5
800001B0
 10
-239.297
 20
105.841
 30
0.000000
  70
    32
  0
VERTEX
  8
0
  5
800001B1
 10
-241.151
 20
106.188
 30
0.000000
  70
    32
  0
VERTEX
  8
0
  5
800001B2
 10
-243.004
 20
106.535
 30
0.000000
  70
    32
  0
VERTEX
  8
0
  5
800001B3
 10
-244.857
 20
106.882
 30
0.000000
  70
    32
  0
VERTEX
  8
0
  5
800001B4
 10
-246.711
 20
107.228
 30
0.000000
  70
    32
  0
VERTEX
  8
0
  5
800001B5
 10
-248.564
 20
107.574
 30
0.000000
  70
    32
  0
VERTEX
  8
0
  5
800001B6
 10
-250.417
 20
107.920
 30
0.000000
  70
    32
  0
VERTEX
  8
0
  5
800001B7
 10
-252.271
 20
108.265
 30
0.000000
  70
    32
  0
VERTEX
  8
0
  5
800001B8
 10
-254.124
 20
108.609
 30
0.000000
  70
    32
  0
VERTEX
  8
0
  5
800001B9
 10
-255.978
 20
108.953
 30
0.000000
  70
    32
  0
VERTEX
  8
0
  5
800001BA
 10
-257.831
 20
109.295
 30
0.000000
  70
    32
  0
VERTEX
  8
0
  5
800001BB
 10
-259.685
 20
109.637
 30
0.000000
  70
    32
  0
VERTEX
  8
0
  5
800001BC
 10
-261.539
 20
109.978
 30
0.000000
  70
    32
  0
VERTEX
  8
0
  5
800001BD
 10
-263.392
 20
110.318
 30
0.000000
  70
    32
  0
VERTEX
  8
0
  5
800001BE
 10
-265.246
 20
110.656
 30
0.000000
  70
    32
  0
VERTEX
  8
0
  5
800001BF
 10
-267.100
 20
110.993
 30
0.000000
  70
    32
  0
VERTEX
  8
0
  5
800001C0
 10
-268.954
 20
111.329
 30
0.000000
  70
    32
  0
VERTEX
  8
0
  5
800001C1
 10
-270.808
 20
111.663
 30
0.000000
  70
    32
  0
VERTEX
  8
0
  5
800001C2
 10
-272.663
 20
111.996
 30
0.000000
  70
    32
  0
VERTEX
  8
0
  5
800001C3
 10
-274.517
 20
112.327
 30
0.000000
  70
    32
  0
VERTEX
  8
0
  5
800001C4
 10
-276.372
 20
112.656
 30
0.000000
  70
    32
  0
VERTEX
  8
0
  5
800001C5
 10
-278.226
 20
112.983
 30
0.000000
  70
    32
  0
VERTEX
  8
0
  5
800001C6
 10
-280.081
 20
113.308
 30
0.000000
  70
    32
  0
VERTEX
  8
0
  5
800001C7
 10
-281.936
 20
113.631
 30
0.000000
  70
    32
  0
VERTEX
  8
0
  5
800001C8
 10
-283.791
 20
113.952
 30
0.000000
  70
    32
  0
VERTEX
  8
0
  5
800001C9
 10
-285.646
 20
114.271
 30
0.000000
  70
    32
  0
VERTEX
  8
0
  5
800001CA
 10
-287.502
 20
114.587
 30
0.000000
  70
    32
  0
VERTEX
  8
0
  5
800001CB
 10
-289.357
 20
114.901
 30
0.000000
  70
    32
  0
VERTEX
  8
0
  5
800001CC
 10
-291.213
 20
115.212
 30
0.000000
  70
    32
  0
VERTEX
  8
0
  5
800001CD
 10
-293.069
 20
115.520
 30
0.000000
  70
    32
  0
VERTEX
  8
0
  5
800001CE
 10
-294.925
 20
115.826
 30
0.000000
  70
    32
  0
VERTEX
  8
0
  5
800001CF
 10
-296.781
 20
116.129
 30
0.000000
  70
    32
  0
VERTEX
  8
0
  5
800001D0
 10
-298.638
 20
116.428
 30
0.000000
  70
    32
  0
VERTEX
  8
0
  5
800001D1
 10
-300.495
 20
116.725
 30
0.000000
  70
    32
  0
VERTEX
  8
0
  5
800001D2
 10
-302.352
 20
117.019
 30
0.000000
  70
    32
  0
VERTEX
  8
0
  5
800001D3
 10
-304.209
 20
117.309
 30
0.000000
  70
    32
  0
VERTEX
  8
0
  5
800001D4
 10
-306.066
 20
117.596
 30
0.000000
  70
    32
  0
VERTEX
  8
0
  5
800001D5
 10
-307.924
 20
117.880
 30
0.000000
  70
    32
  0
VERTEX
  8
0
  5
800001D6
 10
-309.782
 20
118.160
 30
0.000000
  70
    32
  0
VERTEX
  8
0
  5
800001D7
 10
-311.640
 20
118.436
 30
0.000000
  70
    32
  0
VERTEX
  8
0
  5
800001D8
 10
-313.499
 20
118.709
 30
0.000000
  70
    32
  0
VERTEX
  8
0
  5
800001D9
 10
-315.357
 20
118.978
 30
0.000000
  70
    32
  0
VERTEX
  8
0
  5
800001DA
 10
-317.216
 20
119.242
 30
0.000000
  70
    32
  0
VERTEX
  8
0
  5
800001DB
 10
-319.076
 20
119.503
 30
0.000000
  70
    32
  0
VERTEX
  8
0
  5
800001DC
 10
-320.935
 20
119.760
 30
0.000000
  70
    32
  0
VERTEX
  8
0
  5
800001DD
 10
-322.795
 20
120.012
 30
0.000000
  70
    32
  0
VERTEX
  8
0
  5
800001DE
 10
-324.655
 20
120.261
 30
0.000000
  70
    32
  0
VERTEX
  8
0
  5
800001DF
 10
-326.516
 20
120.504
 30
0.000000
  70
    32
  0
VERTEX
  8
0
  5
800001E0
 10
-328.376
 20
120.743
 30
0.000000
  70
    32
  0
VERTEX
  8
0
  5
800001E1
 10
-330.238
 20
120.978
 30
0.000000
  70
    32
  0
VERTEX
  8
0
  5
800001E2
 10
-332.099
 20
121.208
 30
0.000000
  70
    32
  0
VERTEX
  8
0
  5
800001E3
 10
-333.961
 20
121.433
 30
0.000000
  70
    32
  0
VERTEX
  8
0
  5
800001E4
 10
-335.823
 20
121.653
 30
0.000000
  70
    32
  0
VERTEX
  8
0
  5
800001E5
 10
-337.685
 20
121.868
 30
0.000000
  70
    32
  0
VERTEX
  8
0
  5
800001E6
 10
-339.548
 20
122.078
 30
0.000000
  70
    32
  0
VERTEX
  8
0
  5
800001E7
 10
-341.411
 20
122.283
 30
0.000000
  70
    32
  0
VERTEX
  8
0
  5
800001E8
 10
-343.275
 20
122.483
 30
0.000000
  70
    32
  0
VERTEX
  8
0
  5
800001E9
 10
-345.139
 20
122.677
 30
0.000000
  70
    32
  0
VERTEX
  8
0
  5
800001EA
 10
-347.003
 20
122.866
 30
0.000000
  70
    32
  0
VERTEX
  8
0
  5
800001EB
 10
-348.868
 20
123.049
 30
0.000000
  70
    32
  0
VERTEX
  8
0
  5
800001EC
 10
-350.733
 20
123.226
 30
0.000000
  70
    32
  0
VERTEX
  8
0
  5
800001ED
 10
-352.598
 20
123.398
 30
0.000000
  70
    32
  0
VERTEX
  8
0
  5
800001EE
 10
-354.464
 20
123.564
 30
0.000000
  70
    32
  0
VERTEX
  8
0
  5
800001EF
 10
-356.330
 20
123.724
 30
0.000000
  70
    32
  0
VERTEX
  8
0
  5
800001F0
 10
-358.197
 20
123.878
 30
0.000000
  70
    32
  0
VERTEX
  8
0
  5
800001F1
 10
-360.064
 20
124.025
 30
0.000000
  70
    32
  0
VERTEX
  8
0
  5
800001F2
 10
-361.932
 20
124.167
 30
0.000000
  70
    32
  0
VERTEX
  8
0
  5
800001F3
 10
-363.800
 20
124.302
 30
0.000000
  70
    32
  0
VERTEX
  8
0
  5
800001F4
 10
-365.668
 20
124.430
 30
0.000000
  70
    32
  0
VERTEX
  8
0
  5
800001F5
 10
-367.537
 20
124.552
 30
0.000000
  70
    32
  0
VERTEX
  8
0
  5
800001F6
 10
-369.407
 20
124.668
 30
0.000000
  70
    32
  0
VERTEX
  8
0
  5
800001F7
 10
-371.276
 20
124.776
 30
0.000000
  70
    32
  0
VERTEX
  8
0
  5
800001F8
 10
-373.147
 20
124.878
 30
0.000000
  70
    32
  0
VERTEX
  8
0
  5
800001F9
 10
-375.018
 20
124.973
 30
0.000000
  70
    32
  0
VERTEX
  8
0
  5
800001FA
 10
-376.889
 20
125.061
 30
0.000000
  70
    32
  0
VERTEX
  8
0
  5
800001FB
 10
-378.761
 20
125.141
 30
0.000000
  70
    32
  0
VERTEX
  8
0
  5
800001FC
 10
-380.633
 20
125.215
 30
0.000000
  70
    32
  0
VERTEX
  8
0
  5
800001FD
 10
-382.506
 20
125.281
 30
0.000000
  70
    32
  0
VERTEX
  8
0
  5
800001FE
 10
-384.379
 20
125.340
 30
0.000000
  70
    32
  0
VERTEX
  8
0
  5
800001FF
 10
-386.253
 20
125.391
 30
0.000000
  70
    32
  0
VERTEX
  8
0
  5
80000200
 10
-388.127
 20
125.434
 30
0.000000
  70
    32
  0
VERTEX
  8
0
  5
80000201
 10
-390.002
 20
125.470
 30
0.000000
  70
    32
  0
VERTEX
  8
0
  5
80000202
 10
-391.878
 20
125.498
 30
0.000000
  70
    32
  0
VERTEX
  8
0
  5
80000203
 10
-393.754
 20
125.519
 30
0.000000
  70
    32
  0
VERTEX
  8
0
  5
80000204
 10
-395.630
 20
125.531
 30
0.000000
  70
    32
  0
VERTEX
  8
0
  5
80000205
 10
-397.508
 20
125.535
 30
0.000000
  70
    32
  0
SEQEND
  8
0
  5
80000206
  0
ENDBLK
  5
FFBBDAE469BC01C6
  8
0
  0
BLOCK
  8
0
  2
*U16
 70
     1
 10
0.0
 20
0.0
 30
0.0
  3
*U16
  1

  0
TEXT
  5
FFBBDAE469BC01C8
  8
0
  6
CONTINUOUS
 10
-652.47377085366975
 20
182.87679950141629
 30
0.0
 40
20.0
  1
EasyLap
  7
ARIAL
  0
TEXT
  5
FFBBDAE469BC01C9
  8
0
  6
CONTINUOUS
 10
-544.0699509355253
 20
194.54346616808289
 30
0.0
 40
10.0
  1
TM
  7
ARIAL
  0
TEXT
  5
FFBBDAE469BC01CA
  8
0
  6
CONTINUOUS
 10
-543.7425293802728
 20
191.2101328347496
 30
0.0
 40
10.0
  1

  7
ARIAL
  0
TEXT
  5
FFBBDAE469BC01CB
  8
0
  6
CONTINUOUS
 10
-524.28823197236022
 20
182.87679950141629
 30
0.0
 40
20.0
  1
 Panel
  7
ARIAL
  0
TEXT
  5
FFBBDAE469BC01CC
  8
0
  6
CONTINUOUS
 10
-651.19136976226457
 20
149.37293410805569
 30
0.0
 40
20.0
  1
over flashing tape,
  7
ARIAL
  0
TEXT
  5
FFBBDAE469BC01CD
  8
0
  6
CONTINUOUS
 10
-651.35508053989076
 20
115.69853665466781
 30
0.0
 40
20.0
  1
carefully cut to suit
  7
ARIAL
  0
TEXT
  5
FFBBDAE469BC01CE
  8
0
  6
CONTINUOUS
 10
-652.10542160401087
 20
82.194671261307136
 30
0.0
 40
20.0
  1
pipe and seal with
  7
ARIAL
  0
TEXT
  5
FFBBDAE469BC01CF
  8
0
  6
CONTINUOUS
 10
-650.52288408695779
 20
48.690805867946523
 30
0.0
 40
20.0
  1
flexible sealant
  7
ARIAL
  0
ENDBLK
  5
FFBBDAE469BC01D1
  8
0
  0
BLOCK
  8
0
  2
*U17
 70
     1
 10
0.0
 20
0.0
 30
0.0
  3
*U17
  1

  0
SOLID
  5
FFBBDAE469BC01D3
  8
0
  6
CONTINUOUS
 10
-219.61254682275731
 20
232.8619522756226
 30
0.0
 11
-205.5992536497352
 21
221.17317071179261
 31
0.0
 12
-222.64602769897121
 22
227.68527440524619
 32
0.0
 13
-222.64602769897121
 23
227.68527440524619
 33
0.0
  0
POLYLINE
  8
0
  5
80000207
  66
     1
 10
0.000000
 20
0.000000
 30
0.000000
  70
     8
  0
VERTEX
  8
0
  5
80000208
 10
-221.129
 20
230.274
 30
0.000000
  70
    32
  0
VERTEX
  8
0
  5
80000209
 10
-222.183
 20
230.897
 30
0.000000
  70
    32
  0
VERTEX
  8
0
  5
8000020A
 10
-223.234
 20
231.529
 30
0.000000
  70
    32
  0
VERTEX
  8
0
  5
8000020B
 10
-224.283
 20
232.171
 30
0.000000
  70
    32
  0
VERTEX
  8
0
  5
8000020C
 10
-225.330
 20
232.822
 30
0.000000
  70
    32
  0
VERTEX
  8
0
  5
8000020D
 10
-226.373
 20
233.482
 30
0.000000
  70
    32
  0
VERTEX
  8
0
  5
8000020E
 10
-227.415
 20
234.151
 30
0.000000
  70
    32
  0
VERTEX
  8
0
  5
8000020F
 10
-228.454
 20
234.827
 30
0.000000
  70
    32
  0
VERTEX
  8
0
  5
80000210
 10
-229.492
 20
235.512
 30
0.000000
  70
    32
  0
VERTEX
  8
0
  5
80000211
 10
-230.527
 20
236.205
 30
0.000000
  70
    32
  0
VERTEX
  8
0
  5
80000212
 10
-231.559
 20
236.905
 30
0.000000
  70
    32
  0
VERTEX
  8
0
  5
80000213
 10
-232.590
 20
237.613
 30
0.000000
  70
    32
  0
VERTEX
  8
0
  5
80000214
 10
-233.619
 20
238.328
 30
0.000000
  70
    32
  0
VERTEX
  8
0
  5
80000215
 10
-234.646
 20
239.050
 30
0.000000
  70
    32
  0
VERTEX
  8
0
  5
80000216
 10
-235.671
 20
239.779
 30
0.000000
  70
    32
  0
VERTEX
  8
0
  5
80000217
 10
-236.695
 20
240.515
 30
0.000000
  70
    32
  0
VERTEX
  8
0
  5
80000218
 10
-237.717
 20
241.256
 30
0.000000
  70
    32
  0
VERTEX
  8
0
  5
80000219
 10
-238.737
 20
242.004
 30
0.000000
  70
    32
  0
VERTEX
  8
0
  5
8000021A
 10
-239.755
 20
242.757
 30
0.000000
  70
    32
  0
VERTEX
  8
0
  5
8000021B
 10
-240.772
 20
243.517
 30
0.000000
  70
    32
  0
VERTEX
  8
0
  5
8000021C
 10
-241.788
 20
244.281
 30
0.000000
  70
    32
  0
VERTEX
  8
0
  5
8000021D
 10
-242.802
 20
245.051
 30
0.000000
  70
    32
  0
VERTEX
  8
0
  5
8000021E
 10
-243.815
 20
245.825
 30
0.000000
  70
    32
  0
VERTEX
  8
0
  5
8000021F
 10
-244.826
 20
246.604
 30
0.000000
  70
    32
  0
VERTEX
  8
0
  5
80000220
 10
-245.837
 20
247.388
 30
0.000000
  70
    32
  0
VERTEX
  8
0
  5
80000221
 10
-246.846
 20
248.176
 30
0.000000
  70
    32
  0
VERTEX
  8
0
  5
80000222
 10
-247.854
 20
248.968
 30
0.000000
  70
    32
  0
VERTEX
  8
0
  5
80000223
 10
-248.861
 20
249.763
 30
0.000000
  70
    32
  0
VERTEX
  8
0
  5
80000224
 10
-249.867
 20
250.562
 30
0.000000
  70
    32
  0
VERTEX
  8
0
  5
80000225
 10
-250.872
 20
251.365
 30
0.000000
  70
    32
  0
VERTEX
  8
0
  5
80000226
 10
-251.877
 20
252.170
 30
0.000000
  70
    32
  0
VERTEX
  8
0
  5
80000227
 10
-252.880
 20
252.979
 30
0.000000
  70
    32
  0
VERTEX
  8
0
  5
80000228
 10
-253.883
 20
253.790
 30
0.000000
  70
    32
  0
VERTEX
  8
0
  5
80000229
 10
-254.885
 20
254.603
 30
0.000000
  70
    32
  0
VERTEX
  8
0
  5
8000022A
 10
-255.887
 20
255.418
 30
0.000000
  70
    32
  0
VERTEX
  8
0
  5
8000022B
 10
-256.888
 20
256.236
 30
0.000000
  70
    32
  0
VERTEX
  8
0
  5
8000022C
 10
-257.889
 20
257.055
 30
0.000000
  70
    32
  0
VERTEX
  8
0
  5
8000022D
 10
-258.889
 20
257.875
 30
0.000000
  70
    32
  0
VERTEX
  8
0
  5
8000022E
 10
-259.889
 20
258.697
 30
0.000000
  70
    32
  0
VERTEX
  8
0
  5
8000022F
 10
-260.889
 20
259.520
 30
0.000000
  70
    32
  0
VERTEX
  8
0
  5
80000230
 10
-261.888
 20
260.343
 30
0.000000
  70
    32
  0
VERTEX
  8
0
  5
80000231
 10
-262.888
 20
261.167
 30
0.000000
  70
    32
  0
VERTEX
  8
0
  5
80000232
 10
-263.887
 20
261.992
 30
0.000000
  70
    32
  0
VERTEX
  8
0
  5
80000233
 10
-264.886
 20
262.816
 30
0.000000
  70
    32
  0
VERTEX
  8
0
  5
80000234
 10
-265.886
 20
263.640
 30
0.000000
  70
    32
  0
VERTEX
  8
0
  5
80000235
 10
-266.885
 20
264.464
 30
0.000000
  70
    32
  0
VERTEX
  8
0
  5
80000236
 10
-267.885
 20
265.288
 30
0.000000
  70
    32
  0
VERTEX
  8
0
  5
80000237
 10
-268.884
 20
266.110
 30
0.000000
  70
    32
  0
VERTEX
  8
0
  5
80000238
 10
-269.884
 20
266.931
 30
0.000000
  70
    32
  0
VERTEX
  8
0
  5
80000239
 10
-270.885
 20
267.751
 30
0.000000
  70
    32
  0
VERTEX
  8
0
  5
8000023A
 10
-271.886
 20
268.570
 30
0.000000
  70
    32
  0
VERTEX
  8
0
  5
8000023B
 10
-272.887
 20
269.387
 30
0.000000
  70
    32
  0
VERTEX
  8
0
  5
8000023C
 10
-273.889
 20
270.201
 30
0.000000
  70
    32
  0
VERTEX
  8
0
  5
8000023D
 10
-274.891
 20
271.014
 30
0.000000
  70
    32
  0
VERTEX
  8
0
  5
8000023E
 10
-275.895
 20
271.824
 30
0.000000
  70
    32
  0
VERTEX
  8
0
  5
8000023F
 10
-276.898
 20
272.631
 30
0.000000
  70
    32
  0
VERTEX
  8
0
  5
80000240
 10
-277.903
 20
273.436
 30
0.000000
  70
    32
  0
VERTEX
  8
0
  5
80000241
 10
-278.909
 20
274.237
 30
0.000000
  70
    32
  0
VERTEX
  8
0
  5
80000242
 10
-279.915
 20
275.035
 30
0.000000
  70
    32
  0
VERTEX
  8
0
  5
80000243
 10
-280.922
 20
275.830
 30
0.000000
  70
    32
  0
VERTEX
  8
0
  5
80000244
 10
-281.931
 20
276.620
 30
0.000000
  70
    32
  0
VERTEX
  8
0
  5
80000245
 10
-282.940
 20
277.407
 30
0.000000
  70
    32
  0
VERTEX
  8
0
  5
80000246
 10
-283.951
 20
278.189
 30
0.000000
  70
    32
  0
VERTEX
  8
0
  5
80000247
 10
-284.963
 20
278.966
 30
0.000000
  70
    32
  0
VERTEX
  8
0
  5
80000248
 10
-285.976
 20
279.739
 30
0.000000
  70
    32
  0
VERTEX
  8
0
  5
80000249
 10
-286.991
 20
280.507
 30
0.000000
  70
    32
  0
VERTEX
  8
0
  5
8000024A
 10
-288.007
 20
281.270
 30
0.000000
  70
    32
  0
VERTEX
  8
0
  5
8000024B
 10
-289.024
 20
282.027
 30
0.000000
  70
    32
  0
VERTEX
  8
0
  5
8000024C
 10
-290.043
 20
282.779
 30
0.000000
  70
    32
  0
VERTEX
  8
0
  5
8000024D
 10
-291.064
 20
283.525
 30
0.000000
  70
    32
  0
VERTEX
  8
0
  5
8000024E
 10
-292.086
 20
284.264
 30
0.000000
  70
    32
  0
VERTEX
  8
0
  5
8000024F
 10
-293.110
 20
284.997
 30
0.000000
  70
    32
  0
VERTEX
  8
0
  5
80000250
 10
-294.136
 20
285.724
 30
0.000000
  70
    32
  0
VERTEX
  8
0
  5
80000251
 10
-295.164
 20
286.444
 30
0.000000
  70
    32
  0
VERTEX
  8
0
  5
80000252
 10
-296.193
 20
287.156
 30
0.000000
  70
    32
  0
VERTEX
  8
0
  5
80000253
 10
-297.225
 20
287.862
 30
0.000000
  70
    32
  0
VERTEX
  8
0
  5
80000254
 10
-298.259
 20
288.560
 30
0.000000
  70
    32
  0
VERTEX
  8
0
  5
80000255
 10
-299.294
 20
289.250
 30
0.000000
  70
    32
  0
VERTEX
  8
0
  5
80000256
 10
-300.332
 20
289.932
 30
0.000000
  70
    32
  0
VERTEX
  8
0
  5
80000257
 10
-301.372
 20
290.606
 30
0.000000
  70
    32
  0
VERTEX
  8
0
  5
80000258
 10
-302.415
 20
291.272
 30
0.000000
  70
    32
  0
VERTEX
  8
0
  5
80000259
 10
-303.459
 20
291.929
 30
0.000000
  70
    32
  0
VERTEX
  8
0
  5
8000025A
 10
-304.506
 20
292.577
 30
0.000000
  70
    32
  0
VERTEX
  8
0
  5
8000025B
 10
-305.556
 20
293.215
 30
0.000000
  70
    32
  0
VERTEX
  8
0
  5
8000025C
 10
-306.608
 20
293.845
 30
0.000000
  70
    32
  0
VERTEX
  8
0
  5
8000025D
 10
-307.663
 20
294.465
 30
0.000000
  70
    32
  0
VERTEX
  8
0
  5
8000025E
 10
-308.720
 20
295.075
 30
0.000000
  70
    32
  0
VERTEX
  8
0
  5
8000025F
 10
-309.780
 20
295.675
 30
0.000000
  70
    32
  0
VERTEX
  8
0
  5
80000260
 10
-310.843
 20
296.265
 30
0.000000
  70
    32
  0
VERTEX
  8
0
  5
80000261
 10
-311.909
 20
296.844
 30
0.000000
  70
    32
  0
VERTEX
  8
0
  5
80000262
 10
-312.978
 20
297.413
 30
0.000000
  70
    32
  0
VERTEX
  8
0
  5
80000263
 10
-314.050
 20
297.970
 30
0.000000
  70
    32
  0
VERTEX
  8
0
  5
80000264
 10
-315.124
 20
298.517
 30
0.000000
  70
    32
  0
VERTEX
  8
0
  5
80000265
 10
-316.202
 20
299.052
 30
0.000000
  70
    32
  0
VERTEX
  8
0
  5
80000266
 10
-317.283
 20
299.575
 30
0.000000
  70
    32
  0
VERTEX
  8
0
  5
80000267
 10
-318.367
 20
300.087
 30
0.000000
  70
    32
  0
VERTEX
  8
0
  5
80000268
 10
-319.455
 20
300.586
 30
0.000000
  70
    32
  0
VERTEX
  8
0
  5
80000269
 10
-320.546
 20
301.073
 30
0.000000
  70
    32
  0
VERTEX
  8
0
  5
8000026A
 10
-321.640
 20
301.547
 30
0.000000
  70
    32
  0
VERTEX
  8
0
  5
8000026B
 10
-322.738
 20
302.009
 30
0.000000
  70
    32
  0
VERTEX
  8
0
  5
8000026C
 10
-323.839
 20
302.457
 30
0.000000
  70
    32
  0
VERTEX
  8
0
  5
8000026D
 10
-324.944
 20
302.893
 30
0.000000
  70
    32
  0
VERTEX
  8
0
  5
8000026E
 10
-326.052
 20
303.315
 30
0.000000
  70
    32
  0
VERTEX
  8
0
  5
8000026F
 10
-327.164
 20
303.723
 30
0.000000
  70
    32
  0
VERTEX
  8
0
  5
80000270
 10
-328.280
 20
304.117
 30
0.000000
  70
    32
  0
VERTEX
  8
0
  5
80000271
 10
-329.400
 20
304.497
 30
0.000000
  70
    32
  0
VERTEX
  8
0
  5
80000272
 10
-330.524
 20
304.862
 30
0.000000
  70
    32
  0
VERTEX
  8
0
  5
80000273
 10
-331.652
 20
305.213
 30
0.000000
  70
    32
  0
VERTEX
  8
0
  5
80000274
 10
-332.784
 20
305.549
 30
0.000000
  70
    32
  0
VERTEX
  8
0
  5
80000275
 10
-333.920
 20
305.870
 30
0.000000
  70
    32
  0
VERTEX
  8
0
  5
80000276
 10
-335.060
 20
306.176
 30
0.000000
  70
    32
  0
VERTEX
  8
0
  5
80000277
 10
-336.204
 20
306.466
 30
0.000000
  70
    32
  0
VERTEX
  8
0
  5
80000278
 10
-337.353
 20
306.740
 30
0.000000
  70
    32
  0
VERTEX
  8
0
  5
80000279
 10
-338.506
 20
306.998
 30
0.000000
  70
    32
  0
VERTEX
  8
0
  5
8000027A
 10
-339.663
 20
307.240
 30
0.000000
  70
    32
  0
VERTEX
  8
0
  5
8000027B
 10
-340.825
 20
307.466
 30
0.000000
  70
    32
  0
VERTEX
  8
0
  5
8000027C
 10
-341.991
 20
307.674
 30
0.000000
  70
    32
  0
VERTEX
  8
0
  5
8000027D
 10
-343.162
 20
307.866
 30
0.000000
  70
    32
  0
VERTEX
  8
0
  5
8000027E
 10
-344.338
 20
308.041
 30
0.000000
  70
    32
  0
VERTEX
  8
0
  5
8000027F
 10
-345.518
 20
308.198
 30
0.000000
  70
    32
  0
VERTEX
  8
0
  5
80000280
 10
-346.703
 20
308.338
 30
0.000000
  70
    32
  0
VERTEX
  8
0
  5
80000281
 10
-347.893
 20
308.459
 30
0.000000
  70
    32
  0
VERTEX
  8
0
  5
80000282
 10
-349.088
 20
308.563
 30
0.000000
  70
    32
  0
VERTEX
  8
0
  5
80000283
 10
-350.288
 20
308.648
 30
0.000000
  70
    32
  0
VERTEX
  8
0
  5
80000284
 10
-351.493
 20
308.715
 30
0.000000
  70
    32
  0
VERTEX
  8
0
  5
80000285
 10
-352.703
 20
308.763
 30
0.000000
  70
    32
  0
VERTEX
  8
0
  5
80000286
 10
-353.918
 20
308.792
 30
0.000000
  70
    32
  0
VERTEX
  8
0
  5
80000287
 10
-355.138
 20
308.802
 30
0.000000
  70
    32
  0
SEQEND
  8
0
  5
80000288
  0
ENDBLK
  5
FFBBDAE469BC01D6
  8
0
  0
BLOCK
  8
0
  2
*U18
 70
     1
 10
0.0
 20
0.0
 30
0.0
  3
*U18
  1

  0
TEXT
  5
FFBBDAE469BC01D8
  8
0
  6
CONTINUOUS
 10
-652.31006007604356
 20
335.0748113045961
 30
0.0
 40
20.0
  1
Building underlay/James
  7
ARIAL
  0
TEXT
  5
FFBBDAE469BC01D9
  8
0
  6
CONTINUOUS
 10
-652.50105598327423
 20
301.74147797126278
 30
0.0
 40
20.0
  1
Hardie rigid air barrier
  7
ARIAL
  0
TEXT
  5
FFBBDAE469BC01DA
  8
0
  6
CONTINUOUS
 10
-651.35508053989076
 20
268.0670805178749
 30
0.0
 40
20.0
  1
carefully cut to suit pipe
  7
ARIAL
  0
ENDBLK
  5
FFBBDAE469BC01DC
  8
0
  0
BLOCK
  8
0
  2
*U19
 70
     1
 10
0.0
 20
0.0
 30
0.0
  3
*U19
  1

  0
SOLID
  5
FFBBDAE469BC01DE
  8
0
  6
CONTINUOUS
 10
-171.35070673744721
 20
404.2785520978785
 30
0.0
 11
-155.13875315625859
 21
395.90164568313412
 31
0.0
 12
-173.1912194351379
 22
398.5678154545339
 32
0.0
 13
-173.1912194351379
 23
398.5678154545339
 33
0.0
  0
POLYLINE
  8
0
  5
80000289
  66
     1
 10
0.000000
 20
0.000000
 30
0.000000
  70
     8
  0
VERTEX
  8
0
  5
8000028A
 10
-172.271
 20
401.423
 30
0.000000
  70
    32
  0
VERTEX
  8
0
  5
8000028B
 10
-172.990
 20
401.657
 30
0.000000
  70
    32
  0
VERTEX
  8
0
  5
8000028C
 10
-173.709
 20
401.894
 30
0.000000
  70
    32
  0
VERTEX
  8
0
  5
8000028D
 10
-174.426
 20
402.135
 30
0.000000
  70
    32
  0
VERTEX
  8
0
  5
8000028E
 10
-175.144
 20
402.379
 30
0.000000
  70
    32
  0
VERTEX
  8
0
  5
8000028F
 10
-175.861
 20
402.626
 30
0.000000
  70
    32
  0
VERTEX
  8
0
  5
80000290
 10
-176.577
 20
402.877
 30
0.000000
  70
    32
  0
VERTEX
  8
0
  5
80000291
 10
-177.293
 20
403.131
 30
0.000000
  70
    32
  0
VERTEX
  8
0
  5
80000292
 10
-178.008
 20
403.387
 30
0.000000
  70
    32
  0
VERTEX
  8
0
  5
80000293
 10
-178.723
 20
403.647
 30
0.000000
  70
    32
  0
VERTEX
  8
0
  5
80000294
 10
-179.438
 20
403.910
 30
0.000000
  70
    32
  0
VERTEX
  8
0
  5
80000295
 10
-180.152
 20
404.175
 30
0.000000
  70
    32
  0
VERTEX
  8
0
  5
80000296
 10
-180.866
 20
404.443
 30
0.000000
  70
    32
  0
VERTEX
  8
0
  5
80000297
 10
-181.579
 20
404.714
 30
0.000000
  70
    32
  0
VERTEX
  8
0
  5
80000298
 10
-182.292
 20
404.987
 30
0.000000
  70
    32
  0
VERTEX
  8
0
  5
80000299
 10
-183.004
 20
405.263
 30
0.000000
  70
    32
  0
VERTEX
  8
0
  5
8000029A
 10
-183.716
 20
405.541
 30
0.000000
  70
    32
  0
VERTEX
  8
0
  5
8000029B
 10
-184.428
 20
405.821
 30
0.000000
  70
    32
  0
VERTEX
  8
0
  5
8000029C
 10
-185.139
 20
406.104
 30
0.000000
  70
    32
  0
VERTEX
  8
0
  5
8000029D
 10
-185.850
 20
406.388
 30
0.000000
  70
    32
  0
VERTEX
  8
0
  5
8000029E
 10
-186.561
 20
406.675
 30
0.000000
  70
    32
  0
VERTEX
  8
0
  5
8000029F
 10
-187.271
 20
406.964
 30
0.000000
  70
    32
  0
VERTEX
  8
0
  5
800002A0
 10
-187.982
 20
407.254
 30
0.000000
  70
    32
  0
VERTEX
  8
0
  5
800002A1
 10
-188.691
 20
407.546
 30
0.000000
  70
    32
  0
VERTEX
  8
0
  5
800002A2
 10
-189.401
 20
407.840
 30
0.000000
  70
    32
  0
VERTEX
  8
0
  5
800002A3
 10
-190.110
 20
408.135
 30
0.000000
  70
    32
  0
VERTEX
  8
0
  5
800002A4
 10
-190.819
 20
408.432
 30
0.000000
  70
    32
  0
VERTEX
  8
0
  5
800002A5
 10
-191.528
 20
408.731
 30
0.000000
  70
    32
  0
VERTEX
  8
0
  5
800002A6
 10
-192.237
 20
409.030
 30
0.000000
  70
    32
  0
VERTEX
  8
0
  5
800002A7
 10
-192.945
 20
409.331
 30
0.000000
  70
    32
  0
VERTEX
  8
0
  5
800002A8
 10
-193.654
 20
409.633
 30
0.000000
  70
    32
  0
VERTEX
  8
0
  5
800002A9
 10
-194.362
 20
409.936
 30
0.000000
  70
    32
  0
VERTEX
  8
0
  5
800002AA
 10
-195.070
 20
410.240
 30
0.000000
  70
    32
  0
VERTEX
  8
0
  5
800002AB
 10
-195.778
 20
410.545
 30
0.000000
  70
    32
  0
VERTEX
  8
0
  5
800002AC
 10
-196.485
 20
410.851
 30
0.000000
  70
    32
  0
VERTEX
  8
0
  5
800002AD
 10
-197.193
 20
411.157
 30
0.000000
  70
    32
  0
VERTEX
  8
0
  5
800002AE
 10
-197.901
 20
411.464
 30
0.000000
  70
    32
  0
VERTEX
  8
0
  5
800002AF
 10
-198.608
 20
411.772
 30
0.000000
  70
    32
  0
VERTEX
  8
0
  5
800002B0
 10
-199.315
 20
412.080
 30
0.000000
  70
    32
  0
VERTEX
  8
0
  5
800002B1
 10
-200.023
 20
412.389
 30
0.000000
  70
    32
  0
VERTEX
  8
0
  5
800002B2
 10
-200.730
 20
412.697
 30
0.000000
  70
    32
  0
VERTEX
  8
0
  5
800002B3
 10
-201.437
 20
413.006
 30
0.000000
  70
    32
  0
VERTEX
  8
0
  5
800002B4
 10
-202.144
 20
413.315
 30
0.000000
  70
    32
  0
VERTEX
  8
0
  5
800002B5
 10
-202.851
 20
413.625
 30
0.000000
  70
    32
  0
VERTEX
  8
0
  5
800002B6
 10
-203.559
 20
413.934
 30
0.000000
  70
    32
  0
VERTEX
  8
0
  5
800002B7
 10
-204.266
 20
414.242
 30
0.000000
  70
    32
  0
VERTEX
  8
0
  5
800002B8
 10
-204.973
 20
414.551
 30
0.000000
  70
    32
  0
VERTEX
  8
0
  5
800002B9
 10
-205.680
 20
414.860
 30
0.000000
  70
    32
  0
VERTEX
  8
0
  5
800002BA
 10
-206.388
 20
415.167
 30
0.000000
  70
    32
  0
VERTEX
  8
0
  5
800002BB
 10
-207.095
 20
415.475
 30
0.000000
  70
    32
  0
VERTEX
  8
0
  5
800002BC
 10
-207.803
 20
415.782
 30
0.000000
  70
    32
  0
VERTEX
  8
0
  5
800002BD
 10
-208.510
 20
416.088
 30
0.000000
  70
    32
  0
VERTEX
  8
0
  5
800002BE
 10
-209.218
 20
416.394
 30
0.000000
  70
    32
  0
VERTEX
  8
0
  5
800002BF
 10
-209.926
 20
416.698
 30
0.000000
  70
    32
  0
VERTEX
  8
0
  5
800002C0
 10
-210.634
 20
417.002
 30
0.000000
  70
    32
  0
VERTEX
  8
0
  5
800002C1
 10
-211.342
 20
417.305
 30
0.000000
  70
    32
  0
VERTEX
  8
0
  5
800002C2
 10
-212.051
 20
417.606
 30
0.000000
  70
    32
  0
VERTEX
  8
0
  5
800002C3
 10
-212.759
 20
417.907
 30
0.000000
  70
    32
  0
VERTEX
  8
0
  5
800002C4
 10
-213.468
 20
418.206
 30
0.000000
  70
    32
  0
VERTEX
  8
0
  5
800002C5
 10
-214.177
 20
418.504
 30
0.000000
  70
    32
  0
VERTEX
  8
0
  5
800002C6
 10
-214.886
 20
418.800
 30
0.000000
  70
    32
  0
VERTEX
  8
0
  5
800002C7
 10
-215.596
 20
419.095
 30
0.000000
  70
    32
  0
VERTEX
  8
0
  5
800002C8
 10
-216.305
 20
419.388
 30
0.000000
  70
    32
  0
VERTEX
  8
0
  5
800002C9
 10
-217.015
 20
419.680
 30
0.000000
  70
    32
  0
VERTEX
  8
0
  5
800002CA
 10
-217.725
 20
419.970
 30
0.000000
  70
    32
  0
VERTEX
  8
0
  5
800002CB
 10
-218.436
 20
420.258
 30
0.000000
  70
    32
  0
VERTEX
  8
0
  5
800002CC
 10
-219.147
 20
420.544
 30
0.000000
  70
    32
  0
VERTEX
  8
0
  5
800002CD
 10
-219.858
 20
420.827
 30
0.000000
  70
    32
  0
VERTEX
  8
0
  5
800002CE
 10
-220.569
 20
421.109
 30
0.000000
  70
    32
  0
VERTEX
  8
0
  5
800002CF
 10
-221.281
 20
421.389
 30
0.000000
  70
    32
  0
VERTEX
  8
0
  5
800002D0
 10
-221.993
 20
421.666
 30
0.000000
  70
    32
  0
VERTEX
  8
0
  5
800002D1
 10
-222.706
 20
421.941
 30
0.000000
  70
    32
  0
VERTEX
  8
0
  5
800002D2
 10
-223.419
 20
422.213
 30
0.000000
  70
    32
  0
VERTEX
  8
0
  5
800002D3
 10
-224.132
 20
422.483
 30
0.000000
  70
    32
  0
VERTEX
  8
0
  5
800002D4
 10
-224.846
 20
422.751
 30
0.000000
  70
    32
  0
VERTEX
  8
0
  5
800002D5
 10
-225.560
 20
423.015
 30
0.000000
  70
    32
  0
VERTEX
  8
0
  5
800002D6
 10
-226.275
 20
423.277
 30
0.000000
  70
    32
  0
VERTEX
  8
0
  5
800002D7
 10
-226.990
 20
423.535
 30
0.000000
  70
    32
  0
VERTEX
  8
0
  5
800002D8
 10
-227.706
 20
423.791
 30
0.000000
  70
    32
  0
VERTEX
  8
0
  5
800002D9
 10
-228.422
 20
424.044
 30
0.000000
  70
    32
  0
VERTEX
  8
0
  5
800002DA
 10
-229.138
 20
424.294
 30
0.000000
  70
    32
  0
VERTEX
  8
0
  5
800002DB
 10
-229.855
 20
424.540
 30
0.000000
  70
    32
  0
VERTEX
  8
0
  5
800002DC
 10
-230.573
 20
424.783
 30
0.000000
  70
    32
  0
VERTEX
  8
0
  5
800002DD
 10
-231.291
 20
425.022
 30
0.000000
  70
    32
  0
VERTEX
  8
0
  5
800002DE
 10
-232.010
 20
425.258
 30
0.000000
  70
    32
  0
VERTEX
  8
0
  5
800002DF
 10
-232.729
 20
425.491
 30
0.000000
  70
    32
  0
VERTEX
  8
0
  5
800002E0
 10
-233.449
 20
425.720
 30
0.000000
  70
    32
  0
VERTEX
  8
0
  5
800002E1
 10
-234.169
 20
425.945
 30
0.000000
  70
    32
  0
VERTEX
  8
0
  5
800002E2
 10
-234.890
 20
426.166
 30
0.000000
  70
    32
  0
VERTEX
  8
0
  5
800002E3
 10
-235.612
 20
426.383
 30
0.000000
  70
    32
  0
VERTEX
  8
0
  5
800002E4
 10
-236.334
 20
426.596
 30
0.000000
  70
    32
  0
VERTEX
  8
0
  5
800002E5
 10
-237.057
 20
426.805
 30
0.000000
  70
    32
  0
VERTEX
  8
0
  5
800002E6
 10
-237.780
 20
427.010
 30
0.000000
  70
    32
  0
VERTEX
  8
0
  5
800002E7
 10
-238.505
 20
427.211
 30
0.000000
  70
    32
  0
VERTEX
  8
0
  5
800002E8
 10
-239.230
 20
427.407
 30
0.000000
  70
    32
  0
VERTEX
  8
0
  5
800002E9
 10
-239.955
 20
427.599
 30
0.000000
  70
    32
  0
VERTEX
  8
0
  5
800002EA
 10
-240.682
 20
427.786
 30
0.000000
  70
    32
  0
VERTEX
  8
0
  5
800002EB
 10
-241.409
 20
427.968
 30
0.000000
  70
    32
  0
VERTEX
  8
0
  5
800002EC
 10
-242.137
 20
428.146
 30
0.000000
  70
    32
  0
VERTEX
  8
0
  5
800002ED
 10
-242.865
 20
428.319
 30
0.000000
  70
    32
  0
VERTEX
  8
0
  5
800002EE
 10
-243.594
 20
428.487
 30
0.000000
  70
    32
  0
VERTEX
  8
0
  5
800002EF
 10
-244.325
 20
428.651
 30
0.000000
  70
    32
  0
VERTEX
  8
0
  5
800002F0
 10
-245.055
 20
428.809
 30
0.000000
  70
    32
  0
VERTEX
  8
0
  5
800002F1
 10
-245.787
 20
428.962
 30
0.000000
  70
    32
  0
VERTEX
  8
0
  5
800002F2
 10
-246.520
 20
429.110
 30
0.000000
  70
    32
  0
VERTEX
  8
0
  5
800002F3
 10
-247.253
 20
429.252
 30
0.000000
  70
    32
  0
VERTEX
  8
0
  5
800002F4
 10
-247.987
 20
429.389
 30
0.000000
  70
    32
  0
VERTEX
  8
0
  5
800002F5
 10
-248.722
 20
429.521
 30
0.000000
  70
    32
  0
VERTEX
  8
0
  5
800002F6
 10
-249.458
 20
429.647
 30
0.000000
  70
    32
  0
VERTEX
  8
0
  5
800002F7
 10
-250.195
 20
429.767
 30
0.000000
  70
    32
  0
VERTEX
  8
0
  5
800002F8
 10
-250.933
 20
429.882
 30
0.000000
  70
    32
  0
VERTEX
  8
0
  5
800002F9
 10
-251.672
 20
429.990
 30
0.000000
  70
    32
  0
VERTEX
  8
0
  5
800002FA
 10
-252.411
 20
430.093
 30
0.000000
  70
    32
  0
VERTEX
  8
0
  5
800002FB
 10
-253.152
 20
430.190
 30
0.000000
  70
    32
  0
VERTEX
  8
0
  5
800002FC
 10
-253.893
 20
430.281
 30
0.000000
  70
    32
  0
VERTEX
  8
0
  5
800002FD
 10
-254.636
 20
430.365
 30
0.000000
  70
    32
  0
VERTEX
  8
0
  5
800002FE
 10
-255.379
 20
430.443
 30
0.000000
  70
    32
  0
VERTEX
  8
0
  5
800002FF
 10
-256.124
 20
430.515
 30
0.000000
  70
    32
  0
VERTEX
  8
0
  5
80000300
 10
-256.869
 20
430.581
 30
0.000000
  70
    32
  0
VERTEX
  8
0
  5
80000301
 10
-257.616
 20
430.640
 30
0.000000
  70
    32
  0
VERTEX
  8
0
  5
80000302
 10
-258.363
 20
430.692
 30
0.000000
  70
    32
  0
VERTEX
  8
0
  5
80000303
 10
-259.112
 20
430.738
 30
0.000000
  70
    32
  0
VERTEX
  8
0
  5
80000304
 10
-259.862
 20
430.777
 30
0.000000
  70
    32
  0
VERTEX
  8
0
  5
80000305
 10
-260.612
 20
430.809
 30
0.000000
  70
    32
  0
VERTEX
  8
0
  5
80000306
 10
-261.364
 20
430.834
 30
0.000000
  70
    32
  0
VERTEX
  8
0
  5
80000307
 10
-262.117
 20
430.852
 30
0.000000
  70
    32
  0
VERTEX
  8
0
  5
80000308
 10
-262.871
 20
430.862
 30
0.000000
  70
    32
  0
VERTEX
  8
0
  5
80000309
 10
-263.626
 20
430.866
 30
0.000000
  70
    32
  0
SEQEND
  8
0
  5
8000030A
  0
ENDBLK
  5
FFBBDAE469BC01E1
  8
0
  0
BLOCK
  8
0
  2
*U20
 70
     1
 10
0.0
 20
0.0
 30
0.0
  3
*U20
  1

  0
TEXT
  5
FFBBDAE469BC01E3
  8
0
  6
CONTINUOUS
 10
-651.6552169655389
 20
423.80607840961329
 30
0.0
 40
20.0
  1
CLD
  7
ARIAL
  0
TEXT
  5
FFBBDAE469BC01E4
  8
0
  6
CONTINUOUS
 10
-595.7820928181992
 20
435.47274507627992
 30
0.0
 40
10.0
  1
®
  7
ARIAL
  0
TEXT
  5
FFBBDAE469BC01E5
  8
0
  6
CONTINUOUS
 10
-595.76162897099584
 20
432.13941174294661
 30
0.0
 40
10.0
  1

  7
ARIAL
  0
TEXT
  5
FFBBDAE469BC01E6
  8
0
  6
CONTINUOUS
 10
-584.79982815244205
 20
423.80607840961329
 30
0.0
 40
20.0
  1
 Structural Cavity Battens
  7
ARIAL
  0
ENDBLK
  5
FFBBDAE469BC01E8
  8
0
  0
BLOCK
  8
0
  2
*U21
 70
     1
 10
0.0
 20
0.0
 30
0.0
  3
*U21
  1

  0
SOLID
  5
FFBBDAE469BC01EC
  8
0
  6
CONTINUOUS
 10
80.801339624191797
 20
531.92140490358645
 30
0.0
 11
98.935528374432593
 21
533.95885388960824
 31
0.0
 12
82.442360308860501
 22
526.15017876761772
 32
0.0
 13
82.442360308860501
 23
526.15017876761772
 33
0.0
  0
POLYLINE
  8
0
  5
8000030B
  66
     1
 10
0.000000
 20
0.000000
 30
0.000000
  70
     8
  0
VERTEX
  8
0
  5
8000030C
 10
81.6218
 20
529.036
 30
0.000000
  70
    32
  0
VERTEX
  8
0
  5
8000030D
 10
78.9042
 20
528.257
 30
0.000000
  70
    32
  0
VERTEX
  8
0
  5
8000030E
 10
76.1882
 20
527.466
 30
0.000000
  70
    32
  0
VERTEX
  8
0
  5
8000030F
 10
73.4738
 20
526.663
 30
0.000000
  70
    32
  0
VERTEX
  8
0
  5
80000310
 10
70.7610
 20
525.850
 30
0.000000
  70
    32
  0
VERTEX
  8
0
  5
80000311
 10
68.0498
 20
525.025
 30
0.000000
  70
    32
  0
VERTEX
  8
0
  5
80000312
 10
65.3400
 20
524.189
 30
0.000000
  70
    32
  0
VERTEX
  8
0
  5
80000313
 10
62.6317
 20
523.343
 30
0.000000
  70
    32
  0
VERTEX
  8
0
  5
80000314
 10
59.9248
 20
522.487
 30
0.000000
  70
    32
  0
VERTEX
  8
0
  5
80000315
 10
57.2193
 20
521.621
 30
0.000000
  70
    32
  0
VERTEX
  8
0
  5
80000316
 10
54.5151
 20
520.745
 30
0.000000
  70
    32
  0
VERTEX
  8
0
  5
80000317
 10
51.8122
 20
519.860
 30
0.000000
  70
    32
  0
VERTEX
  8
0
  5
80000318
 10
49.1106
 20
518.966
 30
0.000000
  70
    32
  0
VERTEX
  8
0
  5
80000319
 10
46.4102
 20
518.064
 30
0.000000
  70
    32
  0
VERTEX
  8
0
  5
8000031A
 10
43.7110
 20
517.152
 30
0.000000
  70
    32
  0
VERTEX
  8
0
  5
8000031B
 10
41.0129
 20
516.233
 30
0.000000
  70
    32
  0
VERTEX
  8
0
  5
8000031C
 10
38.3159
 20
515.306
 30
0.000000
  70
    32
  0
VERTEX
  8
0
  5
8000031D
 10
35.6199
 20
514.371
 30
0.000000
  70
    32
  0
VERTEX
  8
0
  5
8000031E
 10
32.9250
 20
513.429
 30
0.000000
  70
    32
  0
VERTEX
  8
0
  5
8000031F
 10
30.2310
 20
512.480
 30
0.000000
  70
    32
  0
VERTEX
  8
0
  5
80000320
 10
27.5380
 20
511.525
 30
0.000000
  70
    32
  0
VERTEX
  8
0
  5
80000321
 10
24.8459
 20
510.563
 30
0.000000
  70
    32
  0
VERTEX
  8
0
  5
80000322
 10
22.1546
 20
509.594
 30
0.000000
  70
    32
  0
VERTEX
  8
0
  5
80000323
 10
19.4642
 20
508.620
 30
0.000000
  70
    32
  0
VERTEX
  8
0
  5
80000324
 10
16.7745
 20
507.641
 30
0.000000
  70
    32
  0
VERTEX
  8
0
  5
80000325
 10
14.0855
 20
506.656
 30
0.000000
  70
    32
  0
VERTEX
  8
0
  5
80000326
 10
11.3973
 20
505.666
 30
0.000000
  70
    32
  0
VERTEX
  8
0
  5
80000327
 10
8.70969
 20
504.671
 30
0.000000
  70
    32
  0
VERTEX
  8
0
  5
80000328
 10
6.02271
 20
503.672
 30
0.000000
  70
    32
  0
VERTEX
  8
0
  5
80000329
 10
3.33630
 20
502.669
 30
0.000000
  70
    32
  0
VERTEX
  8
0
  5
8000032A
 10
0.650428
 20
501.662
 30
0.000000
  70
    32
  0
VERTEX
  8
0
  5
8000032B
 10
-2.03495
 20
500.652
 30
0.000000
  70
    32
  0
VERTEX
  8
0
  5
8000032C
 10
-4.71987
 20
499.638
 30
0.000000
  70
    32
  0
VERTEX
  8
0
  5
8000032D
 10
-7.40438
 20
498.621
 30
0.000000
  70
    32
  0
VERTEX
  8
0
  5
8000032E
 10
-10.0885
 20
497.602
 30
0.000000
  70
    32
  0
VERTEX
  8
0
  5
8000032F
 10
-12.7723
 20
496.580
 30
0.000000
  70
    32
  0
VERTEX
  8
0
  5
80000330
 10
-15.4558
 20
495.556
 30
0.000000
  70
    32
  0
VERTEX
  8
0
  5
80000331
 10
-18.1391
 20
494.530
 30
0.000000
  70
    32
  0
VERTEX
  8
0
  5
80000332
 10
-20.8221
 20
493.503
 30
0.000000
  70
    32
  0
VERTEX
  8
0
  5
80000333
 10
-23.5050
 20
492.474
 30
0.000000
  70
    32
  0
VERTEX
  8
0
  5
80000334
 10
-26.1877
 20
491.445
 30
0.000000
  70
    32
  0
VERTEX
  8
0
  5
80000335
 10
-28.8704
 20
490.415
 30
0.000000
  70
    32
  0
VERTEX
  8
0
  5
80000336
 10
-31.5529
 20
489.384
 30
0.000000
  70
    32
  0
VERTEX
  8
0
  5
80000337
 10
-34.2355
 20
488.354
 30
0.000000
  70
    32
  0
VERTEX
  8
0
  5
80000338
 10
-36.9181
 20
487.323
 30
0.000000
  70
    32
  0
VERTEX
  8
0
  5
80000339
 10
-39.6008
 20
486.293
 30
0.000000
  70
    32
  0
VERTEX
  8
0
  5
8000033A
 10
-42.2835
 20
485.264
 30
0.000000
  70
    32
  0
VERTEX
  8
0
  5
8000033B
 10
-44.9665
 20
484.236
 30
0.000000
  70
    32
  0
VERTEX
  8
0
  5
8000033C
 10
-47.6496
 20
483.209
 30
0.000000
  70
    32
  0
VERTEX
  8
0
  5
8000033D
 10
-50.3329
 20
482.184
 30
0.000000
  70
    32
  0
VERTEX
  8
0
  5
8000033E
 10
-53.0165
 20
481.161
 30
0.000000
  70
    32
  0
VERTEX
  8
0
  5
8000033F
 10
-55.7004
 20
480.140
 30
0.000000
  70
    32
  0
VERTEX
  8
0
  5
80000340
 10
-58.3847
 20
479.121
 30
0.000000
  70
    32
  0
VERTEX
  8
0
  5
80000341
 10
-61.0693
 20
478.105
 30
0.000000
  70
    32
  0
VERTEX
  8
0
  5
80000342
 10
-63.7544
 20
477.093
 30
0.000000
  70
    32
  0
VERTEX
  8
0
  5
80000343
 10
-66.4399
 20
476.083
 30
0.000000
  70
    32
  0
VERTEX
  8
0
  5
80000344
 10
-69.1260
 20
475.077
 30
0.000000
  70
    32
  0
VERTEX
  8
0
  5
80000345
 10
-71.8126
 20
474.076
 30
0.000000
  70
    32
  0
VERTEX
  8
0
  5
80000346
 10
-74.4997
 20
473.078
 30
0.000000
  70
    32
  0
VERTEX
  8
0
  5
80000347
 10
-77.1875
 20
472.085
 30
0.000000
  70
    32
  0
VERTEX
  8
0
  5
80000348
 10
-79.8760
 20
471.097
 30
0.000000
  70
    32
  0
VERTEX
  8
0
  5
80000349
 10
-82.5652
 20
470.114
 30
0.000000
  70
    32
  0
VERTEX
  8
0
  5
8000034A
 10
-85.2551
 20
469.136
 30
0.000000
  70
    32
  0
VERTEX
  8
0
  5
8000034B
 10
-87.9459
 20
468.164
 30
0.000000
  70
    32
  0
VERTEX
  8
0
  5
8000034C
 10
-90.6374
 20
467.197
 30
0.000000
  70
    32
  0
VERTEX
  8
0
  5
8000034D
 10
-93.3298
 20
466.237
 30
0.000000
  70
    32
  0
VERTEX
  8
0
  5
8000034E
 10
-96.0232
 20
465.284
 30
0.000000
  70
    32
  0
VERTEX
  8
0
  5
8000034F
 10
-98.7174
 20
464.337
 30
0.000000
  70
    32
  0
VERTEX
  8
0
  5
80000350
 10
-101.413
 20
463.398
 30
0.000000
  70
    32
  0
VERTEX
  8
0
  5
80000351
 10
-104.109
 20
462.465
 30
0.000000
  70
    32
  0
VERTEX
  8
0
  5
80000352
 10
-106.806
 20
461.541
 30
0.000000
  70
    32
  0
VERTEX
  8
0
  5
80000353
 10
-109.505
 20
460.624
 30
0.000000
  70
    32
  0
VERTEX
  8
0
  5
80000354
 10
-112.204
 20
459.716
 30
0.000000
  70
    32
  0
VERTEX
  8
0
  5
80000355
 10
-114.905
 20
458.816
 30
0.000000
  70
    32
  0
VERTEX
  8
0
  5
80000356
 10
-117.607
 20
457.925
 30
0.000000
  70
    32
  0
VERTEX
  8
0
  5
80000357
 10
-120.311
 20
457.043
 30
0.000000
  70
    32
  0
VERTEX
  8
0
  5
80000358
 10
-123.015
 20
456.171
 30
0.000000
  70
    32
  0
VERTEX
  8
0
  5
80000359
 10
-125.721
 20
455.308
 30
0.000000
  70
    32
  0
VERTEX
  8
0
  5
8000035A
 10
-128.429
 20
454.455
 30
0.000000
  70
    32
  0
VERTEX
  8
0
  5
8000035B
 10
-131.137
 20
453.613
 30
0.000000
  70
    32
  0
VERTEX
  8
0
  5
8000035C
 10
-133.848
 20
452.781
 30
0.000000
  70
    32
  0
VERTEX
  8
0
  5
8000035D
 10
-136.559
 20
451.959
 30
0.000000
  70
    32
  0
VERTEX
  8
0
  5
8000035E
 10
-139.273
 20
451.149
 30
0.000000
  70
    32
  0
VERTEX
  8
0
  5
8000035F
 10
-141.988
 20
450.351
 30
0.000000
  70
    32
  0
VERTEX
  8
0
  5
80000360
 10
-144.704
 20
449.564
 30
0.000000
  70
    32
  0
VERTEX
  8
0
  5
80000361
 10
-147.422
 20
448.789
 30
0.000000
  70
    32
  0
VERTEX
  8
0
  5
80000362
 10
-150.142
 20
448.026
 30
0.000000
  70
    32
  0
VERTEX
  8
0
  5
80000363
 10
-152.864
 20
447.276
 30
0.000000
  70
    32
  0
VERTEX
  8
0
  5
80000364
 10
-155.587
 20
446.538
 30
0.000000
  70
    32
  0
VERTEX
  8
0
  5
80000365
 10
-158.313
 20
445.814
 30
0.000000
  70
    32
  0
VERTEX
  8
0
  5
80000366
 10
-161.040
 20
445.103
 30
0.000000
  70
    32
  0
VERTEX
  8
0
  5
80000367
 10
-163.769
 20
444.406
 30
0.000000
  70
    32
  0
VERTEX
  8
0
  5
80000368
 10
-166.500
 20
443.723
 30
0.000000
  70
    32
  0
VERTEX
  8
0
  5
80000369
 10
-169.233
 20
443.055
 30
0.000000
  70
    32
  0
VERTEX
  8
0
  5
8000036A
 10
-171.968
 20
442.400
 30
0.000000
  70
    32
  0
VERTEX
  8
0
  5
8000036B
 10
-174.705
 20
441.761
 30
0.000000
  70
    32
  0
VERTEX
  8
0
  5
8000036C
 10
-177.444
 20
441.137
 30
0.000000
  70
    32
  0
VERTEX
  8
0
  5
8000036D
 10
-180.186
 20
440.528
 30
0.000000
  70
    32
  0
VERTEX
  8
0
  5
8000036E
 10
-182.929
 20
439.935
 30
0.000000
  70
    32
  0
VERTEX
  8
0
  5
8000036F
 10
-185.675
 20
439.358
 30
0.000000
  70
    32
  0
VERTEX
  8
0
  5
80000370
 10
-188.423
 20
438.797
 30
0.000000
  70
    32
  0
VERTEX
  8
0
  5
80000371
 10
-191.174
 20
438.253
 30
0.000000
  70
    32
  0
VERTEX
  8
0
  5
80000372
 10
-193.926
 20
437.725
 30
0.000000
  70
    32
  0
VERTEX
  8
0
  5
80000373
 10
-196.681
 20
437.215
 30
0.000000
  70
    32
  0
VERTEX
  8
0
  5
80000374
 10
-199.439
 20
436.723
 30
0.000000
  70
    32
  0
VERTEX
  8
0
  5
80000375
 10
-202.199
 20
436.248
 30
0.000000
  70
    32
  0
VERTEX
  8
0
  5
80000376
 10
-204.962
 20
435.791
 30
0.000000
  70
    32
  0
VERTEX
  8
0
  5
80000377
 10
-207.727
 20
435.352
 30
0.000000
  70
    32
  0
VERTEX
  8
0
  5
80000378
 10
-210.494
 20
434.932
 30
0.000000
  70
    32
  0
VERTEX
  8
0
  5
80000379
 10
-213.265
 20
434.531
 30
0.000000
  70
    32
  0
VERTEX
  8
0
  5
8000037A
 10
-216.038
 20
434.149
 30
0.000000
  70
    32
  0
VERTEX
  8
0
  5
8000037B
 10
-218.813
 20
433.786
 30
0.000000
  70
    32
  0
VERTEX
  8
0
  5
8000037C
 10
-221.592
 20
433.443
 30
0.000000
  70
    32
  0
VERTEX
  8
0
  5
8000037D
 10
-224.373
 20
433.121
 30
0.000000
  70
    32
  0
VERTEX
  8
0
  5
8000037E
 10
-227.157
 20
432.818
 30
0.000000
  70
    32
  0
VERTEX
  8
0
  5
8000037F
 10
-229.944
 20
432.536
 30
0.000000
  70
    32
  0
VERTEX
  8
0
  5
80000380
 10
-232.734
 20
432.275
 30
0.000000
  70
    32
  0
VERTEX
  8
0
  5
80000381
 10
-235.527
 20
432.035
 30
0.000000
  70
    32
  0
VERTEX
  8
0
  5
80000382
 10
-238.323
 20
431.817
 30
0.000000
  70
    32
  0
VERTEX
  8
0
  5
80000383
 10
-241.122
 20
431.621
 30
0.000000
  70
    32
  0
VERTEX
  8
0
  5
80000384
 10
-243.923
 20
431.446
 30
0.000000
  70
    32
  0
VERTEX
  8
0
  5
80000385
 10
-246.729
 20
431.294
 30
0.000000
  70
    32
  0
VERTEX
  8
0
  5
80000386
 10
-249.537
 20
431.164
 30
0.000000
  70
    32
  0
VERTEX
  8
0
  5
80000387
 10
-252.348
 20
431.058
 30
0.000000
  70
    32
  0
VERTEX
  8
0
  5
80000388
 10
-255.163
 20
430.974
 30
0.000000
  70
    32
  0
VERTEX
  8
0
  5
80000389
 10
-257.981
 20
430.914
 30
0.000000
  70
    32
  0
VERTEX
  8
0
  5
8000038A
 10
-260.802
 20
430.878
 30
0.000000
  70
    32
  0
VERTEX
  8
0
  5
8000038B
 10
-263.626
 20
430.866
 30
0.000000
  70
    32
  0
SEQEND
  8
0
  5
8000038C
  0
ENDBLK
  5
FFBBDAE469BC01EF
  8
0
  0
ENDSEC
  0
SECTION
  2
ENTITIES
  0
INSERT
  5
FFBBDAE469BBFB48
  8
0
  6
CONTINUOUS
  2
*U6
 10
0.0
 20
0.0
 30
0.0
1001
ACAD
1002
{
1000
R14_HATCH_DATA
1000
FFBBDAE469BBFB48
1011
1.0
1021
0.0
1031
0.0
1021
0.0
1031
0.0
1011
0.0
1021
0.0
1031
0.0
1021
1.0
1031
0.0
1011
0.0
1021
0.0
1031
0.0
1021
0.0
1031
1.0
1040
0.0
1010
0.0
1020
0.0
1030
1.0
1000
SOLID
1070
     1
1070
     1
1071
        1
1071
        5
1071
        4
1070
     3
1040
151.55444566227919
1040
212.49999999999909
1040
25.0
1040
43.301270189221903
1040
0.816674965497519
1040
3.1415926535897931
1040
6.2831853071795862
1070
     0
1070
     1
1040
176.55444566227541
1040
255.80127018922269
1040
154.90381056766481
1040
268.30127018922241
1070
     3
1040
129.90381056766819
1040
224.99999999999909
1040
25.0
1040
43.301270189221903
1040
0.816674965497519
1040
0.0
1040
3.1415926535897931
1070
     1
1070
     1
1040
104.9038105676711
1040
181.69872981077501
1040
126.5544456622827
1040
169.19872981077461
1071
        4
1005
FFBBDAE469BBFB62
1005
FFBBDAE469BBFB4A
1005
FFBBDAE469BBFB4D
1005
FFBBDAE469BBFB4C
1070
     0
1070
     1
1040
1.271693417684276
1071
        1
1040
104.092473989418
1040
230.58879565947561
1040
0.0
1002
}
  0
INSERT
  5
FFBBDAE469BBFB49
  8
0
  6
CONTINUOUS
  2
*U7
 10
0.0
 20
0.0
 30
0.0
1001
ACAD
1002
{
1000
R14_HATCH_DATA
1000
FFBBDAE469BBFB49
1011
1.0
1021
0.0
1031
0.0
1021
0.0
1031
0.0
1011
0.0
1021
0.0
1031
0.0
1021
1.0
1031
0.0
1011
0.0
1021
0.0
1031
0.0
1021
0.0
1031
1.0
1040
0.0
1010
0.0
1020
0.0
1030
1.0
1000
SOLID
1070
     1
1070
     1
1071
        1
1071
        5
1071
        7
1070
     1
1040
259.80762113533092
1040
449.99999999999841
1040
0.0
1040
299.99999999999841
1070
     1
1040
0.0
1040
299.99999999999841
1040
-0.0000000000000284
1040
-0.0000000000016485
1070
     1
1040
-0.0000000000000284
1040
-0.0000000000016485
1040
209.80762113533271
1040
121.1324865405181
1070
     1
1040
209.80762113533271
1040
121.1324865405181
1040
104.903810567671
1040
181.69872981077509
1070
     3
1040
129.90381056766819
1040
224.99999999999909
1040
25.0
1040
43.301270189221903
1040
0.816674965497519
1040
3.1415926535897931
1040
6.2831853071795862
1070
     0
1070
     1
1040
154.90381056766489
1040
268.30127018922241
1040
259.80762113533092
1040
207.73502691896289
1070
     1
1040
259.80762113533092
1040
207.73502691896289
1040
259.80762113533092
1040
449.99999999999841
1071
        7
1005
FFBBDAE469BBFB4E
1005
FFBBDAE469BBFB50
1005
FFBBDAE469BBFB51
1005
FFBBDAE469BBFB4C
1005
FFBBDAE469BBFB4D
1005
FFBBDAE469BBFB4A
1005
FFBBDAE469BBFB4F
1070
     0
1070
     1
1040
1.271693417684276
1071
        1
1040
204.61714784583461
1040
311.97719354835641
1040
0.0
1002
}
  0
LINE
  5
FFBBDAE469BBFB4A
  8
0
  6
CONTINUOUS
 10
154.90381056766819
 20
268.30127018922047
 30
0.0
 11
371.41016151377698
 21
143.30127018922099
 31
0.0
  0
POLYLINE
  5
FFBBDAE469BBFB4B
  8
0
  6
CONTINUOUS
 10
371.41016151377698
 20
143.30127018922099
 30
0.0
 66
     1
 70
     8
  0
VERTEX
  8
0
  5
8000038D
 10
371.410
 20
143.301
 30
0.000000
  70
    32
  0
VERTEX
  8
0
  5
8000038E
 10
369.645
 20
144.251
 30
0.000000
  70
    32
  0
VERTEX
  8
0
  5
8000038F
 10
367.824
 20
145.094
 30
0.000000
  70
    32
  0
VERTEX
  8
0
  5
80000390
 10
365.951
 20
145.828
 30
0.000000
  70
    32
  0
VERTEX
  8
0
  5
80000391
 10
364.031
 20
146.452
 30
0.000000
  70
    32
  0
VERTEX
  8
0
  5
80000392
 10
362.068
 20
146.964
 30
0.000000
  70
    32
  0
VERTEX
  8
0
  5
80000393
 10
360.068
 20
147.363
 30
0.000000
  70
    32
  0
VERTEX
  8
0
  5
80000394
 10
358.035
 20
147.648
 30
0.000000
  70
    32
  0
VERTEX
  8
0
  5
80000395
 10
355.974
 20
147.818
 30
0.000000
  70
    32
  0
VERTEX
  8
0
  5
80000396
 10
353.890
 20
147.873
 30
0.000000
  70
    32
  0
VERTEX
  8
0
  5
80000397
 10
351.788
 20
147.813
 30
0.000000
  70
    32
  0
VERTEX
  8
0
  5
80000398
 10
349.673
 20
147.637
 30
0.000000
  70
    32
  0
VERTEX
  8
0
  5
80000399
 10
347.550
 20
147.347
 30
0.000000
  70
    32
  0
VERTEX
  8
0
  5
8000039A
 10
345.425
 20
146.942
 30
0.000000
  70
    32
  0
VERTEX
  8
0
  5
8000039B
 10
343.301
 20
146.425
 30
0.000000
  70
    32
  0
VERTEX
  8
0
  5
8000039C
 10
341.186
 20
145.795
 30
0.000000
  70
    32
  0
VERTEX
  8
0
  5
8000039D
 10
339.082
 20
145.056
 30
0.000000
  70
    32
  0
VERTEX
  8
0
  5
8000039E
 10
336.997
 20
144.207
 30
0.000000
  70
    32
  0
VERTEX
  8
0
  5
8000039F
 10
334.934
 20
143.252
 30
0.000000
  70
    32
  0
VERTEX
  8
0
  5
800003A0
 10
332.899
 20
142.194
 30
0.000000
  70
    32
  0
VERTEX
  8
0
  5
800003A1
 10
330.896
 20
141.033
 30
0.000000
  70
    32
  0
VERTEX
  8
0
  5
800003A2
 10
328.931
 20
139.773
 30
0.000000
  70
    32
  0
VERTEX
  8
0
  5
800003A3
 10
327.008
 20
138.418
 30
0.000000
  70
    32
  0
VERTEX
  8
0
  5
800003A4
 10
325.131
 20
136.970
 30
0.000000
  70
    32
  0
VERTEX
  8
0
  5
800003A5
 10
323.306
 20
135.433
 30
0.000000
  70
    32
  0
VERTEX
  8
0
  5
800003A6
 10
321.537
 20
133.811
 30
0.000000
  70
    32
  0
VERTEX
  8
0
  5
800003A7
 10
319.827
 20
132.107
 30
0.000000
  70
    32
  0
VERTEX
  8
0
  5
800003A8
 10
318.181
 20
130.326
 30
0.000000
  70
    32
  0
VERTEX
  8
0
  5
800003A9
 10
316.604
 20
128.472
 30
0.000000
  70
    32
  0
VERTEX
  8
0
  5
800003AA
 10
315.098
 20
126.550
 30
0.000000
  70
    32
  0
VERTEX
  8
0
  5
800003AB
 10
313.668
 20
124.563
 30
0.000000
  70
    32
  0
VERTEX
  8
0
  5
800003AC
 10
312.316
 20
122.517
 30
0.000000
  70
    32
  0
VERTEX
  8
0
  5
800003AD
 10
311.047
 20
120.417
 30
0.000000
  70
    32
  0
VERTEX
  8
0
  5
800003AE
 10
309.863
 20
118.268
 30
0.000000
  70
    32
  0
VERTEX
  8
0
  5
800003AF
 10
308.767
 20
116.074
 30
0.000000
  70
    32
  0
VERTEX
  8
0
  5
800003B0
 10
307.762
 20
113.842
 30
0.000000
  70
    32
  0
VERTEX
  8
0
  5
800003B1
 10
306.849
 20
111.577
 30
0.000000
  70
    32
  0
VERTEX
  8
0
  5
800003B2
 10
306.032
 20
109.284
 30
0.000000
  70
    32
  0
VERTEX
  8
0
  5
800003B3
 10
305.313
 20
106.968
 30
0.000000
  70
    32
  0
VERTEX
  8
0
  5
800003B4
 10
304.692
 20
104.636
 30
0.000000
  70
    32
  0
VERTEX
  8
0
  5
800003B5
 10
304.172
 20
102.292
 30
0.000000
  70
    32
  0
VERTEX
  8
0
  5
800003B6
 10
303.753
 20
99.9430
 30
0.000000
  70
    32
  0
VERTEX
  8
0
  5
800003B7
 10
303.438
 20
97.5940
 30
0.000000
  70
    32
  0
VERTEX
  8
0
  5
800003B8
 10
303.226
 20
95.2508
 30
0.000000
  70
    32
  0
VERTEX
  8
0
  5
800003B9
 10
303.118
 20
92.9191
 30
0.000000
  70
    32
  0
VERTEX
  8
0
  5
800003BA
 10
303.114
 20
90.6045
 30
0.000000
  70
    32
  0
VERTEX
  8
0
  5
800003BB
 10
303.214
 20
88.3124
 30
0.000000
  70
    32
  0
VERTEX
  8
0
  5
800003BC
 10
303.419
 20
86.0486
 30
0.000000
  70
    32
  0
VERTEX
  8
0
  5
800003BD
 10
303.727
 20
83.8183
 30
0.000000
  70
    32
  0
VERTEX
  8
0
  5
800003BE
 10
304.138
 20
81.6270
 30
0.000000
  70
    32
  0
VERTEX
  8
0
  5
800003BF
 10
304.651
 20
79.4800
 30
0.000000
  70
    32
  0
VERTEX
  8
0
  5
800003C0
 10
305.264
 20
77.3824
 30
0.000000
  70
    32
  0
VERTEX
  8
0
  5
800003C1
 10
305.977
 20
75.3393
 30
0.000000
  70
    32
  0
VERTEX
  8
0
  5
800003C2
 10
306.787
 20
73.3556
 30
0.000000
  70
    32
  0
VERTEX
  8
0
  5
800003C3
 10
307.692
 20
71.4361
 30
0.000000
  70
    32
  0
VERTEX
  8
0
  5
800003C4
 10
308.691
 20
69.5855
 30
0.000000
  70
    32
  0
VERTEX
  8
0
  5
800003C5
 10
309.780
 20
67.8080
 30
0.000000
  70
    32
  0
VERTEX
  8
0
  5
800003C6
 10
310.958
 20
66.1082
 30
0.000000
  70
    32
  0
VERTEX
  8
0
  5
800003C7
 10
312.221
 20
64.4900
 30
0.000000
  70
    32
  0
VERTEX
  8
0
  5
800003C8
 10
313.567
 20
62.9573
 30
0.000000
  70
    32
  0
VERTEX
  8
0
  5
800003C9
 10
314.992
 20
61.5139
 30
0.000000
  70
    32
  0
VERTEX
  8
0
  5
800003CA
 10
316.492
 20
60.1632
 30
0.000000
  70
    32
  0
VERTEX
  8
0
  5
800003CB
 10
318.064
 20
58.9084
 30
0.000000
  70
    32
  0
VERTEX
  8
0
  5
800003CC
 10
319.705
 20
57.7527
 30
0.000000
  70
    32
  0
VERTEX
  8
0
  5
800003CD
 10
321.410
 20
56.6987
 30
0.000000
  70
    32
  0
VERTEX
  8
0
  5
800003CE
 10
323.175
 20
55.7491
 30
0.000000
  70
    32
  0
VERTEX
  8
0
  5
800003CF
 10
324.997
 20
54.9060
 30
0.000000
  70
    32
  0
VERTEX
  8
0
  5
800003D0
 10
326.870
 20
54.1716
 30
0.000000
  70
    32
  0
VERTEX
  8
0
  5
800003D1
 10
328.790
 20
53.5476
 30
0.000000
  70
    32
  0
VERTEX
  8
0
  5
800003D2
 10
330.752
 20
53.0355
 30
0.000000
  70
    32
  0
VERTEX
  8
0
  5
800003D3
 10
332.752
 20
52.6366
 30
0.000000
  70
    32
  0
VERTEX
  8
0
  5
800003D4
 10
334.785
 20
52.3517
 30
0.000000
  70
    32
  0
VERTEX
  8
0
  5
800003D5
 10
336.846
 20
52.1816
 30
0.000000
  70
    32
  0
VERTEX
  8
0
  5
800003D6
 10
338.930
 20
52.1268
 30
0.000000
  70
    32
  0
VERTEX
  8
0
  5
800003D7
 10
341.032
 20
52.1872
 30
0.000000
  70
    32
  0
VERTEX
  8
0
  5
800003D8
 10
343.147
 20
52.3629
 30
0.000000
  70
    32
  0
VERTEX
  8
0
  5
800003D9
 10
345.270
 20
52.6533
 30
0.000000
  70
    32
  0
VERTEX
  8
0
  5
800003DA
 10
347.396
 20
53.0578
 30
0.000000
  70
    32
  0
VERTEX
  8
0
  5
800003DB
 10
349.519
 20
53.5753
 30
0.000000
  70
    32
  0
VERTEX
  8
0
  5
800003DC
 10
351.635
 20
54.2047
 30
0.000000
  70
    32
  0
VERTEX
  8
0
  5
800003DD
 10
353.738
 20
54.9445
 30
0.000000
  70
    32
  0
VERTEX
  8
0
  5
800003DE
 10
355.823
 20
55.7927
 30
0.000000
  70
    32
  0
VERTEX
  8
0
  5
800003DF
 10
357.886
 20
56.7475
 30
0.000000
  70
    32
  0
VERTEX
  8
0
  5
800003E0
 10
359.922
 20
57.8065
 30
0.000000
  70
    32
  0
VERTEX
  8
0
  5
800003E1
 10
361.924
 20
58.9671
 30
0.000000
  70
    32
  0
VERTEX
  8
0
  5
800003E2
 10
363.890
 20
60.2266
 30
0.000000
  70
    32
  0
VERTEX
  8
0
  5
800003E3
 10
365.813
 20
61.5818
 30
0.000000
  70
    32
  0
VERTEX
  8
0
  5
800003E4
 10
367.689
 20
63.0297
 30
0.000000
  70
    32
  0
VERTEX
  8
0
  5
800003E5
 10
369.514
 20
64.5666
 30
0.000000
  70
    32
  0
VERTEX
  8
0
  5
800003E6
 10
371.284
 20
66.1889
 30
0.000000
  70
    32
  0
VERTEX
  8
0
  5
800003E7
 10
372.993
 20
67.8926
 30
0.000000
  70
    32
  0
VERTEX
  8
0
  5
800003E8
 10
374.639
 20
69.6736
 30
0.000000
  70
    32
  0
VERTEX
  8
0
  5
800003E9
 10
376.216
 20
71.5278
 30
0.000000
  70
    32
  0
VERTEX
  8
0
  5
800003EA
 10
377.722
 20
73.4505
 30
0.000000
  70
    32
  0
VERTEX
  8
0
  5
800003EB
 10
379.153
 20
75.4372
 30
0.000000
  70
    32
  0
VERTEX
  8
0
  5
800003EC
 10
380.504
 20
77.4830
 30
0.000000
  70
    32
  0
VERTEX
  8
0
  5
800003ED
 10
381.773
 20
79.5831
 30
0.000000
  70
    32
  0
VERTEX
  8
0
  5
800003EE
 10
382.957
 20
81.7324
 30
0.000000
  70
    32
  0
VERTEX
  8
0
  5
800003EF
 10
384.053
 20
83.9257
 30
0.000000
  70
    32
  0
VERTEX
  8
0
  5
800003F0
 10
385.059
 20
86.1577
 30
0.000000
  70
    32
  0
VERTEX
  8
0
  5
800003F1
 10
385.971
 20
88.4231
 30
0.000000
  70
    32
  0
VERTEX
  8
0
  5
800003F2
 10
386.788
 20
90.7163
 30
0.000000
  70
    32
  0
VERTEX
  8
0
  5
800003F3
 10
387.508
 20
93.0320
 30
0.000000
  70
    32
  0
VERTEX
  8
0
  5
800003F4
 10
388.128
 20
95.3644
 30
0.000000
  70
    32
  0
VERTEX
  8
0
  5
800003F5
 10
388.648
 20
97.7079
 30
0.000000
  70
    32
  0
VERTEX
  8
0
  5
800003F6
 10
389.067
 20
100.057
 30
0.000000
  70
    32
  0
VERTEX
  8
0
  5
800003F7
 10
389.383
 20
102.406
 30
0.000000
  70
    32
  0
VERTEX
  8
0
  5
800003F8
 10
389.595
 20
104.749
 30
0.000000
  70
    32
  0
VERTEX
  8
0
  5
800003F9
 10
389.703
 20
107.081
 30
0.000000
  70
    32
  0
VERTEX
  8
0
  5
800003FA
 10
389.707
 20
109.396
 30
0.000000
  70
    32
  0
VERTEX
  8
0
  5
800003FB
 10
389.606
 20
111.688
 30
0.000000
  70
    32
  0
VERTEX
  8
0
  5
800003FC
 10
389.401
 20
113.951
 30
0.000000
  70
    32
  0
VERTEX
  8
0
  5
800003FD
 10
389.093
 20
116.182
 30
0.000000
  70
    32
  0
VERTEX
  8
0
  5
800003FE
 10
388.682
 20
118.373
 30
0.000000
  70
    32
  0
VERTEX
  8
0
  5
800003FF
 10
388.170
 20
120.520
 30
0.000000
  70
    32
  0
VERTEX
  8
0
  5
80000400
 10
387.556
 20
122.618
 30
0.000000
  70
    32
  0
VERTEX
  8
0
  5
80000401
 10
386.844
 20
124.661
 30
0.000000
  70
    32
  0
VERTEX
  8
0
  5
80000402
 10
386.034
 20
126.644
 30
0.000000
  70
    32
  0
VERTEX
  8
0
  5
80000403
 10
385.128
 20
128.564
 30
0.000000
  70
    32
  0
VERTEX
  8
0
  5
80000404
 10
384.130
 20
130.415
 30
0.000000
  70
    32
  0
VERTEX
  8
0
  5
80000405
 10
383.040
 20
132.192
 30
0.000000
  70
    32
  0
VERTEX
  8
0
  5
80000406
 10
381.862
 20
133.892
 30
0.000000
  70
    32
  0
VERTEX
  8
0
  5
80000407
 10
380.599
 20
135.510
 30
0.000000
  70
    32
  0
VERTEX
  8
0
  5
80000408
 10
379.253
 20
137.043
 30
0.000000
  70
    32
  0
VERTEX
  8
0
  5
80000409
 10
377.829
 20
138.486
 30
0.000000
  70
    32
  0
VERTEX
  8
0
  5
8000040A
 10
376.328
 20
139.837
 30
0.000000
  70
    32
  0
VERTEX
  8
0
  5
8000040B
 10
374.756
 20
141.092
 30
0.000000
  70
    32
  0
VERTEX
  8
0
  5
8000040C
 10
373.115
 20
142.247
 30
0.000000
  70
    32
  0
VERTEX
  8
0
  5
8000040D
 10
371.410
 20
143.301
 30
0.000000
  70
    32
  0
SEQEND
  8
0
  5
8000040E
  0
LINE
  5
FFBBDAE469BBFB4C
  8
0
  6
CONTINUOUS
 10
104.9038105676682
 20
181.69872981077671
 30
0.0
 11
321.41016151377698
 21
56.698729810777202
 31
0.0
  0
POLYLINE
  5
FFBBDAE469BBFB4D
  8
0
  6
CONTINUOUS
 10
154.90381056766819
 20
268.30127018922099
 30
0.0
 66
     1
 70
     8
  0
VERTEX
  8
0
  5
8000040F
 10
154.904
 20
268.301
 30
0.000000
  70
    32
  0
VERTEX
  8
0
  5
80000410
 10
154.028
 20
268.789
 30
0.000000
  70
    32
  0
VERTEX
  8
0
  5
80000411
 10
153.139
 20
269.251
 30
0.000000
  70
    32
  0
VERTEX
  8
0
  5
80000412
 10
152.235
 20
269.686
 30
0.000000
  70
    32
  0
VERTEX
  8
0
  5
80000413
 10
151.317
 20
270.094
 30
0.000000
  70
    32
  0
VERTEX
  8
0
  5
80000414
 10
150.387
 20
270.475
 30
0.000000
  70
    32
  0
VERTEX
  8
0
  5
80000415
 10
149.444
 20
270.828
 30
0.000000
  70
    32
  0
VERTEX
  8
0
  5
80000416
 10
148.490
 20
271.154
 30
0.000000
  70
    32
  0
VERTEX
  8
0
  5
80000417
 10
147.524
 20
271.452
 30
0.000000
  70
    32
  0
VERTEX
  8
0
  5
80000418
 10
146.548
 20
271.723
 30
0.000000
  70
    32
  0
VERTEX
  8
0
  5
80000419
 10
145.562
 20
271.964
 30
0.000000
  70
    32
  0
VERTEX
  8
0
  5
8000041A
 10
144.566
 20
272.178
 30
0.000000
  70
    32
  0
VERTEX
  8
0
  5
8000041B
 10
143.562
 20
272.363
 30
0.000000
  70
    32
  0
VERTEX
  8
0
  5
8000041C
 10
142.549
 20
272.520
 30
0.000000
  70
    32
  0
VERTEX
  8
0
  5
8000041D
 10
141.529
 20
272.648
 30
0.000000
  70
    32
  0
VERTEX
  8
0
  5
8000041E
 10
140.502
 20
272.748
 30
0.000000
  70
    32
  0
VERTEX
  8
0
  5
8000041F
 10
139.468
 20
272.818
 30
0.000000
  70
    32
  0
VERTEX
  8
0
  5
80000420
 10
138.428
 20
272.860
 30
0.000000
  70
    32
  0
VERTEX
  8
0
  5
80000421
 10
137.384
 20
272.873
 30
0.000000
  70
    32
  0
VERTEX
  8
0
  5
80000422
 10
136.335
 20
272.857
 30
0.000000
  70
    32
  0
VERTEX
  8
0
  5
80000423
 10
135.282
 20
272.813
 30
0.000000
  70
    32
  0
VERTEX
  8
0
  5
80000424
 10
134.226
 20
272.739
 30
0.000000
  70
    32
  0
VERTEX
  8
0
  5
80000425
 10
133.167
 20
272.637
 30
0.000000
  70
    32
  0
VERTEX
  8
0
  5
80000426
 10
132.106
 20
272.506
 30
0.000000
  70
    32
  0
VERTEX
  8
0
  5
80000427
 10
131.044
 20
272.347
 30
0.000000
  70
    32
  0
VERTEX
  8
0
  5
80000428
 10
129.981
 20
272.159
 30
0.000000
  70
    32
  0
VERTEX
  8
0
  5
80000429
 10
128.918
 20
271.942
 30
0.000000
  70
    32
  0
VERTEX
  8
0
  5
8000042A
 10
127.856
 20
271.698
 30
0.000000
  70
    32
  0
VERTEX
  8
0
  5
8000042B
 10
126.795
 20
271.425
 30
0.000000
  70
    32
  0
VERTEX
  8
0
  5
8000042C
 10
125.736
 20
271.124
 30
0.000000
  70
    32
  0
VERTEX
  8
0
  5
8000042D
 10
124.679
 20
270.795
 30
0.000000
  70
    32
  0
VERTEX
  8
0
  5
8000042E
 10
123.626
 20
270.439
 30
0.000000
  70
    32
  0
VERTEX
  8
0
  5
8000042F
 10
122.576
 20
270.056
 30
0.000000
  70
    32
  0
VERTEX
  8
0
  5
80000430
 10
121.531
 20
269.645
 30
0.000000
  70
    32
  0
VERTEX
  8
0
  5
80000431
 10
120.490
 20
269.207
 30
0.000000
  70
    32
  0
VERTEX
  8
0
  5
80000432
 10
119.456
 20
268.743
 30
0.000000
  70
    32
  0
VERTEX
  8
0
  5
80000433
 10
118.428
 20
268.252
 30
0.000000
  70
    32
  0
VERTEX
  8
0
  5
80000434
 10
117.406
 20
267.736
 30
0.000000
  70
    32
  0
VERTEX
  8
0
  5
80000435
 10
116.392
 20
267.194
 30
0.000000
  70
    32
  0
VERTEX
  8
0
  5
80000436
 10
115.387
 20
266.626
 30
0.000000
  70
    32
  0
VERTEX
  8
0
  5
80000437
 10
114.390
 20
266.033
 30
0.000000
  70
    32
  0
VERTEX
  8
0
  5
80000438
 10
113.402
 20
265.415
 30
0.000000
  70
    32
  0
VERTEX
  8
0
  5
80000439
 10
112.424
 20
264.773
 30
0.000000
  70
    32
  0
VERTEX
  8
0
  5
8000043A
 10
111.457
 20
264.108
 30
0.000000
  70
    32
  0
VERTEX
  8
0
  5
8000043B
 10
110.501
 20
263.418
 30
0.000000
  70
    32
  0
VERTEX
  8
0
  5
8000043C
 10
109.557
 20
262.706
 30
0.000000
  70
    32
  0
VERTEX
  8
0
  5
8000043D
 10
108.625
 20
261.970
 30
0.000000
  70
    32
  0
VERTEX
  8
0
  5
8000043E
 10
107.706
 20
261.213
 30
0.000000
  70
    32
  0
VERTEX
  8
0
  5
8000043F
 10
106.800
 20
260.433
 30
0.000000
  70
    32
  0
VERTEX
  8
0
  5
80000440
 10
105.908
 20
259.633
 30
0.000000
  70
    32
  0
VERTEX
  8
0
  5
80000441
 10
105.030
 20
258.811
 30
0.000000
  70
    32
  0
VERTEX
  8
0
  5
80000442
 10
104.168
 20
257.969
 30
0.000000
  70
    32
  0
VERTEX
  8
0
  5
80000443
 10
103.321
 20
257.107
 30
0.000000
  70
    32
  0
VERTEX
  8
0
  5
80000444
 10
102.490
 20
256.226
 30
0.000000
  70
    32
  0
VERTEX
  8
0
  5
80000445
 10
101.675
 20
255.326
 30
0.000000
  70
    32
  0
VERTEX
  8
0
  5
80000446
 10
100.878
 20
254.408
 30
0.000000
  70
    32
  0
VERTEX
  8
0
  5
80000447
 10
100.097
 20
253.472
 30
0.000000
  70
    32
  0
VERTEX
  8
0
  5
80000448
 10
99.3354
 20
252.519
 30
0.000000
  70
    32
  0
VERTEX
  8
0
  5
80000449
 10
98.5918
 20
251.550
 30
0.000000
  70
    32
  0
VERTEX
  8
0
  5
8000044A
 10
97.8670
 20
250.564
 30
0.000000
  70
    32
  0
VERTEX
  8
0
  5
8000044B
 10
97.1615
 20
249.563
 30
0.000000
  70
    32
  0
VERTEX
  8
0
  5
8000044C
 10
96.4757
 20
248.547
 30
0.000000
  70
    32
  0
VERTEX
  8
0
  5
8000044D
 10
95.8100
 20
247.517
 30
0.000000
  70
    32
  0
VERTEX
  8
0
  5
8000044E
 10
95.1649
 20
246.473
 30
0.000000
  70
    32
  0
VERTEX
  8
0
  5
8000044F
 10
94.5407
 20
245.417
 30
0.000000
  70
    32
  0
VERTEX
  8
0
  5
80000450
 10
93.9379
 20
244.348
 30
0.000000
  70
    32
  0
VERTEX
  8
0
  5
80000451
 10
93.3567
 20
243.268
 30
0.000000
  70
    32
  0
VERTEX
  8
0
  5
80000452
 10
92.7975
 20
242.176
 30
0.000000
  70
    32
  0
VERTEX
  8
0
  5
80000453
 10
92.2606
 20
241.074
 30
0.000000
  70
    32
  0
VERTEX
  8
0
  5
80000454
 10
91.7464
 20
239.963
 30
0.000000
  70
    32
  0
VERTEX
  8
0
  5
80000455
 10
91.2552
 20
238.842
 30
0.000000
  70
    32
  0
VERTEX
  8
0
  5
80000456
 10
90.7873
 20
237.713
 30
0.000000
  70
    32
  0
VERTEX
  8
0
  5
80000457
 10
90.3430
 20
236.577
 30
0.000000
  70
    32
  0
VERTEX
  8
0
  5
80000458
 10
89.9225
 20
235.433
 30
0.000000
  70
    32
  0
VERTEX
  8
0
  5
80000459
 10
89.5260
 20
234.284
 30
0.000000
  70
    32
  0
VERTEX
  8
0
  5
8000045A
 10
89.1539
 20
233.128
 30
0.000000
  70
    32
  0
VERTEX
  8
0
  5
8000045B
 10
88.8064
 20
231.968
 30
0.000000
  70
    32
  0
VERTEX
  8
0
  5
8000045C
 10
88.4835
 20
230.804
 30
0.000000
  70
    32
  0
VERTEX
  8
0
  5
8000045D
 10
88.1857
 20
229.636
 30
0.000000
  70
    32
  0
VERTEX
  8
0
  5
8000045E
 10
87.9130
 20
228.465
 30
0.000000
  70
    32
  0
VERTEX
  8
0
  5
8000045F
 10
87.6655
 20
227.292
 30
0.000000
  70
    32
  0
VERTEX
  8
0
  5
80000460
 10
87.4435
 20
226.118
 30
0.000000
  70
    32
  0
VERTEX
  8
0
  5
80000461
 10
87.2471
 20
224.943
 30
0.000000
  70
    32
  0
VERTEX
  8
0
  5
80000462
 10
87.0764
 20
223.768
 30
0.000000
  70
    32
  0
VERTEX
  8
0
  5
80000463
 10
86.9315
 20
222.594
 30
0.000000
  70
    32
  0
VERTEX
  8
0
  5
80000464
 10
86.8124
 20
221.421
 30
0.000000
  70
    32
  0
VERTEX
  8
0
  5
80000465
 10
86.7193
 20
220.251
 30
0.000000
  70
    32
  0
VERTEX
  8
0
  5
80000466
 10
86.6523
 20
219.083
 30
0.000000
  70
    32
  0
VERTEX
  8
0
  5
80000467
 10
86.6112
 20
217.919
 30
0.000000
  70
    32
  0
VERTEX
  8
0
  5
80000468
 10
86.5963
 20
216.759
 30
0.000000
  70
    32
  0
VERTEX
  8
0
  5
80000469
 10
86.6074
 20
215.604
 30
0.000000
  70
    32
  0
VERTEX
  8
0
  5
8000046A
 10
86.6447
 20
214.455
 30
0.000000
  70
    32
  0
VERTEX
  8
0
  5
8000046B
 10
86.7080
 20
213.312
 30
0.000000
  70
    32
  0
VERTEX
  8
0
  5
8000046C
 10
86.7973
 20
212.177
 30
0.000000
  70
    32
  0
VERTEX
  8
0
  5
8000046D
 10
86.9125
 20
211.049
 30
0.000000
  70
    32
  0
VERTEX
  8
0
  5
8000046E
 10
87.0537
 20
209.929
 30
0.000000
  70
    32
  0
VERTEX
  8
0
  5
8000046F
 10
87.2207
 20
208.818
 30
0.000000
  70
    32
  0
VERTEX
  8
0
  5
80000470
 10
87.4134
 20
207.717
 30
0.000000
  70
    32
  0
VERTEX
  8
0
  5
80000471
 10
87.6317
 20
206.627
 30
0.000000
  70
    32
  0
VERTEX
  8
0
  5
80000472
 10
87.8754
 20
205.548
 30
0.000000
  70
    32
  0
VERTEX
  8
0
  5
80000473
 10
88.1445
 20
204.480
 30
0.000000
  70
    32
  0
VERTEX
  8
0
  5
80000474
 10
88.4387
 20
203.425
 30
0.000000
  70
    32
  0
VERTEX
  8
0
  5
80000475
 10
88.7579
 20
202.382
 30
0.000000
  70
    32
  0
VERTEX
  8
0
  5
80000476
 10
89.1018
 20
201.354
 30
0.000000
  70
    32
  0
VERTEX
  8
0
  5
80000477
 10
89.4704
 20
200.339
 30
0.000000
  70
    32
  0
VERTEX
  8
0
  5
80000478
 10
89.8633
 20
199.340
 30
0.000000
  70
    32
  0
VERTEX
  8
0
  5
80000479
 10
90.2803
 20
198.356
 30
0.000000
  70
    32
  0
VERTEX
  8
0
  5
8000047A
 10
90.7212
 20
197.388
 30
0.000000
  70
    32
  0
VERTEX
  8
0
  5
8000047B
 10
91.1857
 20
196.436
 30
0.000000
  70
    32
  0
VERTEX
  8
0
  5
8000047C
 10
91.6736
 20
195.502
 30
0.000000
  70
    32
  0
VERTEX
  8
0
  5
8000047D
 10
92.1844
 20
194.585
 30
0.000000
  70
    32
  0
VERTEX
  8
0
  5
8000047E
 10
92.7180
 20
193.687
 30
0.000000
  70
    32
  0
VERTEX
  8
0
  5
8000047F
 10
93.2740
 20
192.808
 30
0.000000
  70
    32
  0
VERTEX
  8
0
  5
80000480
 10
93.8520
 20
191.948
 30
0.000000
  70
    32
  0
VERTEX
  8
0
  5
80000481
 10
94.4518
 20
191.108
 30
0.000000
  70
    32
  0
VERTEX
  8
0
  5
80000482
 10
95.0729
 20
190.289
 30
0.000000
  70
    32
  0
VERTEX
  8
0
  5
80000483
 10
95.7149
 20
189.490
 30
0.000000
  70
    32
  0
VERTEX
  8
0
  5
80000484
 10
96.3776
 20
188.713
 30
0.000000
  70
    32
  0
VERTEX
  8
0
  5
80000485
 10
97.0605
 20
187.957
 30
0.000000
  70
    32
  0
VERTEX
  8
0
  5
80000486
 10
97.7632
 20
187.224
 30
0.000000
  70
    32
  0
VERTEX
  8
0
  5
80000487
 10
98.4852
 20
186.514
 30
0.000000
  70
    32
  0
VERTEX
  8
0
  5
80000488
 10
99.2261
 20
185.827
 30
0.000000
  70
    32
  0
VERTEX
  8
0
  5
80000489
 10
99.9856
 20
185.163
 30
0.000000
  70
    32
  0
VERTEX
  8
0
  5
8000048A
 10
100.763
 20
184.524
 30
0.000000
  70
    32
  0
VERTEX
  8
0
  5
8000048B
 10
101.558
 20
183.908
 30
0.000000
  70
    32
  0
VERTEX
  8
0
  5
8000048C
 10
102.370
 20
183.318
 30
0.000000
  70
    32
  0
VERTEX
  8
0
  5
8000048D
 10
103.199
 20
182.753
 30
0.000000
  70
    32
  0
VERTEX
  8
0
  5
8000048E
 10
104.043
 20
182.213
 30
0.000000
  70
    32
  0
VERTEX
  8
0
  5
8000048F
 10
104.904
 20
181.699
 30
0.000000
  70
    32
  0
SEQEND
  8
0
  5
80000490
  0
LINE
  5
FFBBDAE469BBFB4E
  8
0
  6
CONTINUOUS
 10
259.80762113533092
 20
449.99999999999841
 30
0.0
 11
0.000000000003638
 21
300.0000000000004
 31
0.0
  0
LINE
  5
FFBBDAE469BBFB4F
  8
0
  6
CONTINUOUS
 10
259.80762113533092
 20
207.73502691896221
 30
0.0
 11
259.80762113533092
 21
450.0
 31
0.0
  0
LINE
  5
FFBBDAE469BBFB50
  8
0
  6
CONTINUOUS
 10
0.0
 20
0.0
 30
0.0
 11
0.0
 21
299.99999999999909
 31
0.0
  0
LINE
  5
FFBBDAE469BBFB51
  8
0
  6
CONTINUOUS
 10
209.80762113533279
 20
121.1324865405181
 30
0.0
 11
0.000000000003638
 21
0.0000000000004547
 31
0.0
  0
LINE
  5
FFBBDAE469BBFB52
  8
0
  6
HIDDEN
 10
209.80762113533279
 20
121.1324865405181
 30
0.0
 11
259.8076211353291
 21
149.99999999999841
 31
0.0
  0
LINE
  5
FFBBDAE469BBFB53
  8
0
  6
HIDDEN
 10
259.80762113533092
 20
207.7350269189628
 30
0.0
 11
259.80762113533092
 21
150.0
 31
0.0
  0
LINE
  5
FFBBDAE469BBFB54
  8
0
  6
CONTINUOUS
 10
-166.8826215984009
 20
-102.19563146477719
 30
0.0
 11
-167.43920539076501
 21
-102.6315941719853
 31
0.0
  0
LINE
  5
FFBBDAE469BBFB55
  8
0
  6
CONTINUOUS
 10
-196.69288982407301
 20
353.77770706259662
 30
0.0
 11
-186.1604764908879
 21
359.85859873572599
 31
0.0
  0
LINE
  5
FFBBDAE469BBFB56
  8
0
  6
CONTINUOUS
 10
-188.89866119000541
 20
-115.0212167543371
 30
0.0
 11
-91.576359172711818
 21
-58.832159486496948
 31
0.0
  0
LINE
  5
FFBBDAE469BBFB57
  8
0
  6
CONTINUOUS
 10
-188.89866119000541
 20
349.27770706260071
 30
0.0
 11
183.68852256834899
 21
564.39101790209224
 31
0.0
  0
LINE
  5
FFBBDAE469BBFB58
  8
0
  6
CONTINUOUS
 10
-196.6928898240694
 20
353.77770706259838
 30
0.0
 11
175.89429393428691
 21
568.89101790208895
 31
0.0
  0
LINE
  5
FFBBDAE469BBFB59
  8
0
  6
CONTINUOUS
 10
169.79052299913741
 20
591.56373229284054
 30
0.0
 11
-133.88898309467911
 21
417.02619032790648
 31
0.0
  0
LINE
  5
FFBBDAE469BBFB5A
  8
0
  6
CONTINUOUS
 10
-133.88898309467911
 20
417.02619032790648
 30
0.0
 11
-164.93576404125631
 21
410.81967787474099
 31
0.0
  0
LINE
  5
FFBBDAE469BBFB5B
  8
0
  6
CONTINUOUS
 10
-164.93576404125631
 20
410.81967787474099
 30
0.0
 11
-192.8778674892055
 21
387.54525816031543
 31
0.0
  0
LINE
  5
FFBBDAE469BBFB5C
  8
0
  6
CONTINUOUS
 10
-192.8778674892055
 20
387.54525816031543
 30
0.0
 11
-196.16082377921151
 21
386.77315173109741
 31
0.0
  0
LINE
  5
FFBBDAE469BBFB5D
  8
0
  6
CONTINUOUS
 10
-211.78046964223179
 20
-55.132092421995821
 30
0.0
 11
-210.51101605360239
 21
-83.758927041709683
 31
0.0
  0
LINE
  5
FFBBDAE469BBFB5E
  8
0
  6
CONTINUOUS
 10
-210.51101605360239
 20
-83.758927041709683
 30
0.0
 11
-213.31711127122981
 21
-108.2008481266361
 31
0.0
  0
LINE
  5
FFBBDAE469BBFB5F
  8
0
  6
CONTINUOUS
 10
-213.31711127122981
 20
-108.2008481266361
 30
0.0
 11
-209.3084012106228
 21
-125.8310874153334
 31
0.0
  0
LINE
  5
FFBBDAE469BBFB60
  8
0
  6
CONTINUOUS
 10
-209.3084012106228
 20
-125.8310874153334
 30
0.0
 11
-211.31275928225659
 21
-152.67713148716339
 31
0.0
  0
LINE
  5
FFBBDAE469BBFB61
  8
0
  6
CONTINUOUS
 10
-211.31275928225659
 20
-152.67713148716339
 30
0.0
 11
-211.42339755663309
 21
-162.0651657421314
 31
0.0
  0
POLYLINE
  5
FFBBDAE469BBFB62
  8
0
  6
CONTINUOUS
 10
176.55444566227919
 20
255.80127018922099
 30
0.0
 66
     1
 70
     8
  0
VERTEX
  8
0
  5
80000491
 10
176.554
 20
255.801
 30
0.000000
  70
    32
  0
VERTEX
  8
0
  5
80000492
 10
175.679
 20
256.289
 30
0.000000
  70
    32
  0
VERTEX
  8
0
  5
80000493
 10
174.789
 20
256.751
 30
0.000000
  70
    32
  0
VERTEX
  8
0
  5
80000494
 10
173.885
 20
257.186
 30
0.000000
  70
    32
  0
VERTEX
  8
0
  5
80000495
 10
172.968
 20
257.594
 30
0.000000
  70
    32
  0
VERTEX
  8
0
  5
80000496
 10
172.038
 20
257.975
 30
0.000000
  70
    32
  0
VERTEX
  8
0
  5
80000497
 10
171.095
 20
258.328
 30
0.000000
  70
    32
  0
VERTEX
  8
0
  5
80000498
 10
170.141
 20
258.654
 30
0.000000
  70
    32
  0
VERTEX
  8
0
  5
80000499
 10
169.175
 20
258.952
 30
0.000000
  70
    32
  0
VERTEX
  8
0
  5
8000049A
 10
168.199
 20
259.223
 30
0.000000
  70
    32
  0
VERTEX
  8
0
  5
8000049B
 10
167.213
 20
259.464
 30
0.000000
  70
    32
  0
VERTEX
  8
0
  5
8000049C
 10
166.217
 20
259.678
 30
0.000000
  70
    32
  0
VERTEX
  8
0
  5
8000049D
 10
165.213
 20
259.863
 30
0.000000
  70
    32
  0
VERTEX
  8
0
  5
8000049E
 10
164.200
 20
260.020
 30
0.000000
  70
    32
  0
VERTEX
  8
0
  5
8000049F
 10
163.180
 20
260.148
 30
0.000000
  70
    32
  0
VERTEX
  8
0
  5
800004A0
 10
162.152
 20
260.248
 30
0.000000
  70
    32
  0
VERTEX
  8
0
  5
800004A1
 10
161.119
 20
260.318
 30
0.000000
  70
    32
  0
VERTEX
  8
0
  5
800004A2
 10
160.079
 20
260.360
 30
0.000000
  70
    32
  0
VERTEX
  8
0
  5
800004A3
 10
159.035
 20
260.373
 30
0.000000
  70
    32
  0
VERTEX
  8
0
  5
800004A4
 10
157.985
 20
260.357
 30
0.000000
  70
    32
  0
VERTEX
  8
0
  5
800004A5
 10
156.932
 20
260.313
 30
0.000000
  70
    32
  0
VERTEX
  8
0
  5
800004A6
 10
155.876
 20
260.239
 30
0.000000
  70
    32
  0
VERTEX
  8
0
  5
800004A7
 10
154.817
 20
260.137
 30
0.000000
  70
    32
  0
VERTEX
  8
0
  5
800004A8
 10
153.757
 20
260.006
 30
0.000000
  70
    32
  0
VERTEX
  8
0
  5
800004A9
 10
152.695
 20
259.847
 30
0.000000
  70
    32
  0
VERTEX
  8
0
  5
800004AA
 10
151.632
 20
259.659
 30
0.000000
  70
    32
  0
VERTEX
  8
0
  5
800004AB
 10
150.569
 20
259.442
 30
0.000000
  70
    32
  0
VERTEX
  8
0
  5
800004AC
 10
149.507
 20
259.198
 30
0.000000
  70
    32
  0
VERTEX
  8
0
  5
800004AD
 10
148.446
 20
258.925
 30
0.000000
  70
    32
  0
VERTEX
  8
0
  5
800004AE
 10
147.386
 20
258.624
 30
0.000000
  70
    32
  0
VERTEX
  8
0
  5
800004AF
 10
146.330
 20
258.295
 30
0.000000
  70
    32
  0
VERTEX
  8
0
  5
800004B0
 10
145.276
 20
257.939
 30
0.000000
  70
    32
  0
VERTEX
  8
0
  5
800004B1
 10
144.227
 20
257.556
 30
0.000000
  70
    32
  0
VERTEX
  8
0
  5
800004B2
 10
143.181
 20
257.145
 30
0.000000
  70
    32
  0
VERTEX
  8
0
  5
800004B3
 10
142.141
 20
256.707
 30
0.000000
  70
    32
  0
VERTEX
  8
0
  5
800004B4
 10
141.107
 20
256.243
 30
0.000000
  70
    32
  0
VERTEX
  8
0
  5
800004B5
 10
140.078
 20
255.752
 30
0.000000
  70
    32
  0
VERTEX
  8
0
  5
800004B6
 10
139.057
 20
255.236
 30
0.000000
  70
    32
  0
VERTEX
  8
0
  5
800004B7
 10
138.043
 20
254.694
 30
0.000000
  70
    32
  0
VERTEX
  8
0
  5
800004B8
 10
137.037
 20
254.126
 30
0.000000
  70
    32
  0
VERTEX
  8
0
  5
800004B9
 10
136.040
 20
253.533
 30
0.000000
  70
    32
  0
VERTEX
  8
0
  5
800004BA
 10
135.053
 20
252.915
 30
0.000000
  70
    32
  0
VERTEX
  8
0
  5
800004BB
 10
134.075
 20
252.273
 30
0.000000
  70
    32
  0
VERTEX
  8
0
  5
800004BC
 10
133.108
 20
251.608
 30
0.000000
  70
    32
  0
VERTEX
  8
0
  5
800004BD
 10
132.152
 20
250.918
 30
0.000000
  70
    32
  0
VERTEX
  8
0
  5
800004BE
 10
131.208
 20
250.206
 30
0.000000
  70
    32
  0
VERTEX
  8
0
  5
800004BF
 10
130.275
 20
249.470
 30
0.000000
  70
    32
  0
VERTEX
  8
0
  5
800004C0
 10
129.356
 20
248.713
 30
0.000000
  70
    32
  0
VERTEX
  8
0
  5
800004C1
 10
128.450
 20
247.933
 30
0.000000
  70
    32
  0
VERTEX
  8
0
  5
800004C2
 10
127.558
 20
247.133
 30
0.000000
  70
    32
  0
VERTEX
  8
0
  5
800004C3
 10
126.681
 20
246.311
 30
0.000000
  70
    32
  0
VERTEX
  8
0
  5
800004C4
 10
125.818
 20
245.469
 30
0.000000
  70
    32
  0
VERTEX
  8
0
  5
800004C5
 10
124.971
 20
244.607
 30
0.000000
  70
    32
  0
VERTEX
  8
0
  5
800004C6
 10
124.140
 20
243.726
 30
0.000000
  70
    32
  0
VERTEX
  8
0
  5
800004C7
 10
123.326
 20
242.826
 30
0.000000
  70
    32
  0
VERTEX
  8
0
  5
800004C8
 10
122.528
 20
241.908
 30
0.000000
  70
    32
  0
VERTEX
  8
0
  5
800004C9
 10
121.748
 20
240.972
 30
0.000000
  70
    32
  0
VERTEX
  8
0
  5
800004CA
 10
120.986
 20
240.019
 30
0.000000
  70
    32
  0
VERTEX
  8
0
  5
800004CB
 10
120.242
 20
239.050
 30
0.000000
  70
    32
  0
VERTEX
  8
0
  5
800004CC
 10
119.518
 20
238.064
 30
0.000000
  70
    32
  0
VERTEX
  8
0
  5
800004CD
 10
118.812
 20
237.063
 30
0.000000
  70
    32
  0
VERTEX
  8
0
  5
800004CE
 10
118.126
 20
236.047
 30
0.000000
  70
    32
  0
VERTEX
  8
0
  5
800004CF
 10
117.461
 20
235.017
 30
0.000000
  70
    32
  0
VERTEX
  8
0
  5
800004D0
 10
116.816
 20
233.973
 30
0.000000
  70
    32
  0
VERTEX
  8
0
  5
800004D1
 10
116.191
 20
232.917
 30
0.000000
  70
    32
  0
VERTEX
  8
0
  5
800004D2
 10
115.589
 20
231.848
 30
0.000000
  70
    32
  0
VERTEX
  8
0
  5
800004D3
 10
115.007
 20
230.768
 30
0.000000
  70
    32
  0
VERTEX
  8
0
  5
800004D4
 10
114.448
 20
229.676
 30
0.000000
  70
    32
  0
VERTEX
  8
0
  5
800004D5
 10
113.911
 20
228.574
 30
0.000000
  70
    32
  0
VERTEX
  8
0
  5
800004D6
 10
113.397
 20
227.463
 30
0.000000
  70
    32
  0
VERTEX
  8
0
  5
800004D7
 10
112.906
 20
226.342
 30
0.000000
  70
    32
  0
VERTEX
  8
0
  5
800004D8
 10
112.438
 20
225.213
 30
0.000000
  70
    32
  0
VERTEX
  8
0
  5
800004D9
 10
111.994
 20
224.077
 30
0.000000
  70
    32
  0
VERTEX
  8
0
  5
800004DA
 10
111.573
 20
222.933
 30
0.000000
  70
    32
  0
VERTEX
  8
0
  5
800004DB
 10
111.177
 20
221.784
 30
0.000000
  70
    32
  0
VERTEX
  8
0
  5
800004DC
 10
110.805
 20
220.628
 30
0.000000
  70
    32
  0
VERTEX
  8
0
  5
800004DD
 10
110.457
 20
219.468
 30
0.000000
  70
    32
  0
VERTEX
  8
0
  5
800004DE
 10
110.134
 20
218.304
 30
0.000000
  70
    32
  0
VERTEX
  8
0
  5
800004DF
 10
109.836
 20
217.136
 30
0.000000
  70
    32
  0
VERTEX
  8
0
  5
800004E0
 10
109.564
 20
215.965
 30
0.000000
  70
    32
  0
VERTEX
  8
0
  5
800004E1
 10
109.316
 20
214.792
 30
0.000000
  70
    32
  0
VERTEX
  8
0
  5
800004E2
 10
109.094
 20
213.618
 30
0.000000
  70
    32
  0
VERTEX
  8
0
  5
800004E3
 10
108.898
 20
212.443
 30
0.000000
  70
    32
  0
VERTEX
  8
0
  5
800004E4
 10
108.727
 20
211.268
 30
0.000000
  70
    32
  0
VERTEX
  8
0
  5
800004E5
 10
108.582
 20
210.094
 30
0.000000
  70
    32
  0
VERTEX
  8
0
  5
800004E6
 10
108.463
 20
208.921
 30
0.000000
  70
    32
  0
VERTEX
  8
0
  5
800004E7
 10
108.370
 20
207.751
 30
0.000000
  70
    32
  0
VERTEX
  8
0
  5
800004E8
 10
108.303
 20
206.583
 30
0.000000
  70
    32
  0
VERTEX
  8
0
  5
800004E9
 10
108.262
 20
205.419
 30
0.000000
  70
    32
  0
VERTEX
  8
0
  5
800004EA
 10
108.247
 20
204.259
 30
0.000000
  70
    32
  0
VERTEX
  8
0
  5
800004EB
 10
108.258
 20
203.104
 30
0.000000
  70
    32
  0
VERTEX
  8
0
  5
800004EC
 10
108.295
 20
201.955
 30
0.000000
  70
    32
  0
VERTEX
  8
0
  5
800004ED
 10
108.359
 20
200.812
 30
0.000000
  70
    32
  0
VERTEX
  8
0
  5
800004EE
 10
108.448
 20
199.677
 30
0.000000
  70
    32
  0
VERTEX
  8
0
  5
800004EF
 10
108.563
 20
198.549
 30
0.000000
  70
    32
  0
VERTEX
  8
0
  5
800004F0
 10
108.704
 20
197.429
 30
0.000000
  70
    32
  0
VERTEX
  8
0
  5
800004F1
 10
108.871
 20
196.318
 30
0.000000
  70
    32
  0
VERTEX
  8
0
  5
800004F2
 10
109.064
 20
195.217
 30
0.000000
  70
    32
  0
VERTEX
  8
0
  5
800004F3
 10
109.282
 20
194.127
 30
0.000000
  70
    32
  0
VERTEX
  8
0
  5
800004F4
 10
109.526
 20
193.048
 30
0.000000
  70
    32
  0
VERTEX
  8
0
  5
800004F5
 10
109.795
 20
191.980
 30
0.000000
  70
    32
  0
VERTEX
  8
0
  5
800004F6
 10
110.089
 20
190.925
 30
0.000000
  70
    32
  0
VERTEX
  8
0
  5
800004F7
 10
110.409
 20
189.882
 30
0.000000
  70
    32
  0
VERTEX
  8
0
  5
800004F8
 10
110.752
 20
188.854
 30
0.000000
  70
    32
  0
VERTEX
  8
0
  5
800004F9
 10
111.121
 20
187.839
 30
0.000000
  70
    32
  0
VERTEX
  8
0
  5
800004FA
 10
111.514
 20
186.840
 30
0.000000
  70
    32
  0
VERTEX
  8
0
  5
800004FB
 10
111.931
 20
185.856
 30
0.000000
  70
    32
  0
VERTEX
  8
0
  5
800004FC
 10
112.372
 20
184.888
 30
0.000000
  70
    32
  0
VERTEX
  8
0
  5
800004FD
 10
112.836
 20
183.936
 30
0.000000
  70
    32
  0
VERTEX
  8
0
  5
800004FE
 10
113.324
 20
183.002
 30
0.000000
  70
    32
  0
VERTEX
  8
0
  5
800004FF
 10
113.835
 20
182.085
 30
0.000000
  70
    32
  0
VERTEX
  8
0
  5
80000500
 10
114.369
 20
181.187
 30
0.000000
  70
    32
  0
VERTEX
  8
0
  5
80000501
 10
114.925
 20
180.308
 30
0.000000
  70
    32
  0
VERTEX
  8
0
  5
80000502
 10
115.503
 20
179.448
 30
0.000000
  70
    32
  0
VERTEX
  8
0
  5
80000503
 10
116.102
 20
178.608
 30
0.000000
  70
    32
  0
VERTEX
  8
0
  5
80000504
 10
116.723
 20
177.789
 30
0.000000
  70
    32
  0
VERTEX
  8
0
  5
80000505
 10
117.366
 20
176.990
 30
0.000000
  70
    32
  0
VERTEX
  8
0
  5
80000506
 10
118.028
 20
176.213
 30
0.000000
  70
    32
  0
VERTEX
  8
0
  5
80000507
 10
118.711
 20
175.457
 30
0.000000
  70
    32
  0
VERTEX
  8
0
  5
80000508
 10
119.414
 20
174.724
 30
0.000000
  70
    32
  0
VERTEX
  8
0
  5
80000509
 10
120.136
 20
174.014
 30
0.000000
  70
    32
  0
VERTEX
  8
0
  5
8000050A
 10
120.877
 20
173.327
 30
0.000000
  70
    32
  0
VERTEX
  8
0
  5
8000050B
 10
121.636
 20
172.663
 30
0.000000
  70
    32
  0
VERTEX
  8
0
  5
8000050C
 10
122.414
 20
172.024
 30
0.000000
  70
    32
  0
VERTEX
  8
0
  5
8000050D
 10
123.209
 20
171.408
 30
0.000000
  70
    32
  0
VERTEX
  8
0
  5
8000050E
 10
124.021
 20
170.818
 30
0.000000
  70
    32
  0
VERTEX
  8
0
  5
8000050F
 10
124.849
 20
170.253
 30
0.000000
  70
    32
  0
VERTEX
  8
0
  5
80000510
 10
125.694
 20
169.713
 30
0.000000
  70
    32
  0
VERTEX
  8
0
  5
80000511
 10
126.554
 20
169.199
 30
0.000000
  70
    32
  0
SEQEND
  8
0
  5
80000512
  0
LINE
  5
FFBBDAE469BBFB63
  8
0
  6
CONTINUOUS
 10
-91.576359172711818
 20
-58.832159486496948
 30
0.0
 11
-85.862005844479427
 21
-23.136270181008971
 31
0.0
  0
LINE
  5
FFBBDAE469BBFB64
  8
0
  6
CONTINUOUS
 10
-85.862005844479427
 20
-23.136270181008971
 30
0.0
 11
-80.751710907839865
 21
2.3996504049769101
 31
0.0
  0
LINE
  5
FFBBDAE469BBFB65
  8
0
  6
CONTINUOUS
 10
-80.751710907839865
 20
2.3996504049769101
 30
0.0
 11
-73.937997489134432
 21
22.82838212770503
 31
0.0
  0
LINE
  5
FFBBDAE469BBFB66
  8
0
  6
CONTINUOUS
 10
-73.937997489134432
 20
22.82838212770503
 30
0.0
 11
-68.827742042900354
 21
44.959502228082322
 31
0.0
  0
LINE
  5
FFBBDAE469BBFB67
  8
0
  6
CONTINUOUS
 10
-68.827742042900354
 20
44.959502228082322
 30
0.0
 11
-65.420865588341243
 21
79.007388432631615
 31
0.0
  0
LINE
  5
FFBBDAE469BBFB68
  8
0
  6
CONTINUOUS
 10
-65.420865588341243
 20
79.007388432631615
 30
0.0
 11
-67.124323560819903
 21
118.162463500435
 31
0.0
  0
LINE
  5
FFBBDAE469BBFB69
  8
0
  6
CONTINUOUS
 10
-67.124323560819903
 20
118.162463500435
 30
0.0
 11
-68.827742042900354
 21
159.0199269458912
 31
0.0
  0
LINE
  5
FFBBDAE469BBFB6A
  8
0
  6
CONTINUOUS
 10
-68.827742042900354
 20
159.0199269458912
 30
0.0
 11
-60.310610142114449
 21
196.47261363604551
 31
0.0
  0
LINE
  5
FFBBDAE469BBFB6B
  8
0
  6
CONTINUOUS
 10
-60.310610142114449
 20
196.47261363604551
 30
0.0
 11
-53.496896723401733
 21
230.5204998405911
 31
0.0
  0
LINE
  5
FFBBDAE469BBFB6C
  8
0
  6
CONTINUOUS
 10
-53.496896723401733
 20
230.5204998405911
 30
0.0
 11
-44.979764822608551
 21
250.94923156331919
 31
0.0
  0
LINE
  5
FFBBDAE469BBFB6D
  8
0
  6
CONTINUOUS
 10
-44.979764822608551
 20
250.94923156331919
 30
0.0
 11
-26.242082538956311
 21
290.10430663112271
 31
0.0
  0
LINE
  5
FFBBDAE469BBFB6E
  8
0
  6
CONTINUOUS
 10
-26.242082538956311
 20
290.10430663112271
 30
0.0
 11
6.1230265821213834
 21
339.47373569513871
 31
0.0
  0
LINE
  5
FFBBDAE469BBFB6F
  8
0
  6
CONTINUOUS
 10
6.1230265821213834
 20
339.47373569513871
 30
0.0
 11
26.564127347854079
 21
366.71204465877742
 31
0.0
  0
LINE
  5
FFBBDAE469BBFB70
  8
0
  6
CONTINUOUS
 10
26.564127347854079
 20
366.71204465877742
 30
0.0
 11
67.446328879319481
 21
399.05754248567382
 31
0.0
  0
LINE
  5
FFBBDAE469BBFB71
  8
0
  6
CONTINUOUS
 10
67.446328879319481
 20
399.05754248567382
 30
0.0
 11
135.5833840856285
 21
426.29585144930888
 31
0.0
  0
LINE
  5
FFBBDAE469BBFB72
  8
0
  6
CONTINUOUS
 10
135.5833840856285
 20
426.29585144930888
 30
0.0
 11
171.35533017085979
 21
453.53416041294759
 31
0.0
  0
LINE
  5
FFBBDAE469BBFB73
  8
0
  6
CONTINUOUS
 10
171.35533017085979
 20
453.53416041294759
 30
0.0
 11
183.68852256834899
 21
455.91978676242002
 31
0.0
  0
LINE
  5
FFBBDAE469BBFB74
  8
0
  6
CONTINUOUS
 10
244.44847295823271
 20
101.1325814156089
 30
0.0
 11
-211.78046964223179
 21
-162.27132140687209
 31
0.0
  0
LINE
  5
FFBBDAE469BBFB75
  8
0
  6
CONTINUOUS
 10
-196.16082377921151
 20
386.77315173109741
 30
0.0
 11
-217.82983673740461
 21
369.279273679857
 31
0.0
  0
LINE
  5
FFBBDAE469BBFB76
  8
0
  6
CONTINUOUS
 10
-217.82983673740461
 20
369.279273679857
 30
0.0
 11
-225.59153346412501
 21
356.86625075847269
 31
0.0
  0
LINE
  5
FFBBDAE469BBFB77
  8
0
  6
CONTINUOUS
 10
-225.59153346412501
 20
356.86625075847269
 30
0.0
 11
-238.0102464387856
 21
325.83369047759197
 31
0.0
  0
LINE
  5
FFBBDAE469BBFB78
  8
0
  6
CONTINUOUS
 10
-238.0102464387856
 20
325.83369047759197
 30
0.0
 11
-242.66726268672579
 21
291.69787595507518
 31
0.0
  0
LINE
  5
FFBBDAE469BBFB79
  8
0
  6
CONTINUOUS
 10
-228.69621096275301
 20
204.8067095505416
 30
0.0
 11
-220.93451423603261
 21
153.60298776676649
 31
0.0
  0
LINE
  5
FFBBDAE469BBFB7A
  8
0
  6
CONTINUOUS
 10
-220.93451423603261
 20
153.60298776676649
 30
0.0
 11
-224.0391947148091
 21
111.70903267779291
 31
0.0
  0
LINE
  5
FFBBDAE469BBFB7B
  8
0
  6
CONTINUOUS
 10
-217.82983673740461
 20
68.263449475527963
 30
0.0
 11
-214.72515923877651
 21
9.3015871252941906
 31
0.0
  0
LINE
  5
FFBBDAE469BBFB7C
  8
0
  6
CONTINUOUS
 10
-214.72515923877651
 20
9.3015871252941906
 30
0.0
 11
-213.17282048946441
 21
1.543446558835512
 31
0.0
  0
LINE
  5
FFBBDAE469BBFB7D
  8
0
  6
CONTINUOUS
 10
-213.17282048946441
 20
1.543446558835512
 30
0.0
 11
-213.17282048946441
 21
-21.730973155588341
 31
0.0
  0
LINE
  5
FFBBDAE469BBFB7E
  8
0
  6
CONTINUOUS
 10
-213.17282048946441
 20
-21.730973155588341
 30
0.0
 11
-211.78046964223179
 21
-55.132092421995821
 31
0.0
  0
LINE
  5
FFBBDAE469BBFB7F
  8
0
  6
CONTINUOUS
 10
-169.0993340968507
 20
388.70885388960761
 30
0.0
 11
-130.12819092655079
 21
411.2088538896075
 31
0.0
  0
LINE
  5
FFBBDAE469BBFB80
  8
0
  6
CONTINUOUS
 10
-130.12819092655079
 20
411.2088538896075
 30
0.0
 11
-113.673708254646
 21
401.7088538896075
 31
0.0
  0
LINE
  5
FFBBDAE469BBFB81
  8
0
  6
CONTINUOUS
 10
-113.673708254646
 20
401.7088538896075
 30
0.0
 11
-152.6448514249459
 21
379.2088538896075
 31
0.0
  0
LINE
  5
FFBBDAE469BBFB82
  8
0
  6
CONTINUOUS
 10
-152.6448514249459
 20
379.2088538896075
 30
0.0
 11
-169.0993340968507
 21
388.70885388960761
 31
0.0
  0
LINE
  5
FFBBDAE469BBFB85
  8
0
  6
CONTINUOUS
 10
90.708287038480194
 20
538.70885388960824
 30
0.0
 11
129.6794302087801
 21
561.20885388960824
 31
0.0
  0
LINE
  5
FFBBDAE469BBFB86
  8
0
  6
CONTINUOUS
 10
129.6794302087801
 20
561.20885388960824
 30
0.0
 11
146.13391288068479
 21
551.70885388960824
 31
0.0
  0
LINE
  5
FFBBDAE469BBFB87
  8
0
  6
CONTINUOUS
 10
146.13391288068479
 20
551.70885388960824
 30
0.0
 11
107.16276971038489
 21
529.20885388960824
 31
0.0
  0
LINE
  5
FFBBDAE469BBFB88
  8
0
  6
CONTINUOUS
 10
107.16276971038489
 20
529.20885388960824
 30
0.0
 11
90.708287038480194
 21
538.70885388960824
 31
0.0
  0
LINE
  5
FFBBDAE469BBFB8B
  8
0
  6
CONTINUOUS
 10
-169.0993340968507
 20
388.70885388960761
 30
0.0
 11
-169.09933409684891
 21
369.70885388960733
 31
0.0
  0
LINE
  5
FFBBDAE469BBFB8C
  8
0
  6
CONTINUOUS
 10
90.708287038480194
 20
538.70885388960824
 30
0.0
 11
90.708287038482013
 21
519.70885388960801
 31
0.0
  0
LINE
  5
FFBBDAE469BBFB8D
  8
0
  6
CONTINUOUS
 10
-196.6928898240694
 20
353.77770636543852
 30
0.0
 11
-196.6928898240694
 21
-110.5212167543355
 31
0.0
  0
LINE
  5
FFBBDAE469BBFB8E
  8
0
  6
CONTINUOUS
 10
-196.69288982406579
 20
353.77770706260071
 30
0.0
 11
-188.89866119000541
 21
349.27770706260071
 31
0.0
  0
LINE
  5
FFBBDAE469BBFB8F
  8
0
  6
CONTINUOUS
 10
-188.89866119000541
 20
349.27770706260071
 30
0.0
 11
-188.89866119000541
 21
-115.0212167543379
 31
0.0
  0
LINE
  5
FFBBDAE469BBFB90
  8
0
  6
CONTINUOUS
 10
183.68852256834899
 20
564.39101790209224
 30
0.0
 11
175.89429393428691
 21
568.89101790208883
 31
0.0
  0
LINE
  5
FFBBDAE469BBFB91
  8
0
  6
CONTINUOUS
 10
-188.89866119000541
 20
-115.0212167543371
 30
0.0
 11
-196.6928898240694
 21
-110.5212167543356
 31
0.0
  0
LINE
  5
FFBBDAE469BBFB92
  8
0
  6
CONTINUOUS
 10
183.68852256834899
 20
564.39101790209224
 30
0.0
 11
183.68852256834899
 21
455.91978676242002
 31
0.0
  0
INSERT
  5
FFBBDAE469BBFB93
  8
0
  6
CONTINUOUS
  2
*U8
 10
0.0
 20
0.0
 30
0.0
  0
INSERT
  5
FFBBDAE469BBFB94
  8
0
  6
CONTINUOUS
  2
*U9
 10
0.0
 20
0.0
 30
0.0
  0
INSERT
  5
FFBBDAE469BBFB95
  8
0
  6
CONTINUOUS
  2
*U10
 10
0.0
 20
0.0
 30
0.0
  0
INSERT
  5
FFBBDAE469BBFB96
  8
0
  6
CONTINUOUS
  2
*U11
 10
0.0
 20
0.0
 30
0.0
  0
INSERT
  5
FFBBDAE469BBFB97
  8
0
  6
CONTINUOUS
  2
*U12
 10
0.0
 20
0.0
 30
0.0
  0
INSERT
  5
FFBBDAE469BBFB98
  8
0
  6
CONTINUOUS
  2
*U13
 10
0.0
 20
0.0
 30
0.0
  0
INSERT
  5
FFBBDAE469BBFB99
  8
0
  6
CONTINUOUS
  2
*U14
 10
0.0
 20
0.0
 30
0.0
  0
INSERT
  5
FFBBDAE469BBFB9A
  8
0
  6
CONTINUOUS
  2
*U15
 10
0.0
 20
0.0
 30
0.0
  0
INSERT
  5
FFBBDAE469BBFB9B
  8
0
  6
CONTINUOUS
  2
*U16
 10
0.0
 20
0.0
 30
0.0
  0
INSERT
  5
FFBBDAE469BBFB9C
  8
0
  6
CONTINUOUS
  2
*U17
 10
0.0
 20
0.0
 30
0.0
  0
INSERT
  5
FFBBDAE469BBFB9D
  8
0
  6
CONTINUOUS
  2
*U18
 10
0.0
 20
0.0
 30
0.0
  0
INSERT
  5
FFBBDAE469BBFB9E
  8
0
  6
CONTINUOUS
  2
*U19
 10
0.0
 20
0.0
 30
0.0
  0
INSERT
  5
FFBBDAE469BBFB9F
  8
0
  6
CONTINUOUS
  2
*U20
 10
0.0
 20
0.0
 30
0.0
  0
INSERT
  5
FFBBDAE469BBFDF8
  8
0
  6
CONTINUOUS
  2
*U21
 10
0.0
 20
0.0
 30
0.0
  0
ENDSEC
  0
EOF
