  0
SECTION
  2
HEADER
  9
$ACADVER
  1
AC1021
  9
$ACADMAINTVER
 70
    53
  9
$DWGCODEPAGE
  3
ANSI_1252
  9
$LASTSAVEDBY
  1
Dallas Williams
  9
$INSBASE
 10
0.0
 20
0.0
 30
0.0
  9
$EXTMIN
 10
1798.722813310722
 20
-1734.445467153143
 30
-0.0000000000000537
  9
$EXTMAX
 10
8510.554181260722
 20
4014.262778149008
 30
0.0000000000004312
  9
$LIMMIN
 10
0.0
 20
0.0
  9
$LIMMAX
 10
12.0
 20
9.0
  9
$ORTHOMODE
 70
     1
  9
$REGENMODE
 70
     1
  9
$FILLMODE
 70
     1
  9
$QTEXTMODE
 70
     0
  9
$MIRRTEXT
 70
     0
  9
$LTSCALE
 40
1.0
  9
$ATTMODE
 70
     1
  9
$TEXTSIZE
 40
2.0
  9
$TRACEWID
 40
0.05
  9
$TEXTSTYLE
  7
2mm
  9
$CLAYER
  8
0
  9
$CELTYPE
  6
ByLayer
  9
$CECOLOR
 62
   256
  9
$CELTSCALE
 40
1.0
  9
$DISPSILH
 70
     0
  9
$DIMSCALE
 40
1.0
  9
$DIMASZ
 40
3.0
  9
$DIMEXO
 40
3.0
  9
$DIMDLI
 40
400.0
  9
$DIMRND
 40
0.0
  9
$DIMDLE
 40
0.0
  9
$DIMEXE
 40
1.0
  9
$DIMTP
 40
0.0
  9
$DIMTM
 40
0.0
  9
$DIMTXT
 40
2.0
  9
$DIMCEN
 40
2.0
  9
$DIMTSZ
 40
0.0
  9
$DIMTOL
 70
     0
  9
$DIMLIM
 70
     0
  9
$DIMTIH
 70
     0
  9
$DIMTOH
 70
     0
  9
$DIMSE1
 70
     0
  9
$DIMSE2
 70
     0
  9
$DIMTAD
 70
     0
  9
$DIMZIN
 70
     0
  9
$DIMBLK
  1
OBLIQUE
  9
$DIMASO
 70
     1
  9
$DIMSHO
 70
     1
  9
$DIMPOST
  1

  9
$DIMAPOST
  1
M
  9
$DIMALT
 70
     0
  9
$DIMALTD
 70
     2
  9
$DIMALTF
 40
0.001
  9
$DIMLFAC
 40
1.0
  9
$DIMTOFL
 70
     0
  9
$DIMTVP
 40
0.0
  9
$DIMTIX
 70
     0
  9
$DIMSOXD
 70
     0
  9
$DIMSAH
 70
     0
  9
$DIMBLK1
  1

  9
$DIMBLK2
  1

  9
$DIMSTYLE
  2
2mm
  9
$DIMCLRD
 70
   256
  9
$DIMCLRE
 70
   256
  9
$DIMCLRT
 70
   256
  9
$DIMTFAC
 40
1.0
  9
$DIMGAP
 40
0.0
  9
$DIMJUST
 70
     0
  9
$DIMSD1
 70
     0
  9
$DIMSD2
 70
     0
  9
$DIMTOLJ
 70
     1
  9
$DIMTZIN
 70
     0
  9
$DIMALTZ
 70
     8
  9
$DIMALTTZ
 70
     0
  9
$DIMUPT
 70
     0
  9
$DIMDEC
 70
     0
  9
$DIMTDEC
 70
     0
  9
$DIMALTU
 70
     2
  9
$DIMALTTD
 70
     2
  9
$DIMTXSTY
  7
2mm
  9
$DIMAUNIT
 70
     0
  9
$DIMADEC
 70
     2
  9
$DIMALTRND
 40
0.0
  9
$DIMAZIN
 70
     0
  9
$DIMDSEP
 70
    46
  9
$DIMATFIT
 70
     3
  9
$DIMFRAC
 70
     0
  9
$DIMLDRBLK
  1
OBLIQUE
  9
$DIMLUNIT
 70
     2
  9
$DIMLWD
 70
     9
  9
$DIMLWE
 70
     9
  9
$DIMTMOVE
 70
     2
  9
$DIMFXL
 40
1.0
  9
$DIMFXLON
 70
     0
  9
$DIMJOGANG
 40
0.7853981633974483
  9
$DIMTFILL
 70
     0
  9
$DIMTFILLCLR
 70
     0
  9
$DIMARCSYM
 70
     0
  9
$DIMLTYPE
  6
ByLayer
  9
$DIMLTEX1
  6
ByLayer
  9
$DIMLTEX2
  6
ByLayer
  9
$LUNITS
 70
     2
  9
$LUPREC
 70
     4
  9
$SKETCHINC
 40
0.1
  9
$FILLETRAD
 40
0.0
  9
$AUNITS
 70
     0
  9
$AUPREC
 70
     2
  9
$MENU
  1
.
  9
$ELEVATION
 40
0.0
  9
$PELEVATION
 40
0.0
  9
$THICKNESS
 40
0.0
  9
$LIMCHECK
 70
     0
  9
$CHAMFERA
 40
0.0
  9
$CHAMFERB
 40
0.0
  9
$CHAMFERC
 40
0.0
  9
$CHAMFERD
 40
0.0
  9
$SKPOLY
 70
     0
  9
$TDCREATE
 40
2456332.398470405
  9
$TDUCREATE
 40
2456331.898470405
  9
$TDUPDATE
 40
2456554.815560799
  9
$TDUUPDATE
 40
2456554.315560798
  9
$TDINDWG
 40
0.1843622801
  9
$TDUSRTIMER
 40
0.1843622801
  9
$USRTIMER
 70
     1
  9
$ANGBASE
 50
0.0
  9
$ANGDIR
 70
     0
  9
$PDMODE
 70
    35
  9
$PDSIZE
 40
0.0
  9
$PLINEWID
 40
0.0
  9
$SPLFRAME
 70
     0
  9
$SPLINETYPE
 70
     6
  9
$SPLINESEGS
 70
     8
  9
$HANDSEED
  5
A9DD
  9
$SURFTAB1
 70
     6
  9
$SURFTAB2
 70
     6
  9
$SURFTYPE
 70
     6
  9
$SURFU
 70
     6
  9
$SURFV
 70
     6
  9
$UCSBASE
  2

  9
$UCSNAME
  2

  9
$UCSORG
 10
0.0
 20
0.0
 30
0.0
  9
$UCSXDIR
 10
1.0
 20
0.0
 30
0.0
  9
$UCSYDIR
 10
0.0
 20
1.0
 30
0.0
  9
$UCSORTHOREF
  2

  9
$UCSORTHOVIEW
 70
     0
  9
$UCSORGTOP
 10
0.0
 20
0.0
 30
0.0
  9
$UCSORGBOTTOM
 10
0.0
 20
0.0
 30
0.0
  9
$UCSORGLEFT
 10
0.0
 20
0.0
 30
0.0
  9
$UCSORGRIGHT
 10
0.0
 20
0.0
 30
0.0
  9
$UCSORGFRONT
 10
0.0
 20
0.0
 30
0.0
  9
$UCSORGBACK
 10
0.0
 20
0.0
 30
0.0
  9
$PUCSBASE
  2

  9
$PUCSNAME
  2

  9
$PUCSORG
 10
0.0
 20
0.0
 30
0.0
  9
$PUCSXDIR
 10
1.0
 20
0.0
 30
0.0
  9
$PUCSYDIR
 10
0.0
 20
1.0
 30
0.0
  9
$PUCSORTHOREF
  2

  9
$PUCSORTHOVIEW
 70
     0
  9
$PUCSORGTOP
 10
0.0
 20
0.0
 30
0.0
  9
$PUCSORGBOTTOM
 10
0.0
 20
0.0
 30
0.0
  9
$PUCSORGLEFT
 10
0.0
 20
0.0
 30
0.0
  9
$PUCSORGRIGHT
 10
0.0
 20
0.0
 30
0.0
  9
$PUCSORGFRONT
 10
0.0
 20
0.0
 30
0.0
  9
$PUCSORGBACK
 10
0.0
 20
0.0
 30
0.0
  9
$USERI1
 70
     0
  9
$USERI2
 70
     0
  9
$USERI3
 70
     0
  9
$USERI4
 70
     0
  9
$USERI5
 70
     0
  9
$USERR1
 40
0.0
  9
$USERR2
 40
0.0
  9
$USERR3
 40
0.0
  9
$USERR4
 40
0.0
  9
$USERR5
 40
0.0
  9
$WORLDVIEW
 70
     1
  9
$SHADEDGE
 70
     3
  9
$SHADEDIF
 70
    70
  9
$TILEMODE
 70
     1
  9
$MAXACTVP
 70
    64
  9
$PINSBASE
 10
0.0
 20
0.0
 30
0.0
  9
$PLIMCHECK
 70
     0
  9
$PEXTMIN
 10
-0.009737454839069
 20
0.0009282361654073
 30
-0.0015258207003583
  9
$PEXTMAX
 10
295.4222388616949
 20
295.4110107424506
 30
0.0000000349246037
  9
$PLIMMIN
 10
-0.7937499880790711
 20
-0.7937499880790711
  9
$PLIMMAX
 10
209.2062500119209
 20
296.2062500119209
  9
$UNITMODE
 70
     0
  9
$VISRETAIN
 70
     1
  9
$PLINEGEN
 70
     0
  9
$PSLTSCALE
 70
     1
  9
$TREEDEPTH
 70
  3020
  9
$CMLSTYLE
  2
Standard
  9
$CMLJUST
 70
     0
  9
$CMLSCALE
 40
1.0
  9
$PROXYGRAPHICS
 70
     1
  9
$MEASUREMENT
 70
     0
  9
$CELWEIGHT
370
    -1
  9
$ENDCAPS
280
     0
  9
$JOINSTYLE
280
     0
  9
$LWDISPLAY
290
     0
  9
$INSUNITS
 70
     4
  9
$HYPERLINKBASE
  1

  9
$STYLESHEET
  1

  9
$XEDIT
290
     1
  9
$CEPSNTYPE
380
     0
  9
$PSTYLEMODE
290
     1
  9
$FINGERPRINTGUID
  2
{C2DBB197-A9E4-43FA-9C69-81C1E1A60DB9}
  9
$VERSIONGUID
  2
{23F0D0D6-52BA-42B0-9B65-0B4BEAC2552C}
  9
$EXTNAMES
290
     1
  9
$PSVPSCALE
 40
0.0
  9
$OLESTARTUP
290
     0
  9
$SORTENTS
280
   127
  9
$INDEXCTL
280
     0
  9
$HIDETEXT
280
     0
  9
$XCLIPFRAME
290
     0
  9
$HALOGAP
280
     0
  9
$OBSCOLOR
 70
   257
  9
$OBSLTYPE
280
     0
  9
$INTERSECTIONDISPLAY
280
     0
  9
$INTERSECTIONCOLOR
 70
   257
  9
$DIMASSOC
280
     1
  9
$PROJECTNAME
  1

  9
$CAMERADISPLAY
290
     0
  9
$LENSLENGTH
 40
50.0
  9
$CAMERAHEIGHT
 40
0.0
  9
$STEPSPERSEC
 40
2.0
  9
$STEPSIZE
 40
6.0
  9
$3DDWFPREC
 40
2.0
  9
$PSOLWIDTH
 40
0.25
  9
$PSOLHEIGHT
 40
4.0
  9
$LOFTANG1
 40
1.570796326794896
  9
$LOFTANG2
 40
1.570796326794896
  9
$LOFTMAG1
 40
0.0
  9
$LOFTMAG2
 40
0.0
  9
$LOFTPARAM
 70
     7
  9
$LOFTNORMALS
280
     1
  9
$LATITUDE
 40
37.795
  9
$LONGITUDE
 40
-122.394
  9
$NORTHDIRECTION
 40
0.0
  9
$TIMEZONE
 70
 -8000
  9
$LIGHTGLYPHDISPLAY
280
     1
  9
$TILEMODELIGHTSYNCH
280
     1
  9
$CMATERIAL
347
217
  9
$SOLIDHIST
280
     0
  9
$SHOWHIST
280
     1
  9
$DWFFRAME
280
     2
  9
$DGNFRAME
280
     0
  9
$REALWORLDSCALE
290
     1
  9
$INTERFERECOLOR
 62
     1
  9
$INTERFEREOBJVS
345
224
  9
$INTERFEREVPVS
346
221
  9
$CSHADOW
280
     0
  9
$SHADOWPLANELOCATION
 40
0.0
  0
ENDSEC
  0
SECTION
  2
CLASSES
  0
CLASS
  1
ACDBDICTIONARYWDFLT
  2
AcDbDictionaryWithDefault
  3
ObjectDBX Classes
 90
        0
 91
        1
280
     0
281
     0
  0
CLASS
  1
MATERIAL
  2
AcDbMaterial
  3
ObjectDBX Classes
 90
     1153
 91
        3
280
     0
281
     0
  0
CLASS
  1
VISUALSTYLE
  2
AcDbVisualStyle
  3
ObjectDBX Classes
 90
     4095
 91
       16
280
     0
281
     0
  0
CLASS
  1
TABLESTYLE
  2
AcDbTableStyle
  3
ObjectDBX Classes
 90
     4095
 91
        2
280
     0
281
     0
  0
CLASS
  1
DICTIONARYVAR
  2
AcDbDictionaryVar
  3
ObjectDBX Classes
 90
        0
 91
        9
280
     0
281
     0
  0
CLASS
  1
SCALE
  2
AcDbScale
  3
ObjectDBX Classes
 90
     1153
 91
       43
280
     0
281
     0
  0
CLASS
  1
MLEADERSTYLE
  2
AcDbMLeaderStyle
  3
ACDB_MLEADERSTYLE_CLASS
 90
     4095
 91
        2
280
     0
281
     0
  0
CLASS
  1
CELLSTYLEMAP
  2
AcDbCellStyleMap
  3
ObjectDBX Classes
 90
     1152
 91
        4
280
     0
281
     0
  0
CLASS
  1
ACDB_TEXTOBJECTCONTEXTDATA_CLASS
  2
AcDbTextObjectContextData
  3
ObjectDBX Classes
 90
     1153
 91
        0
280
     0
281
     0
  0
CLASS
  1
ACDB_ALDIMOBJECTCONTEXTDATA_CLASS
  2
AcDbAlignedDimensionObjectContextData
  3
ObjectDBX Classes
 90
     1153
 91
        0
280
     0
281
     0
  0
CLASS
  1
MULTILEADER
  2
AcDbMLeader
  3
ACDB_MLEADER_CLASS
 90
     1025
 91
        0
280
     0
281
     1
  0
CLASS
  1
ACDB_MLEADEROBJECTCONTEXTDATA_CLASS
  2
AcDbMLeaderObjectContextData
  3
ObjectDBX Classes
 90
     1153
 91
        0
280
     0
281
     0
  0
CLASS
  1
SORTENTSTABLE
  2
AcDbSortentsTable
  3
ObjectDBX Classes
 90
        0
 91
        4
280
     0
281
     0
  0
CLASS
  1
AEC_REFEDIT_STATUS_TRACKER
  2
AecDbRefEditStatusTracker
  3
AecArchBase50|Product Desc: Autodesk Architectural Desktop 2007 |Company: Autodesk,Inc. |WEB Address: www.autodesk.com
 90
      129
 91
        0
280
     0
281
     0
  0
CLASS
  1
NPOCOLLECTION
  2
AcDbImpNonPersistentObjectsCollection
  3
ObjectDBX Classes
 90
     1153
 91
        1
280
     0
281
     0
  0
CLASS
  1
ACAD_EVALUATION_GRAPH
  2
AcDbEvalGraph
  3
ObjectDBX Classes
 90
     1153
 91
        0
280
     0
281
     0
  0
CLASS
  1
BLOCKPOLARPARAMETER
  2
AcDbBlockPolarParameter
  3
ObjectDBX Classes
 90
     1153
 91
        0
280
     0
281
     0
  0
CLASS
  1
BLOCKPOLARGRIP
  2
AcDbBlockPolarGrip
  3
ObjectDBX Classes
 90
     1153
 91
        0
280
     0
281
     0
  0
CLASS
  1
BLOCKGRIPLOCATIONCOMPONENT
  2
AcDbBlockGripExpr
  3
ObjectDBX Classes
 90
     1153
 91
        0
280
     0
281
     0
  0
CLASS
  1
BLOCKPOLARSTRETCHACTION
  2
AcDbBlockPolarStretchAction
  3
ObjectDBX Classes
 90
     1153
 91
        0
280
     0
281
     0
  0
CLASS
  1
ACDB_DYNAMICBLOCKPURGEPREVENTER_VERSION
  2
AcDbDynamicBlockPurgePreventer
  3
ObjectDBX Classes
 90
     1153
 91
        0
280
     0
281
     0
  0
CLASS
  1
BLOCKROTATIONPARAMETER
  2
AcDbBlockRotationParameter
  3
ObjectDBX Classes
 90
     1153
 91
        0
280
     0
281
     0
  0
CLASS
  1
BLOCKROTATIONGRIP
  2
AcDbBlockRotationGrip
  3
ObjectDBX Classes
 90
     1153
 91
        0
280
     0
281
     0
  0
CLASS
  1
BLOCKFLIPPARAMETER
  2
AcDbBlockFlipParameter
  3
ObjectDBX Classes
 90
     1153
 91
        0
280
     0
281
     0
  0
CLASS
  1
BLOCKFLIPGRIP
  2
AcDbBlockFlipGrip
  3
ObjectDBX Classes
 90
     1153
 91
        0
280
     0
281
     0
  0
CLASS
  1
BLOCKROTATEACTION
  2
AcDbBlockRotateAction
  3
ObjectDBX Classes
 90
     1153
 91
        0
280
     0
281
     0
  0
CLASS
  1
BLOCKFLIPACTION
  2
AcDbBlockFlipAction
  3
ObjectDBX Classes
 90
     1153
 91
        0
280
     0
281
     0
  0
CLASS
  1
BLOCKLINEARPARAMETER
  2
AcDbBlockLinearParameter
  3
ObjectDBX Classes
 90
     1153
 91
        0
280
     0
281
     0
  0
CLASS
  1
BLOCKLINEARGRIP
  2
AcDbBlockLinearGrip
  3
ObjectDBX Classes
 90
     1153
 91
        0
280
     0
281
     0
  0
CLASS
  1
BLOCKSTRETCHACTION
  2
AcDbBlockStretchAction
  3
ObjectDBX Classes
 90
     1153
 91
        0
280
     0
281
     0
  0
CLASS
  1
BLOCKVISIBILITYPARAMETER
  2
AcDbBlockVisibilityParameter
  3
ObjectDBX Classes
 90
     1153
 91
        0
280
     0
281
     0
  0
CLASS
  1
BLOCKVISIBILITYGRIP
  2
AcDbBlockVisibilityGrip
  3
ObjectDBX Classes
 90
     1153
 91
        0
280
     0
281
     0
  0
CLASS
  1
BLOCKPOINTPARAMETER
  2
AcDbBlockPointParameter
  3
ObjectDBX Classes
 90
     1153
 91
        0
280
     0
281
     0
  0
CLASS
  1
BLOCKMOVEACTION
  2
AcDbBlockMoveAction
  3
ObjectDBX Classes
 90
     1153
 91
        0
280
     0
281
     0
  0
CLASS
  1
ACDB_BLOCKREPRESENTATION_DATA
  2
AcDbBlockRepresentationData
  3
ObjectDBX Classes
 90
     1153
 91
        0
280
     0
281
     0
  0
CLASS
  1
ACDB_BLKREFOBJECTCONTEXTDATA_CLASS
  2
AcDbBlkRefObjectContextData
  3
ObjectDBX Classes
 90
     1153
 91
        0
280
     0
281
     0
  0
CLASS
  1
ACDB_MTEXTATTRIBUTEOBJECTCONTEXTDATA_CLASS
  2
AcDbMTextAttributeObjectContextData
  3
ObjectDBX Classes
 90
     1153
 91
        0
280
     0
281
     0
  0
CLASS
  1
AEC_VARS_DWG_SETUP
  2
AecDbVarsDwgSetup
  3
AecBase50|Product Desc: Autodesk Architectural Desktop 2007 |Company: Autodesk,Inc. |WEB Address: www.autodesk.com
 90
      129
 91
        0
280
     0
281
     0
  0
CLASS
  1
AEC_DISP_REP_CONFIG
  2
AecDbDispRepConfig
  3
AecBase50|Product Desc: Autodesk Architectural Desktop 2007 |Company: Autodesk,Inc. |WEB Address: www.autodesk.com
 90
      129
 91
        0
280
     0
281
     0
  0
CLASS
  1
AEC_DISP_REP_SET
  2
AecDbDispRepSet
  3
AecBase50|Product Desc: Autodesk Architectural Desktop 2007 |Company: Autodesk,Inc. |WEB Address: www.autodesk.com
 90
      129
 91
        0
280
     0
281
     0
  0
CLASS
  1
AEC_DISP_REP_2D_SECTION
  2
AecDbDispRep2dSection
  3
AecBase50|Product Desc: Autodesk Architectural Desktop 2007 |Company: Autodesk,Inc. |WEB Address: www.autodesk.com
 90
      129
 91
        0
280
     0
281
     0
  0
CLASS
  1
AEC_DISP_REP_ANCHOR_BUB_TO_GRID
  2
AecDbDispRepAnchorBubToGrid
  3
AecStructureBase50|Product Desc: Autodesk Architectural Desktop 2007 |Company: Autodesk,Inc. |WEB Address: www.autodesk.com
 90
      129
 91
        0
280
     0
281
     0
  0
CLASS
  1
AEC_DISP_REP_ANCHOR_BUB_TO_GRID_MODEL
  2
AecDbDispRepAnchorBubToGridMdl
  3
AecStructureBase50|Product Desc: Autodesk Architectural Desktop 2007 |Company: Autodesk,Inc. |WEB Address: www.autodesk.com
 90
      129
 91
        0
280
     0
281
     0
  0
CLASS
  1
AEC_DISP_REP_ANCHOR_ENT_TO_NODE
  2
AecDbDispRepAnchorEntToNode
  3
AecBaseEx50|Product Desc: Autodesk Architectural Desktop 2007 |Company: Autodesk,Inc. |WEB Address: www.autodesk.com
 90
      129
 91
        0
280
     0
281
     0
  0
CLASS
  1
AEC_DISP_REP_ANCHOR_TAG_TO_ENT
  2
AecDbDispRepAnchorTagToEnt
  3
AecScheduleData50|Product Desc: Autodesk Architectural Desktop 2007 |Company: Autodesk,Inc. |WEB Address: www.autodesk.com
 90
      129
 91
        0
280
     0
281
     0
  0
CLASS
  1
AEC_DISP_REP_BDG_ELEVLINE_MODEL
  2
AecDbDispRepBdgElevLineModel
  3
AecArchBase50|Product Desc: Autodesk Architectural Desktop 2007 |Company: Autodesk,Inc. |WEB Address: www.autodesk.com
 90
      129
 91
        0
280
     0
281
     0
  0
CLASS
  1
AEC_DISP_REP_BDG_SECTIONLINE_PLAN
  2
AecDbDispRepBdgElevLinePlan
  3
AecArchBase50|Product Desc: Autodesk Architectural Desktop 2007 |Company: Autodesk,Inc. |WEB Address: www.autodesk.com
 90
      129
 91
        0
280
     0
281
     0
  0
CLASS
  1
AEC_DISP_REP_BDG_SECTIONLINE_MODEL
  2
AecDbDispRepBdgSectionLineModel
  3
AecArchBase50|Product Desc: Autodesk Architectural Desktop 2007 |Company: Autodesk,Inc. |WEB Address: www.autodesk.com
 90
      129
 91
        0
280
     0
281
     0
  0
CLASS
  1
AEC_DISP_REP_BDG_SECTIONLINE_PLAN
  2
AecDbDispRepBdgSectionLinePlan
  3
AecArchBase50|Product Desc: Autodesk Architectural Desktop 2007 |Company: Autodesk,Inc. |WEB Address: www.autodesk.com
 90
      129
 91
        0
280
     0
281
     0
  0
CLASS
  1
AEC_DISP_REP_BDG_SECTION_SUBDIV
  2
AecDbDispRepBdgSectionSubDiv
  3
AecArchBase50|Product Desc: Autodesk Architectural Desktop 2007 |Company: Autodesk,Inc. |WEB Address: www.autodesk.com
 90
      129
 91
        0
280
     0
281
     0
  0
CLASS
  1
AEC_DISP_REP_CEILING_GRID
  2
AecDbDispRepCeilingGrid
  3
AecArchBase50|Product Desc: Autodesk Architectural Desktop 2007 |Company: Autodesk,Inc. |WEB Address: www.autodesk.com
 90
      893
 91
        0
280
     0
281
     0
  0
CLASS
  1
AEC_DISP_REP_CEILING_GRID_MODEL
  2
AecDbDispRepCeilingGridModel
  3
AecArchBase50|Product Desc: Autodesk Architectural Desktop 2007 |Company: Autodesk,Inc. |WEB Address: www.autodesk.com
 90
      129
 91
        0
280
     0
281
     0
  0
CLASS
  1
AEC_DISP_REP_CEILING_GRID_RCP
  2
AecDbDispRepCeilingGridRcp
  3
AecArchBase50|Product Desc: Autodesk Architectural Desktop 2007 |Company: Autodesk,Inc. |WEB Address: www.autodesk.com
 90
      129
 91
        0
280
     0
281
     0
  0
CLASS
  1
AEC_DISP_REP_CLIP_VOLUME_MODEL
  2
AecDbDispRepClipVolModel
  3
AecBase50|Product Desc: Autodesk Architectural Desktop 2007 |Company: Autodesk,Inc. |WEB Address: www.autodesk.com
 90
      129
 91
        0
280
     0
281
     0
  0
CLASS
  1
AEC_DISP_REP_CLIP_VOLUME_PLAN
  2
AecDbDispRepClipVolPlan
  3
AecBase50|Product Desc: Autodesk Architectural Desktop 2007 |Company: Autodesk,Inc. |WEB Address: www.autodesk.com
 90
      129
 91
        0
280
     0
281
     0
  0
CLASS
  1
AEC_DISP_REP_CLIP_VOLUME_RESULT_SUBDIV
  2
AecDbDispRepClipVolResSubDiv
  3
AecBase50|Product Desc: Autodesk Architectural Desktop 2007 |Company: Autodesk,Inc. |WEB Address: www.autodesk.com
 90
      129
 91
        0
280
     0
281
     0
  0
CLASS
  1
AEC_DISP_REP_CLIP_VOLUME_RESULT
  2
AecDbDispRepClipVolResult
  3
AecBase50|Product Desc: Autodesk Architectural Desktop 2007 |Company: Autodesk,Inc. |WEB Address: www.autodesk.com
 90
      129
 91
        0
280
     0
281
     0
  0
CLASS
  1
AEC_DISP_REP_COLUMN_GRID
  2
AecDbDispRepColumnGrid
  3
AecStructureBase50|Product Desc: Autodesk Architectural Desktop 2007 |Company: Autodesk,Inc. |WEB Address: www.autodesk.com
 90
      129
 91
        0
280
     0
281
     0
  0
CLASS
  1
AEC_DISP_REP_COLUMN_GRID_MODEL
  2
AecDbDispRepColumnGridModel
  3
AecStructureBase50|Product Desc: Autodesk Architectural Desktop 2007 |Company: Autodesk,Inc. |WEB Address: www.autodesk.com
 90
      129
 91
        0
280
     0
281
     0
  0
CLASS
  1
AEC_DISP_REP_CURTAIN_WALL_LAYOUT_MODEL
  2
AecDbDispRepCurtainWallLayoutModel
  3
AecArchBase50|Product Desc: Autodesk Architectural Desktop 2007 |Company: Autodesk,Inc. |WEB Address: www.autodesk.com
 90
      129
 91
        0
280
     0
281
     0
  0
CLASS
  1
AEC_DISP_REP_CURTAIN_WALL_LAYOUT_PLAN
  2
AecDbDispRepCurtainWallLayoutPlan
  3
AecArchBase50|Product Desc: Autodesk Architectural Desktop 2007 |Company: Autodesk,Inc. |WEB Address: www.autodesk.com
 90
      129
 91
        0
280
     0
281
     0
  0
CLASS
  1
AEC_DISP_REP_CURTAIN_WALL_UNIT_MODEL
  2
AecDbDispRepCurtainWallUnitModel
  3
AecArchBase50|Product Desc: Autodesk Architectural Desktop 2007 |Company: Autodesk,Inc. |WEB Address: www.autodesk.com
 90
      129
 91
        0
280
     0
281
     0
  0
CLASS
  1
AEC_DISP_REP_CURTAIN_WALL_UNIT_PLAN
  2
AecDbDispRepCurtainWallUnitPlan
  3
AecArchBase50|Product Desc: Autodesk Architectural Desktop 2007 |Company: Autodesk,Inc. |WEB Address: www.autodesk.com
 90
      129
 91
        0
280
     0
281
     0
  0
CLASS
  1
AEC_DB_DISP_REP_DIM_GROUP_PLAN
  2
AecDbDispRepDimGroupPlan
  3
AecArchDACHBase50|Product Desc: Autodesk Architectural Desktop 2007 |Company: Autodesk,Inc. |WEB Address: www.autodesk.com
 90
      129
 91
        0
280
     0
281
     0
  0
CLASS
  1
AEC_DISP_REP_DISPLAYTHEME
  2
AecDbDispRepDisplayTheme
  3
AecBase50|Product Desc: Autodesk Architectural Desktop 2007 |Company: Autodesk,Inc. |WEB Address: www.autodesk.com
 90
      129
 91
        0
280
     0
281
     0
  0
CLASS
  1
AEC_DISP_REP_DOOR_MODEL
  2
AecDbDispRepDoorModel
  3
AecArchBase50|Product Desc: Autodesk Architectural Desktop 2007 |Company: Autodesk,Inc. |WEB Address: www.autodesk.com
 90
      129
 91
        0
280
     0
281
     0
  0
CLASS
  1
AEC_DISP_REP_DOOR_NOMINAL
  2
AecDbDispRepDoorNominal
  3
AecArchBase50|Product Desc: Autodesk Architectural Desktop 2007 |Company: Autodesk,Inc. |WEB Address: www.autodesk.com
 90
      129
 91
        0
280
     0
281
     0
  0
CLASS
  1
AEC_DISP_REP_DOOR_PLAN
  2
AecDbDispRepDoorPlan
  3
AecArchBase50|Product Desc: Autodesk Architectural Desktop 2007 |Company: Autodesk,Inc. |WEB Address: www.autodesk.com
 90
      129
 91
        0
280
     0
281
     0
  0
CLASS
  1
AEC_DISP_REP_EDITINPLACEPROFILE
  2
AecDbDispRepEditInPlaceProfile
  3
AecBase50|Product Desc: Autodesk Architectural Desktop 2007 |Company: Autodesk,Inc. |WEB Address: www.autodesk.com
 90
      129
 91
        0
280
     0
281
     0
  0
CLASS
  1
AEC_DISP_REP_ENT_REF
  2
AecDbDispRepEntRef
  3
AecBase50|Product Desc: Autodesk Architectural Desktop 2007 |Company: Autodesk,Inc. |WEB Address: www.autodesk.com
 90
      129
 91
        0
280
     0
281
     0
  0
CLASS
  1
AEC_DISP_REP_LAYOUT_CURVE
  2
AecDbDispRepLayoutCurve
  3
AecBase50|Product Desc: Autodesk Architectural Desktop 2007 |Company: Autodesk,Inc. |WEB Address: www.autodesk.com
 90
      129
 91
        0
280
     0
281
     0
  0
CLASS
  1
AEC_DISP_REP_LAYOUT_GRID2D
  2
AecDbDispRepLayoutGrid2d
  3
AecBase50|Product Desc: Autodesk Architectural Desktop 2007 |Company: Autodesk,Inc. |WEB Address: www.autodesk.com
 90
      129
 91
        0
280
     0
281
     0
  0
CLASS
  1
AEC_DISP_REP_LAYOUT_GRID3D
  2
AecDbDispRepLayoutGrid3d
  3
AecBase50|Product Desc: Autodesk Architectural Desktop 2007 |Company: Autodesk,Inc. |WEB Address: www.autodesk.com
 90
      129
 91
        0
280
     0
281
     0
  0
CLASS
  1
AEC_DISP_REP_MASKBLOCK_REF
  2
AecDbDispRepMaskBlockRef
  3
AecBase50|Product Desc: Autodesk Architectural Desktop 2007 |Company: Autodesk,Inc. |WEB Address: www.autodesk.com
 90
      129
 91
        0
280
     0
281
     0
  0
CLASS
  1
AEC_DISP_REP_MASKBLOCK_REF_RCP
  2
AecDbDispRepMaskBlockRefRcp
  3
AecArchBase50|Product Desc: Autodesk Architectural Desktop 2007 |Company: Autodesk,Inc. |WEB Address: www.autodesk.com
 90
      129
 91
        0
280
     0
281
     0
  0
CLASS
  1
AEC_DISP_REP_MASS_ELEM_MODEL
  2
AecDbDispRepMassElemModel
  3
AecBaseEx50|Product Desc: Autodesk Architectural Desktop 2007 |Company: Autodesk,Inc. |WEB Address: www.autodesk.com
 90
      129
 91
        0
280
     0
281
     0
  0
CLASS
  1
AEC_DISP_REP_MASS_ELEM_SCHEM
  2
AecDbDispRepMassElemSchem
  3
AecBaseEx50|Product Desc: Autodesk Architectural Desktop 2007 |Company: Autodesk,Inc. |WEB Address: www.autodesk.com
 90
      129
 91
        0
280
     0
281
     0
  0
CLASS
  1
AEC_DISP_REP_MASS_GROUP_MODEL
  2
AecDbDispRepMassGroupModel
  3
AecBaseEx50|Product Desc: Autodesk Architectural Desktop 2007 |Company: Autodesk,Inc. |WEB Address: www.autodesk.com
 90
      129
 91
        0
280
     0
281
     0
  0
CLASS
  1
AEC_DISP_REP_MASS_GROUP_PLAN
  2
AecDbDispRepMassGroupPlan
  3
AecBaseEx50|Product Desc: Autodesk Architectural Desktop 2007 |Company: Autodesk,Inc. |WEB Address: www.autodesk.com
 90
      129
 91
        0
280
     0
281
     0
  0
CLASS
  1
AEC_DISP_REP_MATERIAL
  2
AecDbDispRepMaterial
  3
AecBase50|Product Desc: Autodesk Architectural Desktop 2007 |Company: Autodesk,Inc. |WEB Address: www.autodesk.com
 90
      129
 91
        0
280
     0
281
     0
  0
CLASS
  1
AEC_DISP_REP_MVBLOCK_REF
  2
AecDbDispRepMvBlockRef
  3
AecBase50|Product Desc: Autodesk Architectural Desktop 2007 |Company: Autodesk,Inc. |WEB Address: www.autodesk.com
 90
      129
 91
        0
280
     0
281
     0
  0
CLASS
  1
AEC_DISP_REP_MVBLOCK_REF_MODEL
  2
AecDbDispRepMvBlockRefModel
  3
AecBase50|Product Desc: Autodesk Architectural Desktop 2007 |Company: Autodesk,Inc. |WEB Address: www.autodesk.com
 90
      129
 91
        0
280
     0
281
     0
  0
CLASS
  1
AEC_DISP_REP_OPENING
  2
AecDbDispRepOpening
  3
AecArchBase50|Product Desc: Autodesk Architectural Desktop 2007 |Company: Autodesk,Inc. |WEB Address: www.autodesk.com
 90
      129
 91
        0
280
     0
281
     0
  0
CLASS
  1
AEC_DISP_REP_OPENING_MODEL
  2
AecDbDispRepOpeningModel
  3
AecArchBase50|Product Desc: Autodesk Architectural Desktop 2007 |Company: Autodesk,Inc. |WEB Address: www.autodesk.com
 90
      129
 91
        0
280
     0
281
     0
  0
CLASS
  1
AEC_DISP_REP_POLYGON_MODEL
  2
AecDbDispRepPolygonModel
  3
AecBaseEx50|Product Desc: Autodesk Architectural Desktop 2007 |Company: Autodesk,Inc. |WEB Address: www.autodesk.com
 90
      129
 91
        0
280
     0
281
     0
  0
CLASS
  1
AEC_DISP_REP_RAILING_MODEL
  2
AecDbDispRepRailingModel
  3
AecArchBase50|Product Desc: Autodesk Architectural Desktop 2007 |Company: Autodesk,Inc. |WEB Address: www.autodesk.com
 90
      129
 91
        0
280
     0
281
     0
  0
CLASS
  1
AEC_DISP_REP_RAILING_PLAN
  2
AecDbDispRepRailingPlan
  3
AecArchBase50|Product Desc: Autodesk Architectural Desktop 2007 |Company: Autodesk,Inc. |WEB Address: www.autodesk.com
 90
      129
 91
        0
280
     0
281
     0
  0
CLASS
  1
AEC_DISP_REP_ROOF_MODEL
  2
AecDbDispRepRoofModel
  3
AecArchBase50|Product Desc: Autodesk Architectural Desktop 2007 |Company: Autodesk,Inc. |WEB Address: www.autodesk.com
 90
      129
 91
        0
280
     0
281
     0
  0
CLASS
  1
AEC_DISP_REP_ROOF_PLAN
  2
AecDbDispRepRoofPlan
  3
AecArchBase50|Product Desc: Autodesk Architectural Desktop 2007 |Company: Autodesk,Inc. |WEB Address: www.autodesk.com
 90
      129
 91
        0
280
     0
281
     0
  0
CLASS
  1
AEC_DISP_REP_ROOFSLAB_MODEL
  2
AecDbDispRepRoofSlabModel
  3
AecArchBase50|Product Desc: Autodesk Architectural Desktop 2007 |Company: Autodesk,Inc. |WEB Address: www.autodesk.com
 90
      129
 91
        0
280
     0
281
     0
  0
CLASS
  1
AEC_DISP_REP_ROOFSLAB_PLAN
  2
AecDbDispRepRoofSlabPlan
  3
AecArchBase50|Product Desc: Autodesk Architectural Desktop 2007 |Company: Autodesk,Inc. |WEB Address: www.autodesk.com
 90
      129
 91
        0
280
     0
281
     0
  0
CLASS
  1
AEC_DISP_REP_SCHEDULE_TABLE
  2
AecDbDispRepScheduleTable
  3
AecSchedule50|Product Desc: Autodesk Architectural Desktop 2007 |Company: Autodesk,Inc. |WEB Address: www.autodesk.com
 90
      129
 91
        0
280
     0
281
     0
  0
CLASS
  1
AEC_DISP_REP_SLAB_MODEL
  2
AecDbDispRepSlabModel
  3
AecArchBase50|Product Desc: Autodesk Architectural Desktop 2007 |Company: Autodesk,Inc. |WEB Address: www.autodesk.com
 90
      129
 91
        0
280
     0
281
     0
  0
CLASS
  1
AEC_DISP_REP_SLAB_PLAN
  2
AecDbDispRepSlabPlan
  3
AecArchBase50|Product Desc: Autodesk Architectural Desktop 2007 |Company: Autodesk,Inc. |WEB Address: www.autodesk.com
 90
      129
 91
        0
280
     0
281
     0
  0
CLASS
  1
AEC_DISP_REP_SLICE
  2
AecDbDispRepSlice
  3
AecBase50|Product Desc: Autodesk Architectural Desktop 2007 |Company: Autodesk,Inc. |WEB Address: www.autodesk.com
 90
      129
 91
        0
280
     0
281
     0
  0
CLASS
  1
AEC_DISP_REP_SPACE_DECOMPOSED
  2
AecDbDispRepSpaceDecomposed
  3
AecArchBase50|Product Desc: Autodesk Architectural Desktop 2007 |Company: Autodesk,Inc. |WEB Address: www.autodesk.com
 90
      129
 91
        0
280
     0
281
     0
  0
CLASS
  1
AEC_DISP_REP_SPACE_MODEL
  2
AecDbDispRepSpaceModel
  3
AecArchBase50|Product Desc: Autodesk Architectural Desktop 2007 |Company: Autodesk,Inc. |WEB Address: www.autodesk.com
 90
      129
 91
        0
280
     0
281
     0
  0
CLASS
  1
AEC_DISP_REP_SPACE_PLAN
  2
AecDbDispRepSpacePlan
  3
AecArchBase50|Product Desc: Autodesk Architectural Desktop 2007 |Company: Autodesk,Inc. |WEB Address: www.autodesk.com
 90
      129
 91
        0
280
     0
281
     0
  0
CLASS
  1
AEC_DISP_REP_STAIR_MODEL
  2
AecDbDispRepStairModel
  3
AecArchBase50|Product Desc: Autodesk Architectural Desktop 2007 |Company: Autodesk,Inc. |WEB Address: www.autodesk.com
 90
      129
 91
        0
280
     0
281
     0
  0
CLASS
  1
AEC_DISP_REP_STAIR_PLAN
  2
AecDbDispRepStairPlan
  3
AecArchBase50|Product Desc: Autodesk Architectural Desktop 2007 |Company: Autodesk,Inc. |WEB Address: www.autodesk.com
 90
      129
 91
        0
280
     0
281
     0
  0
CLASS
  1
AEC_DISP_REP_WALL_GRAPH
  2
AecDbDispRepWallGraph
  3
AecArchBase50|Product Desc: Autodesk Architectural Desktop 2007 |Company: Autodesk,Inc. |WEB Address: www.autodesk.com
 90
      129
 91
        0
280
     0
281
     0
  0
CLASS
  1
AEC_DISP_REP_WALL_MODEL
  2
AecDbDispRepWallModel
  3
AecArchBase50|Product Desc: Autodesk Architectural Desktop 2007 |Company: Autodesk,Inc. |WEB Address: www.autodesk.com
 90
      129
 91
        0
280
     0
281
     0
  0
CLASS
  1
AEC_DISP_REP_WALL_PLAN
  2
AecDbDispRepWallPlan
  3
AecArchBase50|Product Desc: Autodesk Architectural Desktop 2007 |Company: Autodesk,Inc. |WEB Address: www.autodesk.com
 90
      129
 91
        0
280
     0
281
     0
  0
CLASS
  1
AEC_DISP_REP_WALL_SCHEM
  2
AecDbDispRepWallSchem
  3
AecArchBase50|Product Desc: Autodesk Architectural Desktop 2007 |Company: Autodesk,Inc. |WEB Address: www.autodesk.com
 90
      129
 91
        0
280
     0
281
     0
  0
CLASS
  1
AEC_DISP_REP_WINDOW_ASSEMBLY_MODEL
  2
AecDbDispRepWindowAssemblyModel
  3
AecArchBase50|Product Desc: Autodesk Architectural Desktop 2007 |Company: Autodesk,Inc. |WEB Address: www.autodesk.com
 90
      129
 91
        0
280
     0
281
     0
  0
CLASS
  1
AEC_DISP_REP_WINDOW_ASSEMBLY_PLAN
  2
AecDbDispRepWindowAssemblyPlan
  3
AecArchBase50|Product Desc: Autodesk Architectural Desktop 2007 |Company: Autodesk,Inc. |WEB Address: www.autodesk.com
 90
      129
 91
        0
280
     0
281
     0
  0
CLASS
  1
AEC_AECDBDISPREPWINDOWASSEMBLYPLAN100
  2
AecDbDispRepWindowAssemblyPlan100
  3
AecArchDACHBase50|Product Desc: Autodesk Architectural Desktop 2007 |Company: Autodesk,Inc. |WEB Address: www.autodesk.com
 90
      129
 91
        0
280
     0
281
     0
  0
CLASS
  1
AEC_DISP_REP_WINDOW_MODEL
  2
AecDbDispRepWindowModel
  3
AecArchBase50|Product Desc: Autodesk Architectural Desktop 2007 |Company: Autodesk,Inc. |WEB Address: www.autodesk.com
 90
      129
 91
        0
280
     0
281
     0
  0
CLASS
  1
AEC_DISP_REP_WINDOW_NOMINAL
  2
AecDbDispRepWindowNominal
  3
AecArchBase50|Product Desc: Autodesk Architectural Desktop 2007 |Company: Autodesk,Inc. |WEB Address: www.autodesk.com
 90
      129
 91
        0
280
     0
281
     0
  0
CLASS
  1
AEC_DISP_REP_WINDOW_PLAN
  2
AecDbDispRepWindowPlan
  3
AecArchBase50|Product Desc: Autodesk Architectural Desktop 2007 |Company: Autodesk,Inc. |WEB Address: www.autodesk.com
 90
      129
 91
        0
280
     0
281
     0
  0
CLASS
  1
AEC_DISP_REP_ZONE
  2
AecDbDispRepZone
  3
AecArchBase50|Product Desc: Autodesk Architectural Desktop 2007 |Company: Autodesk,Inc. |WEB Address: www.autodesk.com
 90
      129
 91
        0
280
     0
281
     0
  0
CLASS
  1
AECS_DISP_REP_MEMBER_LOGICAL
  2
AecsDbDispRepMemberLogical
  3
AecStructureBase50|Product Desc: Autodesk Architectural Desktop 2007 |Company: Autodesk,Inc. |WEB Address: www.autodesk.com
 90
      129
 91
        0
280
     0
281
     0
  0
CLASS
  1
AECS_DISP_REP_MEMBER_MODEL_DESIGN
  2
AecsDbDispRepMemberModelDesign
  3
AecStructureBase50|Product Desc: Autodesk Architectural Desktop 2007 |Company: Autodesk,Inc. |WEB Address: www.autodesk.com
 90
      129
 91
        0
280
     0
281
     0
  0
CLASS
  1
AECS_DISP_REP_MEMBER_PLAN_DESIGN
  2
AecsDbDispRepMemberPlanDesign
  3
AecStructureBase50|Product Desc: Autodesk Architectural Desktop 2007 |Company: Autodesk,Inc. |WEB Address: www.autodesk.com
 90
      129
 91
        0
280
     0
281
     0
  0
CLASS
  1
AEC_DISP_PROPS_ENT
  2
AecDbDispPropsEnt
  3
AecBase50|Product Desc: Autodesk Architectural Desktop 2007 |Company: Autodesk,Inc. |WEB Address: www.autodesk.com
 90
      129
 91
        0
280
     0
281
     0
  0
CLASS
  1
AEC_DISP_PROPS_ZONE
  2
AecDbDispPropsZone
  3
AecArchBase50|Product Desc: Autodesk Architectural Desktop 2007 |Company: Autodesk,Inc. |WEB Address: www.autodesk.com
 90
      129
 91
        0
280
     0
281
     0
  0
CLASS
  1
AEC_DISP_PROPS_GRID_ASSEMBLY_MODEL
  2
AecDbDispPropsGridAssemblyModel
  3
AecArchBase50|Product Desc: Autodesk Architectural Desktop 2007 |Company: Autodesk,Inc. |WEB Address: www.autodesk.com
 90
      129
 91
        0
280
     0
281
     0
  0
CLASS
  1
AEC_DISP_PROPS_2D_SECTION
  2
AecDbDispProps2dSection
  3
AecBase50|Product Desc: Autodesk Architectural Desktop 2007 |Company: Autodesk,Inc. |WEB Address: www.autodesk.com
 90
      129
 91
        0
280
     0
281
     0
  0
CLASS
  1
AEC_DISP_PROPS_OPENING
  2
AecDbDispPropsOpening
  3
AecArchBase50|Product Desc: Autodesk Architectural Desktop 2007 |Company: Autodesk,Inc. |WEB Address: www.autodesk.com
 90
      129
 91
        0
280
     0
281
     0
  0
CLASS
  1
AEC_DISP_PROPS_DOOR
  2
AecDbDispPropsDoor
  3
AecArchBase50|Product Desc: Autodesk Architectural Desktop 2007 |Company: Autodesk,Inc. |WEB Address: www.autodesk.com
 90
      129
 91
        0
280
     0
281
     0
  0
CLASS
  1
AEC_DISP_PROPS_WALL_SCHEM
  2
AecDbDispPropsWallSchem
  3
AecArchBase50|Product Desc: Autodesk Architectural Desktop 2007 |Company: Autodesk,Inc. |WEB Address: www.autodesk.com
 90
      129
 91
        0
280
     0
281
     0
  0
CLASS
  1
AEC_DISP_PROPS_MASKBLOCK
  2
AecDbDispPropsMaskBlock
  3
AecBase50|Product Desc: Autodesk Architectural Desktop 2007 |Company: Autodesk,Inc. |WEB Address: www.autodesk.com
 90
      129
 91
        0
280
     0
281
     0
  0
CLASS
  1
AEC_DISP_PROPS_SCHEDULE_TABLE
  2
AecDbDispPropsScheduleTable
  3
AecSchedule50|Product Desc: Autodesk Architectural Desktop 2007 |Company: Autodesk,Inc. |WEB Address: www.autodesk.com
 90
      129
 91
        0
280
     0
281
     0
  0
CLASS
  1
AECS_DISP_PROPS_MEMBER
  2
AecsDbDispPropsMember
  3
AecStructureBase50|Product Desc: Autodesk Architectural Desktop 2007 |Company: Autodesk,Inc. |WEB Address: www.autodesk.com
 90
      129
 91
        0
280
     0
281
     0
  0
CLASS
  1
AEC_DISP_PROPS_LAYOUT_GRID2D
  2
AecDbDispPropsLayoutGrid2d
  3
AecBase50|Product Desc: Autodesk Architectural Desktop 2007 |Company: Autodesk,Inc. |WEB Address: www.autodesk.com
 90
      129
 91
        0
280
     0
281
     0
  0
CLASS
  1
AEC_DISP_PROPS_EDITINPLACEPROFILE_MODEL
  2
AecDbDispPropsEditInPlaceProfile
  3
AecBase50|Product Desc: Autodesk Architectural Desktop 2007 |Company: Autodesk,Inc. |WEB Address: www.autodesk.com
 90
      129
 91
        0
280
     0
281
     0
  0
CLASS
  1
AEC_DISP_PROPS_ENT_REF
  2
AecDbDispPropsEntRef
  3
AecBase50|Product Desc: Autodesk Architectural Desktop 2007 |Company: Autodesk,Inc. |WEB Address: www.autodesk.com
 90
      129
 91
        0
280
     0
281
     0
  0
CLASS
  1
AEC_DISP_PROPS_ROOFSLAB
  2
AecDbDispPropsRoofSlab
  3
AecArchBase50|Product Desc: Autodesk Architectural Desktop 2007 |Company: Autodesk,Inc. |WEB Address: www.autodesk.com
 90
      129
 91
        0
280
     0
281
     0
  0
CLASS
  1
AEC_DISP_PROPS_LAYOUT_GRID3D
  2
AecDbDispPropsLayoutGrid3d
  3
AecBase50|Product Desc: Autodesk Architectural Desktop 2007 |Company: Autodesk,Inc. |WEB Address: www.autodesk.com
 90
      129
 91
        0
280
     0
281
     0
  0
CLASS
  1
AEC_DISP_PROPS_WALL_GRAPH
  2
AecDbDispPropsWallGraph
  3
AecArchBase50|Product Desc: Autodesk Architectural Desktop 2007 |Company: Autodesk,Inc. |WEB Address: www.autodesk.com
 90
      129
 91
        0
280
     0
281
     0
  0
CLASS
  1
AEC_DISP_PROPS_DIM
  2
AecDbDispPropsDimGroup
  3
AecArchDACHBase50|Product Desc: Autodesk Architectural Desktop 2007 |Company: Autodesk,Inc. |WEB Address: www.autodesk.com
 90
      129
 91
        0
280
     0
281
     0
  0
CLASS
  1
AEC_DISP_PROPS_CLIP_VOLUME
  2
AecDbDispPropsClipVol
  3
AecBase50|Product Desc: Autodesk Architectural Desktop 2007 |Company: Autodesk,Inc. |WEB Address: www.autodesk.com
 90
      129
 91
        0
280
     0
281
     0
  0
CLASS
  1
AEC_DISP_PROPS_STAIR_MODEL
  2
AecDbDispPropsStairModel
  3
AecArchBase50|Product Desc: Autodesk Architectural Desktop 2007 |Company: Autodesk,Inc. |WEB Address: www.autodesk.com
 90
      129
 91
        0
280
     0
281
     0
  0
CLASS
  1
AEC_DISP_PROPS_MASS_GROUP
  2
AecDbDispPropsMassGroup
  3
AecBaseEx50|Product Desc: Autodesk Architectural Desktop 2007 |Company: Autodesk,Inc. |WEB Address: www.autodesk.com
 90
      129
 91
        0
280
     0
281
     0
  0
CLASS
  1
AEC_DISP_PROPS_GRID_ASSEMBLY_PLAN
  2
AecDbDispPropsGridAssemblyPlan
  3
AecArchBase50|Product Desc: Autodesk Architectural Desktop 2007 |Company: Autodesk,Inc. |WEB Address: www.autodesk.com
 90
      129
 91
        0
280
     0
281
     0
  0
CLASS
  1
AEC_DISP_PROPS_SLAB_PLAN
  2
AecDbDispPropsSlabPlan
  3
AecArchBase50|Product Desc: Autodesk Architectural Desktop 2007 |Company: Autodesk,Inc. |WEB Address: www.autodesk.com
 90
      129
 91
        0
280
     0
281
     0
  0
CLASS
  1
AEC_DISP_PROPS_RAILING_MODEL
  2
AecDbDispPropsRailingModel
  3
AecArchBase50|Product Desc: Autodesk Architectural Desktop 2007 |Company: Autodesk,Inc. |WEB Address: www.autodesk.com
 90
      129
 91
        0
280
     0
281
     0
  0
CLASS
  1
AEC_DISP_PROPS_MASS_ELEM_MODEL
  2
AecDbDispPropsMassElem
  3
AecBaseEx50|Product Desc: Autodesk Architectural Desktop 2007 |Company: Autodesk,Inc. |WEB Address: www.autodesk.com
 90
      129
 91
        0
280
     0
281
     0
  0
CLASS
  1
AEC_DISP_PROPS_SPACE_PLAN
  2
AecDbDispPropsSpacePlan
  3
AecArchBase50|Product Desc: Autodesk Architectural Desktop 2007 |Company: Autodesk,Inc. |WEB Address: www.autodesk.com
 90
      129
 91
        0
280
     0
281
     0
  0
CLASS
  1
AECS_DISP_PROPS_MEMBER_PLAN
  2
AecsDbDispPropsMemberPlan
  3
AecStructureBase50|Product Desc: Autodesk Architectural Desktop 2007 |Company: Autodesk,Inc. |WEB Address: www.autodesk.com
 90
      129
 91
        0
280
     0
281
     0
  0
CLASS
  1
AEC_DISP_PROPS_ROOF
  2
AecDbDispPropsRoof
  3
AecArchBase50|Product Desc: Autodesk Architectural Desktop 2007 |Company: Autodesk,Inc. |WEB Address: www.autodesk.com
 90
      129
 91
        0
280
     0
281
     0
  0
CLASS
  1
AEC_DISP_PROPS_DISPLAYTHEME
  2
AecDbDispPropsDisplayTheme
  3
AecBase50|Product Desc: Autodesk Architectural Desktop 2007 |Company: Autodesk,Inc. |WEB Address: www.autodesk.com
 90
      129
 91
        0
280
     0
281
     0
  0
CLASS
  1
AEC_DISP_PROPS_ROOFSLAB_PLAN
  2
AecDbDispPropsRoofSlabPlan
  3
AecArchBase50|Product Desc: Autodesk Architectural Desktop 2007 |Company: Autodesk,Inc. |WEB Address: www.autodesk.com
 90
      129
 91
        0
280
     0
281
     0
  0
CLASS
  1
AEC_DISP_PROPS_WINDOW_NOMINAL
  2
AecDbDispPropsWindowNominal
  3
AecArchBase50|Product Desc: Autodesk Architectural Desktop 2007 |Company: Autodesk,Inc. |WEB Address: www.autodesk.com
 90
      129
 91
        0
280
     0
281
     0
  0
CLASS
  1
AEC_DISP_PROPS_STAIR_PLAN
  2
AecDbDispPropsStairPlan
  3
AecArchBase50|Product Desc: Autodesk Architectural Desktop 2007 |Company: Autodesk,Inc. |WEB Address: www.autodesk.com
 90
      129
 91
        0
280
     0
281
     0
  0
CLASS
  1
AECS_DISP_PROPS_MEMBER_LOGICAL
  2
AecsDbDispPropsMemberLogical
  3
AecStructureBase50|Product Desc: Autodesk Architectural Desktop 2007 |Company: Autodesk,Inc. |WEB Address: www.autodesk.com
 90
      129
 91
        0
280
     0
281
     0
  0
CLASS
  1
AEC_DISP_PROPS_POLYGON_MODEL
  2
AecDbDispPropsPolygonModel
  3
AecBaseEx50|Product Desc: Autodesk Architectural Desktop 2007 |Company: Autodesk,Inc. |WEB Address: www.autodesk.com
 90
      129
 91
        0
280
     0
281
     0
  0
CLASS
  1
AEC_DISP_PROPS_LAYOUT_CURVE
  2
AecDbDispPropsLayoutCurve
  3
AecBase50|Product Desc: Autodesk Architectural Desktop 2007 |Company: Autodesk,Inc. |WEB Address: www.autodesk.com
 90
      129
 91
        0
280
     0
281
     0
  0
CLASS
  1
AEC_DISP_PROPS_SPACE_DECOMPOSED
  2
AecDbDispPropsSpaceDecomposed
  3
AecArchBase50|Product Desc: Autodesk Architectural Desktop 2007 |Company: Autodesk,Inc. |WEB Address: www.autodesk.com
 90
      129
 91
        0
280
     0
281
     0
  0
CLASS
  1
AEC_DISP_PROPS_RAILING_PLAN
  2
AecDbDispPropsRailingPlan
  3
AecArchBase50|Product Desc: Autodesk Architectural Desktop 2007 |Company: Autodesk,Inc. |WEB Address: www.autodesk.com
 90
      129
 91
        0
280
     0
281
     0
  0
CLASS
  1
AEC_DISP_PROPS_SLICE
  2
AecDbDispPropsSlice
  3
AecBase50|Product Desc: Autodesk Architectural Desktop 2007 |Company: Autodesk,Inc. |WEB Address: www.autodesk.com
 90
      129
 91
        0
280
     0
281
     0
  0
CLASS
  1
AEC_DISP_PROPS_WINDOW
  2
AecDbDispPropsWindow
  3
AecArchBase50|Product Desc: Autodesk Architectural Desktop 2007 |Company: Autodesk,Inc. |WEB Address: www.autodesk.com
 90
      129
 91
        0
280
     0
281
     0
  0
CLASS
  1
AEC_DISP_PROPS_SPACE_MODEL
  2
AecDbDispPropsSpaceModel
  3
AecArchBase50|Product Desc: Autodesk Architectural Desktop 2007 |Company: Autodesk,Inc. |WEB Address: www.autodesk.com
 90
      129
 91
        0
280
     0
281
     0
  0
CLASS
  1
AEC_DISP_PROPS_WALL_PLAN
  2
AecDbDispPropsWallPlan
  3
AecArchBase50|Product Desc: Autodesk Architectural Desktop 2007 |Company: Autodesk,Inc. |WEB Address: www.autodesk.com
 90
      129
 91
        0
280
     0
281
     0
  0
CLASS
  1
AEC_DISP_PROPS_SLAB
  2
AecDbDispPropsSlab
  3
AecArchBase50|Product Desc: Autodesk Architectural Desktop 2007 |Company: Autodesk,Inc. |WEB Address: www.autodesk.com
 90
      129
 91
        0
280
     0
281
     0
  0
CLASS
  1
AEC_DISP_PROPS_CLIP_VOLUME_RESULT
  2
AecDbDispPropsClipVolResSubDiv
  3
AecBase50|Product Desc: Autodesk Architectural Desktop 2007 |Company: Autodesk,Inc. |WEB Address: www.autodesk.com
 90
      129
 91
        0
280
     0
281
     0
  0
CLASS
  1
AEC_DISP_PROPS_DOOR_NOMINAL
  2
AecDbDispPropsDoorNominal
  3
AecArchBase50|Product Desc: Autodesk Architectural Desktop 2007 |Company: Autodesk,Inc. |WEB Address: www.autodesk.com
 90
      129
 91
        0
280
     0
281
     0
  0
CLASS
  1
AEC_DISP_PROPS_MATERIAL
  2
AecDbDispPropsMaterial
  3
AecBase50|Product Desc: Autodesk Architectural Desktop 2007 |Company: Autodesk,Inc. |WEB Address: www.autodesk.com
 90
      129
 91
        0
280
     0
281
     0
  0
CLASS
  1
AEC_DISP_PROPS_WALL_MODEL
  2
AecDbDispPropsWallModel
  3
AecArchBase50|Product Desc: Autodesk Architectural Desktop 2007 |Company: Autodesk,Inc. |WEB Address: www.autodesk.com
 90
      129
 91
        0
280
     0
281
     0
  0
CLASS
  1
AEC_LAYERKEY_STYLE
  2
AecDbLayerKeyStyle
  3
AecBase50|Product Desc: Autodesk Architectural Desktop 2007 |Company: Autodesk,Inc. |WEB Address: www.autodesk.com
 90
      129
 91
        0
280
     0
281
     0
  0
CLASS
  1
AEC_VARS_ARCHBASE
  2
AecDbVarsArchBase
  3
AecArchBase50|Product Desc: Autodesk Architectural Desktop 2007 |Company: Autodesk,Inc. |WEB Address: www.autodesk.com
 90
      129
 91
        0
280
     0
281
     0
  0
CLASS
  1
AEC_VARS_MUNICH
  2
AecDbVarsMunich
  3
AecArchDACHBase50|Product Desc: Autodesk Architectural Desktop 2007 |Company: Autodesk,Inc. |WEB Address: www.autodesk.com
 90
      129
 91
        0
280
     0
281
     0
  0
CLASS
  1
AEC_NOTIFICATION_TRACKER
  2
AecDbNotificationTracker
  3
AecBase50|Product Desc: Autodesk Architectural Desktop 2007 |Company: Autodesk,Inc. |WEB Address: www.autodesk.com
 90
      129
 91
        0
280
     0
281
     0
  0
CLASS
  1
AEC_DISP_REP_DOOR_THRESHOLD_SYMBOL_PLAN
  2
AecDbDispRepDoorThresholdSymbolPlan
  3
AecArchDACHBase50|Product Desc: Autodesk Architectural Desktop 2007 |Company: Autodesk,Inc. |WEB Address: www.autodesk.com
 90
      129
 91
        0
280
     0
281
     0
  0
CLASS
  1
AEC_DISP_PROPS_DOOR_THRESHOLD_SYMBOL_PLAN
  2
AecDbDispPropsDoorThresholdSymbolPlan
  3
AecArchDACHBase50|Product Desc: Autodesk Architectural Desktop 2007 |Company: Autodesk,Inc. |WEB Address: www.autodesk.com
 90
      129
 91
        0
280
     0
281
     0
  0
CLASS
  1
AEC_DISP_REP_RAILING_PLAN_100
  2
AecDbDispRepRailingPlan100
  3
AecArchDACHBase50|Product Desc: Autodesk Architectural Desktop 2007 |Company: Autodesk,Inc. |WEB Address: www.autodesk.com
 90
      129
 91
        0
280
     0
281
     0
  0
CLASS
  1
AEC_DISP_ROPS_RAILING_PLAN_100
  2
AecDbDispPropsRailingPlan100
  3
AecArchDACHBase50|Product Desc: Autodesk Architectural Desktop 2007 |Company: Autodesk,Inc. |WEB Address: www.autodesk.com
 90
      129
 91
        0
280
     0
281
     0
  0
CLASS
  1
AEC_DISP_REP_STAIR_PLAN_50
  2
AecDbDispRepStairPlan50
  3
AecArchDACHBase50|Product Desc: Autodesk Architectural Desktop 2007 |Company: Autodesk,Inc. |WEB Address: www.autodesk.com
 90
      129
 91
        0
280
     0
281
     0
  0
CLASS
  1
AEC_DISP_ROPS_STAIR_PLAN_50
  2
AecDbDispPropsStairPlan50
  3
AecArchDACHBase50|Product Desc: Autodesk Architectural Desktop 2007 |Company: Autodesk,Inc. |WEB Address: www.autodesk.com
 90
      129
 91
        0
280
     0
281
     0
  0
CLASS
  1
AEC_DISP_REP_STAIR_PLAN_100
  2
AecDbDispRepStairPlan100
  3
AecArchDACHBase50|Product Desc: Autodesk Architectural Desktop 2007 |Company: Autodesk,Inc. |WEB Address: www.autodesk.com
 90
      129
 91
        0
280
     0
281
     0
  0
CLASS
  1
AEC_DISP_ROPS_STAIR_PLAN_100
  2
AecDbDispPropsStairPlan100
  3
AecArchDACHBase50|Product Desc: Autodesk Architectural Desktop 2007 |Company: Autodesk,Inc. |WEB Address: www.autodesk.com
 90
      129
 91
        0
280
     0
281
     0
  0
CLASS
  1
AEC_DISP_REP_DOOR_PLAN_HEKTO
  2
AecDbDispRepDoorPlanHekto
  3
AecArchDACHBase50|Product Desc: Autodesk Architectural Desktop 2007 |Company: Autodesk,Inc. |WEB Address: www.autodesk.com
 90
      129
 91
        0
280
     0
281
     0
  0
CLASS
  1
AEC_DISP_PROPS_DOOR_PLAN_100
  2
AecDbDispPropsDoorPlan100
  3
AecArchDACHBase50|Product Desc: Autodesk Architectural Desktop 2007 |Company: Autodesk,Inc. |WEB Address: www.autodesk.com
 90
      129
 91
        0
280
     0
281
     0
  0
CLASS
  1
AEC_DB_DISP_REP_DIM_GROUP_PLAN50
  2
AecDbDispRepDimGroupPlan50
  3
AecArchDACHBase50|Product Desc: Autodesk Architectural Desktop 2007 |Company: Autodesk,Inc. |WEB Address: www.autodesk.com
 90
      129
 91
        0
280
     0
281
     0
  0
CLASS
  1
AEC_DISPREPAECDBDISPREPMASSGROUPPLAN100
  2
AecDbDispRepMassGroupPlan100
  3
AecArchDACHBase50|Product Desc: Autodesk Architectural Desktop 2007 |Company: Autodesk,Inc. |WEB Address: www.autodesk.com
 90
      129
 91
        0
280
     0
281
     0
  0
CLASS
  1
AEC_DISPROPSMASSGROUPPLANCOMMON
  2
AecDbDispPropsMassGroupPlanCommon
  3
AecArchDACHBase50|Product Desc: Autodesk Architectural Desktop 2007 |Company: Autodesk,Inc. |WEB Address: www.autodesk.com
 90
      129
 91
        0
280
     0
281
     0
  0
CLASS
  1
AEC_DISP_REP_WINDOW_PLAN_100
  2
AecDbDispRepWindowPlan100
  3
AecArchDACHBase50|Product Desc: Autodesk Architectural Desktop 2007 |Company: Autodesk,Inc. |WEB Address: www.autodesk.com
 90
      129
 91
        0
280
     0
281
     0
  0
CLASS
  1
AEC_DISP_PROPS_WINDOW_PLAN_100
  2
AecDbDispPropsWindowPlan100
  3
AecArchDACHBase50|Product Desc: Autodesk Architectural Desktop 2007 |Company: Autodesk,Inc. |WEB Address: www.autodesk.com
 90
      129
 91
        0
280
     0
281
     0
  0
CLASS
  1
AEC_DISPREPAECDBDISPREPMASSELEMPLAN50
  2
AecDbDispRepMassElemPlan50
  3
AecArchDACHBase50|Product Desc: Autodesk Architectural Desktop 2007 |Company: Autodesk,Inc. |WEB Address: www.autodesk.com
 90
      129
 91
        0
280
     0
281
     0
  0
CLASS
  1
AEC_DISPROPSMASSELEMPLANCOMMON
  2
AecDbDispPropsMassElemPlanCommon
  3
AecArchDACHBase50|Product Desc: Autodesk Architectural Desktop 2007 |Company: Autodesk,Inc. |WEB Address: www.autodesk.com
 90
      129
 91
        0
280
     0
281
     0
  0
CLASS
  1
AEC_DB_DISP_REP_DIM_GROUP_PLAN100
  2
AecDbDispRepDimGroupPlan100
  3
AecArchDACHBase50|Product Desc: Autodesk Architectural Desktop 2007 |Company: Autodesk,Inc. |WEB Address: www.autodesk.com
 90
      129
 91
        0
280
     0
281
     0
  0
CLASS
  1
AEC_DISPREPAECDBDISPREPMASSELEMPLAN100
  2
AecDbDispRepMassElemPlan100
  3
AecArchDACHBase50|Product Desc: Autodesk Architectural Desktop 2007 |Company: Autodesk,Inc. |WEB Address: www.autodesk.com
 90
      129
 91
        0
280
     0
281
     0
  0
CLASS
  1
AEC_DISP_REP_DOOR_PLAN_50
  2
AecDbDispRepDoorPlan50
  3
AecArchDACHBase50|Product Desc: Autodesk Architectural Desktop 2007 |Company: Autodesk,Inc. |WEB Address: www.autodesk.com
 90
      129
 91
        0
280
     0
281
     0
  0
CLASS
  1
AEC_DISP_PROPS_DOOR_PLAN_50
  2
AecDbDispPropsDoorPlan50
  3
AecArchDACHBase50|Product Desc: Autodesk Architectural Desktop 2007 |Company: Autodesk,Inc. |WEB Address: www.autodesk.com
 90
      129
 91
        0
280
     0
281
     0
  0
CLASS
  1
AEC_DISPREPAECDBDISPREPOPENINGPLANREFLECTED
  2
AecDbDispRepOpeningPlanReflected
  3
AecArchDACHBase50|Product Desc: Autodesk Architectural Desktop 2007 |Company: Autodesk,Inc. |WEB Address: www.autodesk.com
 90
      129
 91
        0
280
     0
281
     0
  0
CLASS
  1
AEC_DISPROPSOPENINGPLANCOMMON
  2
AecDbDispPropsOpeningPlanCommon
  3
AecArchDACHBase50|Product Desc: Autodesk Architectural Desktop 2007 |Company: Autodesk,Inc. |WEB Address: www.autodesk.com
 90
      129
 91
        0
280
     0
281
     0
  0
CLASS
  1
AEC_DISPREPAECDBDISPREPMASSGROUPPLAN50
  2
AecDbDispRepMassGroupPlan50
  3
AecArchDACHBase50|Product Desc: Autodesk Architectural Desktop 2007 |Company: Autodesk,Inc. |WEB Address: www.autodesk.com
 90
      129
 91
        0
280
     0
281
     0
  0
CLASS
  1
AEC_DISPREPAECDBDISPREPOPENINGPLAN50
  2
AecDbDispRepOpeningPlan50
  3
AecArchDACHBase50|Product Desc: Autodesk Architectural Desktop 2007 |Company: Autodesk,Inc. |WEB Address: www.autodesk.com
 90
      129
 91
        0
280
     0
281
     0
  0
CLASS
  1
AEC_DISPROPSOPENINGPLANCOMMONHATCHED
  2
AecDbDispPropsOpeningPlanCommonHatched
  3
AecArchDACHBase50|Product Desc: Autodesk Architectural Desktop 2007 |Company: Autodesk,Inc. |WEB Address: www.autodesk.com
 90
      129
 91
        0
280
     0
281
     0
  0
CLASS
  1
AEC_DISPREPAECDBDISPREPOPENINGSILLPLAN
  2
AecDbDispRepOpeningSillPlan
  3
AecArchDACHBase50|Product Desc: Autodesk Architectural Desktop 2007 |Company: Autodesk,Inc. |WEB Address: www.autodesk.com
 90
      129
 91
        0
280
     0
281
     0
  0
CLASS
  1
AEC_DISPROPSOPENINGSILLPLAN
  2
AecDbDispPropsOpeningSillPlan
  3
AecArchDACHBase50|Product Desc: Autodesk Architectural Desktop 2007 |Company: Autodesk,Inc. |WEB Address: www.autodesk.com
 90
      129
 91
        0
280
     0
281
     0
  0
CLASS
  1
AEC_DISP_REP_WINDOW_PLAN_50
  2
AecDbDispRepWindowPlan50
  3
AecArchDACHBase50|Product Desc: Autodesk Architectural Desktop 2007 |Company: Autodesk,Inc. |WEB Address: www.autodesk.com
 90
      129
 91
        0
280
     0
281
     0
  0
CLASS
  1
AEC_DISP_PROPS_WINDOW_PLAN_50
  2
AecDbDispPropsWindowPlan50
  3
AecArchDACHBase50|Product Desc: Autodesk Architectural Desktop 2007 |Company: Autodesk,Inc. |WEB Address: www.autodesk.com
 90
      129
 91
        0
280
     0
281
     0
  0
CLASS
  1
AEC_DISP_REP_RAILING_PLAN_50
  2
AecDbDispRepRailingPlan50
  3
AecArchDACHBase50|Product Desc: Autodesk Architectural Desktop 2007 |Company: Autodesk,Inc. |WEB Address: www.autodesk.com
 90
      129
 91
        0
280
     0
281
     0
  0
CLASS
  1
AEC_DISP_ROPS_RAILING_PLAN_50
  2
AecDbDispPropsRailingPlan50
  3
AecArchDACHBase50|Product Desc: Autodesk Architectural Desktop 2007 |Company: Autodesk,Inc. |WEB Address: www.autodesk.com
 90
      129
 91
        0
280
     0
281
     0
  0
CLASS
  1
AEC_DISPREPAECDBDISPREPOPENINGPLAN100
  2
AecDbDispRepOpeningPlan100
  3
AecArchDACHBase50|Product Desc: Autodesk Architectural Desktop 2007 |Company: Autodesk,Inc. |WEB Address: www.autodesk.com
 90
      129
 91
        0
280
     0
281
     0
  0
CLASS
  1
AEC_AECDBDISPREPCURTAINWALLUNITPLAN100
  2
AecDbDispRepCurtainWallUnitPlan100
  3
AecArchDACHBase50|Product Desc: Autodesk Architectural Desktop 2007 |Company: Autodesk,Inc. |WEB Address: www.autodesk.com
 90
      129
 91
        0
280
     0
281
     0
  0
CLASS
  1
AEC_AECDBDISPREPSPACEPLAN100
  2
AecDbDispRepSpacePlan100
  3
AecArchDACHBase50|Product Desc: Autodesk Architectural Desktop 2007 |Company: Autodesk,Inc. |WEB Address: www.autodesk.com
 90
      129
 91
        0
280
     0
281
     0
  0
CLASS
  1
AEC_DISP_REP_COLUMN_GRID_RCP
  2
AecDbDispRepColumnGridRcp
  3
AecStructureBase50|Product Desc: Autodesk Architectural Desktop 2007 |Company: Autodesk,Inc. |WEB Address: www.autodesk.com
 90
      129
 91
        0
280
     0
281
     0
  0
CLASS
  1
AEC_AECDBDISPREPBDGELEVLINEPLAN100
  2
AecDbDispRepBdgElevLinePlan100
  3
AecArchDACHBase50|Product Desc: Autodesk Architectural Desktop 2007 |Company: Autodesk,Inc. |WEB Address: www.autodesk.com
 90
      129
 91
        0
280
     0
281
     0
  0
CLASS
  1
AEC_AECDBDISPREPROOFPLAN100
  2
AecDbDispRepRoofPlan100
  3
AecArchDACHBase50|Product Desc: Autodesk Architectural Desktop 2007 |Company: Autodesk,Inc. |WEB Address: www.autodesk.com
 90
      129
 91
        0
280
     0
281
     0
  0
CLASS
  1
AEC_AECDBDISPREPROOFSLABPLAN50
  2
AecDbDispRepRoofSlabPlan50
  3
AecArchDACHBase50|Product Desc: Autodesk Architectural Desktop 2007 |Company: Autodesk,Inc. |WEB Address: www.autodesk.com
 90
      129
 91
        0
280
     0
281
     0
  0
CLASS
  1
AEC_AECDBDISPREPCOLUMNGRIDPLAN50
  2
AecDbDispRepColumnGridPlan50
  3
AecArchDACHBase50|Product Desc: Autodesk Architectural Desktop 2007 |Company: Autodesk,Inc. |WEB Address: www.autodesk.com
 90
      129
 91
        0
280
     0
281
     0
  0
CLASS
  1
AEC_AECDBDISPREPZONE50
  2
AecDbDispRepZonePlan50
  3
AecArchDACHBase50|Product Desc: Autodesk Architectural Desktop 2007 |Company: Autodesk,Inc. |WEB Address: www.autodesk.com
 90
      129
 91
        0
280
     0
281
     0
  0
CLASS
  1
AEC_AECDBDISPREPCURTAINWALLLAYOUTPLAN50
  2
AecDbDispRepCurtainWallLayoutPlan50
  3
AecArchDACHBase50|Product Desc: Autodesk Architectural Desktop 2007 |Company: Autodesk,Inc. |WEB Address: www.autodesk.com
 90
      129
 91
        0
280
     0
281
     0
  0
CLASS
  1
AEC_AECDBDISPREPZONE100
  2
AecDbDispRepZonePlan100
  3
AecArchDACHBase50|Product Desc: Autodesk Architectural Desktop 2007 |Company: Autodesk,Inc. |WEB Address: www.autodesk.com
 90
      129
 91
        0
280
     0
281
     0
  0
CLASS
  1
AEC_AECDBDISPREPMVBLOCKREFPLAN100
  2
AecDbDispRepMvBlockRefPlan100
  3
AecArchDACHBase50|Product Desc: Autodesk Architectural Desktop 2007 |Company: Autodesk,Inc. |WEB Address: www.autodesk.com
 90
      129
 91
        0
280
     0
281
     0
  0
CLASS
  1
AECS_DISP_REP_MEMBER_PLAN_SKETCH
  2
AecsDbDispRepMemberPlanSketch
  3
AecStructureBase50|Product Desc: Autodesk Architectural Desktop 2007 |Company: Autodesk,Inc. |WEB Address: www.autodesk.com
 90
      129
 91
        0
280
     0
281
     0
  0
CLASS
  1
AECS_DISP_PROPS_MEMBER_PLAN_SKETCH
  2
AecsDbDispPropsMemberPlanSketch
  3
AecStructureBase50|Product Desc: Autodesk Architectural Desktop 2007 |Company: Autodesk,Inc. |WEB Address: www.autodesk.com
 90
      129
 91
        0
280
     0
281
     0
  0
CLASS
  1
AECS_DISP_REP_MEMBER_PLAN_DETAIL
  2
AecsDbDispRepMemberPlanDetail
  3
AecStructureBase50|Product Desc: Autodesk Architectural Desktop 2007 |Company: Autodesk,Inc. |WEB Address: www.autodesk.com
 90
      129
 91
        0
280
     0
281
     0
  0
CLASS
  1
AEC_AECDBDISPREPBDGSECTIONLINEPLAN50
  2
AecDbDispRepBdgSectionLinePlan50
  3
AecArchDACHBase50|Product Desc: Autodesk Architectural Desktop 2007 |Company: Autodesk,Inc. |WEB Address: www.autodesk.com
 90
      129
 91
        0
280
     0
281
     0
  0
CLASS
  1
AEC_AECDBDISPREPCEILINGGRIDPLAN50
  2
AecDbDispRepCeilingGridPlan50
  3
AecArchDACHBase50|Product Desc: Autodesk Architectural Desktop 2007 |Company: Autodesk,Inc. |WEB Address: www.autodesk.com
 90
      129
 91
        0
280
     0
281
     0
  0
CLASS
  1
AECS_DISP_REP_MEMBER_ELEVATION_DESIGN
  2
AecsDbDispRepMemberElevationDesign
  3
AecStructureBase50|Product Desc: Autodesk Architectural Desktop 2007 |Company: Autodesk,Inc. |WEB Address: www.autodesk.com
 90
      129
 91
        0
280
     0
281
     0
  0
CLASS
  1
AECS_DISP_PROPS_MEMBER_PROJECTED
  2
AecsDbDispPropsMemberProjected
  3
AecStructureBase50|Product Desc: Autodesk Architectural Desktop 2007 |Company: Autodesk,Inc. |WEB Address: www.autodesk.com
 90
      129
 91
        0
280
     0
281
     0
  0
CLASS
  1
AEC_AECDBDISPREPWALLPLAN50
  2
AecDbDispRepWallPlan50
  3
AecArchDACHBase50|Product Desc: Autodesk Architectural Desktop 2007 |Company: Autodesk,Inc. |WEB Address: www.autodesk.com
 90
      129
 91
        0
280
     0
281
     0
  0
CLASS
  1
AEC_AECDBDISPREPSPACEPLAN50
  2
AecDbDispRepSpacePlan50
  3
AecArchDACHBase50|Product Desc: Autodesk Architectural Desktop 2007 |Company: Autodesk,Inc. |WEB Address: www.autodesk.com
 90
      129
 91
        0
280
     0
281
     0
  0
CLASS
  1
AEC_AECDBDISPREPWALLPLAN100
  2
AecDbDispRepWallPlan100
  3
AecArchDACHBase50|Product Desc: Autodesk Architectural Desktop 2007 |Company: Autodesk,Inc. |WEB Address: www.autodesk.com
 90
      129
 91
        0
280
     0
281
     0
  0
CLASS
  1
AEC_AECDBDISPREPCURTAINWALLUNITPLAN50
  2
AecDbDispRepCurtainWallUnitPlan50
  3
AecArchDACHBase50|Product Desc: Autodesk Architectural Desktop 2007 |Company: Autodesk,Inc. |WEB Address: www.autodesk.com
 90
      129
 91
        0
280
     0
281
     0
  0
CLASS
  1
AECS_DISP_REP_MEMBER_ELEVATION_DETAIL
  2
AecsDbDispRepMemberElevationDetail
  3
AecStructureBase50|Product Desc: Autodesk Architectural Desktop 2007 |Company: Autodesk,Inc. |WEB Address: www.autodesk.com
 90
      129
 91
        0
280
     0
281
     0
  0
CLASS
  1
AECS_DISP_REP_MEMBER_MODEL_DETAIL
  2
AecsDbDispRepMemberModelDetail
  3
AecStructureBase50|Product Desc: Autodesk Architectural Desktop 2007 |Company: Autodesk,Inc. |WEB Address: www.autodesk.com
 90
      129
 91
        0
280
     0
281
     0
  0
CLASS
  1
AEC_AECDBDISPREPCEILINGGRIDPLAN100
  2
AecDbDispRepCeilingGridPlan100
  3
AecArchDACHBase50|Product Desc: Autodesk Architectural Desktop 2007 |Company: Autodesk,Inc. |WEB Address: www.autodesk.com
 90
      129
 91
        0
280
     0
281
     0
  0
CLASS
  1
AEC_AECDBDISPREPBDGSECTIONLINEPLAN100
  2
AecDbDispRepBdgSectionLinePlan100
  3
AecArchDACHBase50|Product Desc: Autodesk Architectural Desktop 2007 |Company: Autodesk,Inc. |WEB Address: www.autodesk.com
 90
      129
 91
        0
280
     0
281
     0
  0
CLASS
  1
AEC_DISP_REP_ANCHOR_BUB_TO_GRID_RCP
  2
AecDbDispRepAnchorBubToGridRcp
  3
AecStructureBase50|Product Desc: Autodesk Architectural Desktop 2007 |Company: Autodesk,Inc. |WEB Address: www.autodesk.com
 90
      129
 91
        0
280
     0
281
     0
  0
CLASS
  1
AEC_AECDBDISPREPBDGELEVLINEPLAN50
  2
AecDbDispRepBdgElevLinePlan50
  3
AecArchDACHBase50|Product Desc: Autodesk Architectural Desktop 2007 |Company: Autodesk,Inc. |WEB Address: www.autodesk.com
 90
      129
 91
        0
280
     0
281
     0
  0
CLASS
  1
AEC_AECDBDISPREPWINDOWASSEMBLYPLAN50
  2
AecDbDispRepWindowAssemblyPlan50
  3
AecArchDACHBase50|Product Desc: Autodesk Architectural Desktop 2007 |Company: Autodesk,Inc. |WEB Address: www.autodesk.com
 90
      129
 91
        0
280
     0
281
     0
  0
CLASS
  1
AEC_AECDBDISPREPROOFSLABPLAN100
  2
AecDbDispRepRoofSlabPlan100
  3
AecArchDACHBase50|Product Desc: Autodesk Architectural Desktop 2007 |Company: Autodesk,Inc. |WEB Address: www.autodesk.com
 90
      129
 91
        0
280
     0
281
     0
  0
CLASS
  1
AEC_AECDBDISPREPROOFPLAN50
  2
AecDbDispRepRoofPlan50
  3
AecArchDACHBase50|Product Desc: Autodesk Architectural Desktop 2007 |Company: Autodesk,Inc. |WEB Address: www.autodesk.com
 90
      129
 91
        0
280
     0
281
     0
  0
CLASS
  1
AEC_AECDBDISPREPCOLUMNGRIDPLAN100
  2
AecDbDispRepColumnGridPlan100
  3
AecArchDACHBase50|Product Desc: Autodesk Architectural Desktop 2007 |Company: Autodesk,Inc. |WEB Address: www.autodesk.com
 90
      129
 91
        0
280
     0
281
     0
  0
CLASS
  1
AEC_AECDBDISPREPSLABPLAN50
  2
AecDbDispRepSlabPlan50
  3
AecArchDACHBase50|Product Desc: Autodesk Architectural Desktop 2007 |Company: Autodesk,Inc. |WEB Address: www.autodesk.com
 90
      129
 91
        0
280
     0
281
     0
  0
CLASS
  1
AEC_AECDBDISPREPSLABPLAN100
  2
AecDbDispRepSlabPlan100
  3
AecArchDACHBase50|Product Desc: Autodesk Architectural Desktop 2007 |Company: Autodesk,Inc. |WEB Address: www.autodesk.com
 90
      129
 91
        0
280
     0
281
     0
  0
CLASS
  1
AEC_AECDBDISPREPCURTAINWALLLAYOUTPLAN100
  2
AecDbDispRepCurtainWallLayoutPlan100
  3
AecArchDACHBase50|Product Desc: Autodesk Architectural Desktop 2007 |Company: Autodesk,Inc. |WEB Address: www.autodesk.com
 90
      129
 91
        0
280
     0
281
     0
  0
CLASS
  1
AEC_AECDBDISPREPMVBLOCKREFPLAN50
  2
AecDbDispRepMvBlockRefPlan50
  3
AecArchDACHBase50|Product Desc: Autodesk Architectural Desktop 2007 |Company: Autodesk,Inc. |WEB Address: www.autodesk.com
 90
      129
 91
        0
280
     0
281
     0
  0
CLASS
  1
AEC_DISP_REP_WINDOW_ELEV
  2
AecDbDispRepWindowElev
  3
AecArchBase50|Product Desc: Autodesk Architectural Desktop 2007 |Company: Autodesk,Inc. |WEB Address: www.autodesk.com
 90
      129
 91
        0
280
     0
281
     0
  0
CLASS
  1
AEC_DISP_REP_WINDOW_SILL_PLAN
  2
AecDbDispRepWindowSillPlan
  3
AecArchBase50|Product Desc: Autodesk Architectural Desktop 2007 |Company: Autodesk,Inc. |WEB Address: www.autodesk.com
 90
      129
 91
        0
280
     0
281
     0
  0
CLASS
  1
AEC_DISP_PROPS_WINDOW_SILL_PLAN
  2
AecDbDispPropsWindowSillPlan
  3
AecArchBase50|Product Desc: Autodesk Architectural Desktop 2007 |Company: Autodesk,Inc. |WEB Address: www.autodesk.com
 90
      129
 91
        0
280
     0
281
     0
  0
CLASS
  1
AEC_DISP_REP_WINDOW_RCP
  2
AecDbDispRepWindowRcp
  3
AecArchBase50|Product Desc: Autodesk Architectural Desktop 2007 |Company: Autodesk,Inc. |WEB Address: www.autodesk.com
 90
      129
 91
        0
280
     0
281
     0
  0
CLASS
  1
AEC_DISP_REP_WINDOWASSEMBLY_SILL_PLAN
  2
AecDbDispRepWindowAssemblySillPlan
  3
AecArchBase50|Product Desc: Autodesk Architectural Desktop 2007 |Company: Autodesk,Inc. |WEB Address: www.autodesk.com
 90
      129
 91
        0
280
     0
281
     0
  0
CLASS
  1
AEC_DISP_PROPS_WINDOW_ASSEMBLY_SILL_PLAN
  2
AecDbDispPropsWindowAssemblySillPlan
  3
AecArchBase50|Product Desc: Autodesk Architectural Desktop 2007 |Company: Autodesk,Inc. |WEB Address: www.autodesk.com
 90
      129
 91
        0
280
     0
281
     0
  0
CLASS
  1
AEC_DISP_REP_MASS_ELEM_RCP
  2
AecDbDispRepMassElemRcp
  3
AecArchBase50|Product Desc: Autodesk Architectural Desktop 2007 |Company: Autodesk,Inc. |WEB Address: www.autodesk.com
 90
      129
 91
        0
280
     0
281
     0
  0
CLASS
  1
AEC_DISP_REP_MVBLOCK_REF_RCP
  2
AecDbDispRepMvBlockRefRcp
  3
AecArchBase50|Product Desc: Autodesk Architectural Desktop 2007 |Company: Autodesk,Inc. |WEB Address: www.autodesk.com
 90
      129
 91
        0
280
     0
281
     0
  0
CLASS
  1
AEC_DISP_REP_DOOR_THRESHOLD_PLAN
  2
AecDbDispRepDoorThresholdPlan
  3
AecArchBase50|Product Desc: Autodesk Architectural Desktop 2007 |Company: Autodesk,Inc. |WEB Address: www.autodesk.com
 90
      129
 91
        0
280
     0
281
     0
  0
CLASS
  1
AEC_DISP_PROPS_DOOR_THRESHOLD_PLAN
  2
AecDbDispPropsDoorThresholdPlan
  3
AecArchBase50|Product Desc: Autodesk Architectural Desktop 2007 |Company: Autodesk,Inc. |WEB Address: www.autodesk.com
 90
      129
 91
        0
280
     0
281
     0
  0
CLASS
  1
AEC_DISP_REP_BDG_SECTIONLINE_RCP
  2
AecDbDispRepBdgSectionLineRcp
  3
AecArchBase50|Product Desc: Autodesk Architectural Desktop 2007 |Company: Autodesk,Inc. |WEB Address: www.autodesk.com
 90
      129
 91
        0
280
     0
281
     0
  0
CLASS
  1
AEC_DISP_REP_BDG_SECTION_MODEL
  2
AecDbDispRepBdgSectionModel
  3
AecArchBase50|Product Desc: Autodesk Architectural Desktop 2007 |Company: Autodesk,Inc. |WEB Address: www.autodesk.com
 90
      129
 91
        0
280
     0
281
     0
  0
CLASS
  1
AEC_DISP_REP_MASS_GROUP_RCP
  2
AecDbDispRepMassGroupRcp
  3
AecArchBase50|Product Desc: Autodesk Architectural Desktop 2007 |Company: Autodesk,Inc. |WEB Address: www.autodesk.com
 90
      129
 91
        0
280
     0
281
     0
  0
CLASS
  1
AEC_DISP_REP_DOOR_RCP
  2
AecDbDispRepDoorRcp
  3
AecArchBase50|Product Desc: Autodesk Architectural Desktop 2007 |Company: Autodesk,Inc. |WEB Address: www.autodesk.com
 90
      129
 91
        0
280
     0
281
     0
  0
CLASS
  1
AEC_DISP_REP_ROOF_RCP
  2
AecDbDispRepRoofRcp
  3
AecArchBase50|Product Desc: Autodesk Architectural Desktop 2007 |Company: Autodesk,Inc. |WEB Address: www.autodesk.com
 90
      129
 91
        0
280
     0
281
     0
  0
CLASS
  1
AEC_DISP_REP_BDG_ELEVLINE_RCP
  2
AecDbDispRepBdgElevLineRcp
  3
AecArchBase50|Product Desc: Autodesk Architectural Desktop 2007 |Company: Autodesk,Inc. |WEB Address: www.autodesk.com
 90
      129
 91
        0
280
     0
281
     0
  0
CLASS
  1
AEC_DISP_REP_WALL_RCP
  2
AecDbDispRepWallRcp
  3
AecArchBase50|Product Desc: Autodesk Architectural Desktop 2007 |Company: Autodesk,Inc. |WEB Address: www.autodesk.com
 90
      129
 91
        0
280
     0
281
     0
  0
CLASS
  1
AEC_DISP_REP_STAIR_RCP
  2
AecDbDispRepStairRcp
  3
AecArchBase50|Product Desc: Autodesk Architectural Desktop 2007 |Company: Autodesk,Inc. |WEB Address: www.autodesk.com
 90
      129
 91
        0
280
     0
281
     0
  0
CLASS
  1
AEC_DISP_REP_STAIR_PLAN_OVERLAPPING
  2
AecDbDispRepStairPlanOverlapping
  3
AecArchBase50|Product Desc: Autodesk Architectural Desktop 2007 |Company: Autodesk,Inc. |WEB Address: www.autodesk.com
 90
      129
 91
        0
280
     0
281
     0
  0
CLASS
  1
AEC_DISP_PROPS_STAIR_PLAN_OVERLAPPING
  2
AecDbDispPropsStairPlanOverlapping
  3
AecArchBase50|Product Desc: Autodesk Architectural Desktop 2007 |Company: Autodesk,Inc. |WEB Address: www.autodesk.com
 90
      129
 91
        0
280
     0
281
     0
  0
CLASS
  1
AEC_DISP_REP_SPACE_RCP
  2
AecDbDispRepSpaceRcp
  3
AecArchBase50|Product Desc: Autodesk Architectural Desktop 2007 |Company: Autodesk,Inc. |WEB Address: www.autodesk.com
 90
      129
 91
        0
280
     0
281
     0
  0
CLASS
  1
AEC_DISP_REP_SPACE_VOLUME
  2
AecDbDispRepSpaceVolume
  3
AecArchBase50|Product Desc: Autodesk Architectural Desktop 2007 |Company: Autodesk,Inc. |WEB Address: www.autodesk.com
 90
      129
 91
        0
280
     0
281
     0
  0
CLASS
  1
AEC_DISP_REP_DOOR_ELEV
  2
AecDbDispRepDoorElev
  3
AecArchBase50|Product Desc: Autodesk Architectural Desktop 2007 |Company: Autodesk,Inc. |WEB Address: www.autodesk.com
 90
      129
 91
        0
280
     0
281
     0
  0
CLASS
  1
AEC_DISP_REP_ANCHOR_EXT_TAG_TO_ENT
  2
AecDbDispRepAnchorExtendedTagToEnt
  3
AecScheduleData50|Product Desc: Autodesk Architectural Desktop 2007 |Company: Autodesk,Inc. |WEB Address: www.autodesk.com
 90
      129
 91
        0
280
     0
281
     0
  0
CLASS
  1
AEC_DISP_REP_ANCHOR
  2
AecDbDispRepAnchor
  3
AecBase50|Product Desc: Autodesk Architectural Desktop 2007 |Company: Autodesk,Inc. |WEB Address: www.autodesk.com
 90
      129
 91
        0
280
     0
281
     0
  0
CLASS
  1
AEC_DISP_REP_POLYGON_TRUECOLOUR
  2
AecDbDispRepPolygonTrueColour
  3
AecBaseEx50|Product Desc: Autodesk Architectural Desktop 2007 |Company: Autodesk,Inc. |WEB Address: www.autodesk.com
 90
      129
 91
        0
280
     0
281
     0
  0
CLASS
  1
AEC_DISP_PROPS_POLYGON_TRUECOLOUR
  2
AecDbDispPropsPolygonTrueColour
  3
AecBaseEx50|Product Desc: Autodesk Architectural Desktop 2007 |Company: Autodesk,Inc. |WEB Address: www.autodesk.com
 90
      129
 91
        0
280
     0
281
     0
  0
CLASS
  1
BINRECORD
  2
AcAecBinRecord
  3
AecBase50|Product Desc: Autodesk Architectural Desktop 2007 |Company: Autodesk,Inc. |WEB Address: www.autodesk.com
 90
      129
 91
        1
280
     0
281
     0
  0
CLASS
  1
ACSH_SPHERE_CLASS
  2
AcDbShSphere
  3
ObjectDBX Classes
 90
     1153
 91
        0
280
     0
281
     0
  0
CLASS
  1
ACSH_HISTORY_CLASS
  2
AcDbShHistory
  3
ObjectDBX Classes
 90
     1153
 91
        0
280
     0
281
     0
  0
CLASS
  1
SOLID_BACKGROUND
  2
AcDbSolidBackground
  3
SCENEOE
 90
     4095
 91
        0
280
     0
281
     0
  0
CLASS
  1
ACSH_BOX_CLASS
  2
AcDbShBox
  3
ObjectDBX Classes
 90
     1153
 91
        0
280
     0
281
     0
  0
CLASS
  1
ACSH_CONE_CLASS
  2
AcDbShCone
  3
ObjectDBX Classes
 90
     1153
 91
        0
280
     0
281
     0
  0
CLASS
  1
ACSH_TORUS_CLASS
  2
AcDbShTorus
  3
ObjectDBX Classes
 90
     1153
 91
        0
280
     0
281
     0
  0
CLASS
  1
HELIX
  2
AcDbHelix
  3
ObjectDBX Classes
 90
     4095
 91
        0
280
     0
281
     1
  0
CLASS
  1
ACSH_SWEEP_CLASS
  2
AcDbShSweep
  3
ObjectDBX Classes
 90
     1153
 91
        0
280
     0
281
     0
  0
CLASS
  1
EXACXREFPANELOBJECT
  2
ExAcXREFPanelObject
  3
EXAC_ESW
 90
     1025
 91
        1
280
     0
281
     0
  0
CLASS
  1
FIELD
  2
AcDbField
  3
ObjectDBX Classes
 90
     1152
 91
        0
280
     0
281
     0
  0
CLASS
  1
IMAGE
  2
AcDbRasterImage
  3
ISM
 90
     2175
 91
        0
280
     0
281
     1
  0
CLASS
  1
IMAGEDEF_REACTOR
  2
AcDbRasterImageDefReactor
  3
ISM
 90
        1
 91
        0
280
     0
281
     0
  0
CLASS
  1
IMAGEDEF
  2
AcDbRasterImageDef
  3
ISM
 90
        0
 91
        0
280
     0
281
     0
  0
CLASS
  1
FIELDLIST
  2
AcDbFieldList
  3
ObjectDBX Classes
 90
     1152
 91
        1
280
     0
281
     0
  0
CLASS
  1
RASTERVARIABLES
  2
AcDbRasterVariables
  3
ISM
 90
        0
 91
        1
280
     0
281
     0
  0
CLASS
  1
EXACTERMXREFMAP
  2
ExAcTermXrefMap
  3
EXAC_SERVICE
 90
     1025
 91
        0
280
     0
281
     0
  0
CLASS
  1
DWFDEFINITION
  2
AcDbDwfDefinition
  3
ObjectDBX Classes
 90
     1153
 91
        0
280
     0
281
     0
  0
CLASS
  1
DWFUNDERLAY
  2
AcDbDwfReference
  3
ObjectDBX Classes
 90
     1153
 91
        0
280
     0
281
     1
  0
CLASS
  1
ACAECUSTOBJ
  2
AcAeEditorObj
  3
AcAeEditorObj
 90
     1024
 91
        0
280
     0
281
     0
  0
CLASS
  1
ACDB_MTEXTOBJECTCONTEXTDATA_CLASS
  2
AcDbMTextObjectContextData
  3
ObjectDBX Classes
 90
     1153
 91
        0
280
     0
281
     0
  0
CLASS
  1
ACDB_HATCHVIEWCONTEXTDATA_CLASS
  2
AcDbHatchViewContextData
  3
ObjectDBX Classes
 90
     1153
 91
        0
280
     0
281
     0
  0
CLASS
  1
ACDB_HATCHSCALECONTEXTDATA_CLASS
  2
AcDbHatchScaleContextData
  3
ObjectDBX Classes
 90
     1153
 91
        0
280
     0
281
     0
  0
ENDSEC
  0
SECTION
  2
TABLES
  0
TABLE
  2
VPORT
  5
8
330
0
100
AcDbSymbolTable
 70
     1
  0
VPORT
  5
215
330
8
100
AcDbSymbolTableRecord
100
AcDbViewportTableRecord
  2
*Active
 70
     0
 10
0.0
 20
0.0
 11
1.0
 21
1.0
 12
3042.240943716201
 22
1955.55510705672
 13
0.0
 23
0.0
 14
0.5
 24
0.5
 15
0.5
 25
0.5
 16
0.0
 26
0.0
 36
1736.523449255554
 17
575.4799205165253
 27
202.4030064071585
 37
-142.8182665861146
 40
8709.617799100511
 41
2.116022099447513
 42
50.0
 43
0.0
 44
0.0
 50
0.0
 51
0.0
 71
     0
 72
  1000
 73
     1
 74
     3
 75
     0
 76
     0
 77
     0
 78
     0
281
     0
 65
     0
110
0.0
120
0.0
130
0.0
111
1.0
121
0.0
131
0.0
112
0.0
122
1.0
132
0.0
 79
     0
146
0.0
348
220
 60
     3
 61
     5
292
     1
282
     1
141
0.0
142
0.0
 63
   250
421
  3355443
  0
ENDTAB
  0
TABLE
  2
LTYPE
  5
5
330
0
100
AcDbSymbolTable
 70
     9
  0
LTYPE
  5
14
330
5
100
AcDbSymbolTableRecord
100
AcDbLinetypeTableRecord
  2
ByBlock
 70
     0
  3

 72
    65
 73
     0
 40
0.0
  0
LTYPE
  5
15
330
5
100
AcDbSymbolTableRecord
100
AcDbLinetypeTableRecord
  2
ByLayer
 70
     0
  3

 72
    65
 73
     0
 40
0.0
  0
LTYPE
  5
16
330
5
100
AcDbSymbolTableRecord
100
AcDbLinetypeTableRecord
  2
Continuous
 70
     0
  3
Solid line
 72
    65
 73
     0
 40
0.0
  0
LTYPE
  5
A84C
330
5
100
AcDbSymbolTableRecord
100
AcDbLinetypeTableRecord
  2
DASHED
 70
     0
  3
Dashed __ __ __ __ __ __ __ __ __ __ __ __ __ _
 72
    65
 73
     2
 40
0.75
 49
0.5
 74
     0
 49
-0.25
 74
     0
  0
LTYPE
  5
A84D
330
5
100
AcDbSymbolTableRecord
100
AcDbLinetypeTableRecord
  2
CENTER
 70
     0
  3
Center ____ _ ____ _ ____ _ ____ _ ____ _ ____
 72
    65
 73
     4
 40
2.0
 49
1.25
 74
     0
 49
-0.25
 74
     0
 49
0.25
 74
     0
 49
-0.25
 74
     0
  0
LTYPE
  5
A84E
330
5
100
AcDbSymbolTableRecord
100
AcDbLinetypeTableRecord
  2
HIDDEN
 70
     0
  3
Hidden __ __ __ __ __ __ __ __ __ __ __ __ __ _
 72
    65
 73
     2
 40
0.375
 49
0.25
 74
     0
 49
-0.125
 74
     0
  0
LTYPE
  5
A84F
330
5
100
AcDbSymbolTableRecord
100
AcDbLinetypeTableRecord
  2
DIVIDE2
 70
     0
  3
Divide (.5x) __..__..__..__..__..__..__..__.._
 72
    65
 73
     6
 40
0.625
 49
0.25
 74
     0
 49
-0.125
 74
     0
 49
0.0
 74
     0
 49
-0.125
 74
     0
 49
0.0
 74
     0
 49
-0.125
 74
     0
  0
LTYPE
  5
A994
330
5
100
AcDbSymbolTableRecord
100
AcDbLinetypeTableRecord
  2
mp000096$0$DASHED
 70
     0
  3
Dashed __ __ __ __ __ __ __ __ __ __ __ __ __ _
 72
    65
 73
     2
 40
0.75
 49
0.5
 74
     0
 49
-0.25
 74
     0
  0
LTYPE
  5
A995
330
5
100
AcDbSymbolTableRecord
100
AcDbLinetypeTableRecord
  2
mp000096$0$CENTER
 70
     0
  3
Center ____ _ ____ _ ____ _ ____ _ ____ _ ____
 72
    65
 73
     4
 40
2.0
 49
1.25
 74
     0
 49
-0.25
 74
     0
 49
0.25
 74
     0
 49
-0.25
 74
     0
  0
LTYPE
  5
A996
330
5
100
AcDbSymbolTableRecord
100
AcDbLinetypeTableRecord
  2
mp000096$0$HIDDEN
 70
     0
  3
Hidden __ __ __ __ __ __ __ __ __ __ __ __ __ _
 72
    65
 73
     2
 40
0.375
 49
0.25
 74
     0
 49
-0.125
 74
     0
  0
LTYPE
  5
A997
330
5
100
AcDbSymbolTableRecord
100
AcDbLinetypeTableRecord
  2
mp000096$0$DIVIDE2
 70
     0
  3
Divide (.5x) __..__..__..__..__..__..__..__.._
 72
    65
 73
     6
 40
0.625
 49
0.25
 74
     0
 49
-0.125
 74
     0
 49
0.0
 74
     0
 49
-0.125
 74
     0
 49
0.0
 74
     0
 49
-0.125
 74
     0
  0
ENDTAB
  0
TABLE
  2
LAYER
  5
2
102
{ACAD_XDICTIONARY
360
28F
102
}
330
0
100
AcDbSymbolTable
 70
    12
  0
LAYER
  5
10
102
{ACAD_XDICTIONARY
360
308
102
}
330
2
100
AcDbSymbolTableRecord
100
AcDbLayerTableRecord
  2
0
 70
     0
 62
     7
  6
Continuous
370
    -3
390
F
347
219
  0
LAYER
  5
37D
102
{ACAD_XDICTIONARY
360
37E
102
}
330
2
100
AcDbSymbolTableRecord
100
AcDbLayerTableRecord
  2
defpoints
 70
     0
 62
     4
  6
Continuous
290
     0
370
    -3
390
F
347
219
  0
LAYER
  5
40EE
102
{ACAD_XDICTIONARY
360
40EF
102
}
330
2
100
AcDbSymbolTableRecord
100
AcDbLayerTableRecord
  2
CAD_DEFAULT_LAYER
 70
     0
 62
     7
  6
Continuous
370
     5
390
F
347
219
  0
LAYER
  5
98F7
330
2
100
AcDbSymbolTableRecord
100
AcDbLayerTableRecord
  2
MASONS Barricade Building Wrap Hatch (00134140)
 70
     0
 62
   146
420
   218482
  6
Continuous
370
     0
390
F
347
219
  0
LAYER
  5
98FD
330
2
100
AcDbSymbolTableRecord
100
AcDbLayerTableRecord
  2
Timber Perimeter (00134144)
 70
     0
 62
    33
420
 11965012
  6
Continuous
370
    15
390
F
347
219
  0
LAYER
  5
98FE
330
2
100
AcDbSymbolTableRecord
100
AcDbLayerTableRecord
  2
Timber Inner (00134145)
 70
     0
 62
    36
420
  7163415
  6
Continuous
370
     5
390
F
347
219
  0
LAYER
  5
9900
330
2
100
AcDbSymbolTableRecord
100
AcDbLayerTableRecord
  2
MP Panel Perimeter (00134148)
 70
     0
 62
   162
420
   279240
  6
Continuous
370
    15
390
F
347
219
  0
LAYER
  5
9904
330
2
100
AcDbSymbolTableRecord
100
AcDbLayerTableRecord
  2
MP Concrete Perimeter Isometric (00134230)
 70
     0
 62
   253
420
 10724259
  6
Continuous
370
    15
390
F
347
219
  0
LAYER
  5
9AD4
330
2
100
AcDbSymbolTableRecord
100
AcDbLayerTableRecord
  2
Detail Flashings (00134165)
 70
     0
 62
   143
420
  7847616
  6
Continuous
370
    15
390
F
347
219
  0
LAYER
  5
A1F7
330
2
100
AcDbSymbolTableRecord
100
AcDbLayerTableRecord
  2
MP Annotation (00134142)
 70
     0
 62
     7
  6
Continuous
370
     0
390
F
347
219
  0
LAYER
  5
A1F8
330
2
100
AcDbSymbolTableRecord
100
AcDbLayerTableRecord
  2
MP Hidden Lines (00134167)
 70
     0
 62
     8
420
  8224125
  6
HIDDEN
370
     5
390
F
347
219
  0
LAYER
  5
A3D3
330
2
100
AcDbSymbolTableRecord
100
AcDbLayerTableRecord
  2
MP Barricade Building Wrap Perimeter Isometric (00134183)
 70
     0
 62
   142
420
   434907
  6
Continuous
370
    15
390
F
347
219
  0
ENDTAB
  0
TABLE
  2
STYLE
  5
3
330
0
100
AcDbSymbolTable
 70
     6
  0
STYLE
  5
11
330
3
100
AcDbSymbolTableRecord
100
AcDbTextStyleTableRecord
  2
Standard
 70
     0
 40
0.0
 41
1.0
 50
0.0
 71
     0
 42
19.36617472281852
  3
ARIAL.TTF
  4

1001
ACAD
1000
Arial
1071
       34
  0
STYLE
  5
37F
330
3
100
AcDbSymbolTableRecord
100
AcDbTextStyleTableRecord
  2
x01
 70
     0
 40
2.0
 41
1.0
 50
0.0
 71
     0
 42
2.0
  3
txt.shx
  4

1001
AcadAnnotative
1000
AnnotativeData
1002
{
1070
     1
1070
     1
1002
}
  0
STYLE
  5
380
330
3
100
AcDbSymbolTableRecord
100
AcDbTextStyleTableRecord
  2
2mm
 70
     0
 40
2.0
 41
1.0
 50
0.0
 71
     0
 42
2.0
  3
ARIAL.TTF
  4

1001
AcadAnnotative
1000
AnnotativeData
1002
{
1070
     1
1070
     1
1002
}
1001
ACAD
1000
Arial
1071
       34
  0
STYLE
  5
A987
330
3
100
AcDbSymbolTableRecord
100
AcDbTextStyleTableRecord
  2
mp000096$0$Standard
 70
     0
 40
0.0
 41
1.0
 50
0.0
 71
     0
 42
19.36617472281852
  3
txt
  4

  0
STYLE
  5
A991
330
3
100
AcDbSymbolTableRecord
100
AcDbTextStyleTableRecord
  2
mp000096$0$x01
 70
     0
 40
2.0
 41
1.0
 50
0.0
 71
     0
 42
2.0
  3
txt.shx
  4

1001
AcadAnnotative
1000
AnnotativeData
1002
{
1070
     1
1070
     1
1002
}
  0
STYLE
  5
A97E
330
3
100
AcDbSymbolTableRecord
100
AcDbTextStyleTableRecord
  2
mp000096$0$2mm
 70
     0
 40
2.0
 41
1.0
 50
0.0
 71
     0
 42
2.0
  3
ARIAL.TTF
  4

1001
AcadAnnotative
1000
AnnotativeData
1002
{
1070
     1
1070
     1
1002
}
1001
ACAD
1000
Arial
1071
       34
  0
ENDTAB
  0
TABLE
  2
VIEW
  5
6
330
0
100
AcDbSymbolTable
 70
     0
  0
ENDTAB
  0
TABLE
  2
UCS
  5
7
330
0
100
AcDbSymbolTable
 70
     0
  0
ENDTAB
  0
TABLE
  2
APPID
  5
9
330
0
100
AcDbSymbolTable
 70
    26
  0
APPID
  5
12
330
9
100
AcDbSymbolTableRecord
100
AcDbRegAppTableRecord
  2
ACAD
 70
     0
  0
APPID
  5
2C5
330
9
100
AcDbSymbolTableRecord
100
AcDbRegAppTableRecord
  2
ACAD_MLEADERVER
 70
     0
  0
APPID
  5
30C
330
9
100
AcDbSymbolTableRecord
100
AcDbRegAppTableRecord
  2
DCO15
 70
     0
  0
APPID
  5
347
330
9
100
AcDbSymbolTableRecord
100
AcDbRegAppTableRecord
  2
ACAD_EXEMPT_FROM_CAD_STANDARDS
 70
     0
  0
APPID
  5
384
330
9
100
AcDbSymbolTableRecord
100
AcDbRegAppTableRecord
  2
ACAD_PSEXT
 70
     0
  0
APPID
  5
385
330
9
100
AcDbSymbolTableRecord
100
AcDbRegAppTableRecord
  2
AcadAnnotative
 70
     0
  0
APPID
  5
386
330
9
100
AcDbSymbolTableRecord
100
AcDbRegAppTableRecord
  2
ACAD_DSTYLE_DIMJAG
 70
     0
  0
APPID
  5
387
330
9
100
AcDbSymbolTableRecord
100
AcDbRegAppTableRecord
  2
ACAD_DSTYLE_DIMTALN
 70
     0
  0
APPID
  5
388
330
9
100
AcDbSymbolTableRecord
100
AcDbRegAppTableRecord
  2
ACAD_DSTYLE_DIMBREAK
 70
     0
  0
APPID
  5
4EF
330
9
100
AcDbSymbolTableRecord
100
AcDbRegAppTableRecord
  2
AcDbBlockRepETag
 70
     0
  0
APPID
  5
4F0
330
9
100
AcDbSymbolTableRecord
100
AcDbRegAppTableRecord
  2
AcAecLayerStandard
 70
     0
  0
APPID
  5
4F1
330
9
100
AcDbSymbolTableRecord
100
AcDbRegAppTableRecord
  2
AcDbDynamicBlockGUID
 70
     0
  0
APPID
  5
4F2
330
9
100
AcDbSymbolTableRecord
100
AcDbRegAppTableRecord
  2
AcDbDynamicBlockTrueName
 70
     0
  0
APPID
  5
4F3
330
9
100
AcDbSymbolTableRecord
100
AcDbRegAppTableRecord
  2
AcDbBlockRepBTag
 70
     0
  0
APPID
  5
4F4
330
9
100
AcDbSymbolTableRecord
100
AcDbRegAppTableRecord
  2
AEC_XDATA_BOUND_SPACE
 70
     0
  0
APPID
  5
A0D
330
9
100
AcDbSymbolTableRecord
100
AcDbRegAppTableRecord
  2
AECBASE
 70
     0
  0
APPID
  5
A0E
330
9
100
AcDbSymbolTableRecord
100
AcDbRegAppTableRecord
  2
AEC_OBJVER_INFO
 70
     0
  0
APPID
  5
A0F
330
9
100
AcDbSymbolTableRecord
100
AcDbRegAppTableRecord
  2
AcadAnnoAV
 70
     0
  0
APPID
  5
A6C
330
9
100
AcDbSymbolTableRecord
100
AcDbRegAppTableRecord
  2
AcLayerTools
 70
     0
  0
APPID
  5
A6D
330
9
100
AcDbSymbolTableRecord
100
AcDbRegAppTableRecord
  2
AcadAnnotativeDecomposition
 70
     0
  0
APPID
  5
13E1
330
9
100
AcDbSymbolTableRecord
100
AcDbRegAppTableRecord
  2
ACAUTHENVIRON
 70
     0
  0
APPID
  5
13E2
330
9
100
AcDbSymbolTableRecord
100
AcDbRegAppTableRecord
  2
AcadAnnoPO
 70
     0
  0
APPID
  5
2C78
330
9
100
AcDbSymbolTableRecord
100
AcDbRegAppTableRecord
  2
PE_URL
 70
     0
  0
APPID
  5
4530
330
9
100
AcDbSymbolTableRecord
100
AcDbRegAppTableRecord
  2
AcadNonAnnoHatchDecomposition
 70
     0
  0
APPID
  5
70A1
330
9
100
AcDbSymbolTableRecord
100
AcDbRegAppTableRecord
  2
ACAD_MATERIAL_MAPPER
 70
     0
  0
APPID
  5
70A2
330
9
100
AcDbSymbolTableRecord
100
AcDbRegAppTableRecord
  2
ACAD_MATERIAL_MAPPER_2
 70
     0
  0
ENDTAB
  0
TABLE
  2
DIMSTYLE
  5
A
330
0
100
AcDbSymbolTable
 70
     4
100
AcDbDimStyleTable
 71
     2
340
383
340
27
  0
DIMSTYLE
105
27
330
A
100
AcDbSymbolTableRecord
100
AcDbDimStyleTableRecord
  2
Standard
 70
     0
340
11
  0
DIMSTYLE
105
383
330
A
100
AcDbSymbolTableRecord
100
AcDbDimStyleTableRecord
  2
2mm
 70
     0
  4
M
 41
3.0
 42
3.0
 43
400.0
 44
1.0
 73
     0
 74
     0
140
2.0
141
2.0
143
0.001
147
0.0
176
   256
177
   256
178
   256
179
     2
271
     0
272
     0
279
     2
285
     8
340
380
341
352
342
352
345
15
346
15
347
15
371
     9
372
     9
1001
ACAD_DSTYLE_DIMBREAK
1070
   391
1040
0.0
1001
AcadAnnotative
1000
AnnotativeData
1002
{
1070
     1
1070
     1
1002
}
1001
ACAD_DSTYLE_DIMJAG
1070
   388
1040
4.0
1001
ACAD_DSTYLE_DIMTALN
1070
   392
1070
     0
  0
DIMSTYLE
105
A998
330
A
100
AcDbSymbolTableRecord
100
AcDbDimStyleTableRecord
  2
mp000096$0$Standard
 70
     0
340
A987
  0
DIMSTYLE
105
A999
330
A
100
AcDbSymbolTableRecord
100
AcDbDimStyleTableRecord
  2
mp000096$0$2mm
 70
     0
  4
M
 41
3.0
 42
3.0
 43
400.0
 44
1.0
 73
     0
 74
     0
140
2.0
141
2.0
143
0.001
147
0.0
176
   256
177
   256
178
   256
179
     2
271
     0
272
     0
279
     2
285
     8
340
A97E
341
A988
342
A988
345
15
346
15
347
15
371
     9
372
     9
1001
ACAD_DSTYLE_DIMBREAK
1070
   391
1040
0.0
1001
AcadAnnotative
1000
AnnotativeData
1002
{
1070
     1
1070
     1
1002
}
1001
ACAD_DSTYLE_DIMJAG
1070
   388
1040
4.0
1001
ACAD_DSTYLE_DIMTALN
1070
   392
1070
     0
  0
ENDTAB
  0
TABLE
  2
BLOCK_RECORD
  5
1
330
0
100
AcDbSymbolTable
 70
     7
  0
BLOCK_RECORD
  5
1F
102
{ACAD_XDICTIONARY
360
102E
102
}
330
1
100
AcDbSymbolTableRecord
100
AcDbBlockTableRecord
  2
*Model_Space
340
22
 70
     0
280
     1
281
     0
  0
BLOCK_RECORD
  5
16B9
330
1
100
AcDbSymbolTableRecord
100
AcDbBlockTableRecord
  2
*Paper_Space
340
16BA
 70
     0
280
     1
281
     0
  0
BLOCK_RECORD
  5
352
330
1
100
AcDbSymbolTableRecord
100
AcDbBlockTableRecord
  2
_OBLIQUE
340
0
310
2800000020000000200000000100080000000000000400000000000000000000000000000000000000000000000080000080000000808000800000008000800080800000C0C0C000C0DCC000F0CAA6000020400000206000002080000020A0000020C0000020E00000400000004020000040400000406000004080000040A0
310
000040C0000040E00000600000006020000060400000606000006080000060A0000060C0000060E00000800000008020000080400000806000008080000080A0000080C0000080E00000A0000000A0200000A0400000A0600000A0800000A0A00000A0C00000A0E00000C0000000C0200000C0400000C0600000C0800000C0
310
A00000C0C00000C0E00000E0000000E0200000E0400000E0600000E0800000E0A00000E0C00000E0E00040000000400020004000400040006000400080004000A0004000C0004000E00040200000402020004020400040206000402080004020A0004020C0004020E000404000004040200040404000404060004040800040
310
40A0004040C0004040E00040600000406020004060400040606000406080004060A0004060C0004060E00040800000408020004080400040806000408080004080A0004080C0004080E00040A0000040A0200040A0400040A0600040A0800040A0A00040A0C00040A0E00040C0000040C0200040C0400040C0600040C08000
310
40C0A00040C0C00040C0E00040E0000040E0200040E0400040E0600040E0800040E0A00040E0C00040E0E00080000000800020008000400080006000800080008000A0008000C0008000E00080200000802020008020400080206000802080008020A0008020C0008020E00080400000804020008040400080406000804080
310
008040A0008040C0008040E00080600000806020008060400080606000806080008060A0008060C0008060E00080800000808020008080400080806000808080008080A0008080C0008080E00080A0000080A0200080A0400080A0600080A0800080A0A00080A0C00080A0E00080C0000080C0200080C0400080C0600080C0
310
800080C0A00080C0C00080C0E00080E0000080E0200080E0400080E0600080E0800080E0A00080E0C00080E0E000C0000000C0002000C0004000C0006000C0008000C000A000C000C000C000E000C0200000C0202000C0204000C0206000C0208000C020A000C020C000C020E000C0400000C0402000C0404000C0406000C0
310
408000C040A000C040C000C040E000C0600000C0602000C0604000C0606000C0608000C060A000C060C000C060E000C0800000C0802000C0804000C0806000C0808000C080A000C080C000C080E000C0A00000C0A02000C0A04000C0A06000C0A08000C0A0A000C0A0C000C0A0E000C0C00000C0C02000C0C04000C0C06000
310
C0C08000C0C0A000F0FBFF00A4A0A000808080000000FF0000FF000000FFFF00FF000000FF00FF00FFFF0000FFFFFF00000000000000000000000000000000000000000000000000000000000000000000FF0000000000000000000000000000000000000000000000000000000000000000FF000000000000000000000000
310
0000000000000000000000000000000000000000FF0000000000000000000000000000000000000000000000000000000000000000FF0000000000000000000000000000000000000000000000000000000000000000FF0000000000000000000000000000000000000000000000000000000000000000FF00000000000000
310
00000000000000000000000000000000000000000000000000FF0000000000000000000000000000000000000000000000000000000000000000FF0000000000000000000000000000000000000000000000000000000000000000FF0000000000000000000000000000000000000000000000000000000000000000FF0000
310
000000000000000000000000000000000000000000000000000000000000FF0000000000000000000000000000000000000000000000000000000000000000FF0000000000000000000000000000000000000000000000000000000000000000FF000000000000000000000000000000000000000000000000000000000000
310
0000FF0000000000000000000000000000000000000000000000000000000000000000FF0000000000000000000000000000000000000000000000000000000000000000FF0000000000000000000000000000000000000000000000000000000000000000FF00000000000000000000000000000000000000000000000000
310
00000000000000FF0000000000000000000000000000000000000000000000000000000000000000FF0000000000000000000000000000000000000000000000000000000000000000FF0000000000000000000000000000000000000000000000000000000000000000FF0000000000000000000000000000000000000000
310
000000000000000000000000FF0000000000000000000000000000000000000000000000000000000000000000FF0000000000000000000000000000000000000000000000000000000000000000FF0000000000000000000000000000000000000000000000000000000000000000FF000000000000000000000000000000
310
0000000000000000000000000000000000FF0000000000000000000000000000000000000000000000000000000000000000FF0000000000000000000000000000000000000000000000000000000000000000FF0000000000000000000000000000000000000000000000000000000000000000FF00000000000000000000
310
00000000000000000000000000000000000000000000FF000000000000000000000000000000000000000000000000000000000000000000
 70
     0
280
     1
281
     0
  0
BLOCK_RECORD
  5
356
330
1
100
AcDbSymbolTableRecord
100
AcDbBlockTableRecord
  2
_DetailCallout
340
0
310
2800000020000000200000000100080000000000000400000000000000000000000000000000000000000000000080000080000000808000800000008000800080800000C0C0C000C0DCC000F0CAA6000020400000206000002080000020A0000020C0000020E00000400000004020000040400000406000004080000040A0
310
000040C0000040E00000600000006020000060400000606000006080000060A0000060C0000060E00000800000008020000080400000806000008080000080A0000080C0000080E00000A0000000A0200000A0400000A0600000A0800000A0A00000A0C00000A0E00000C0000000C0200000C0400000C0600000C0800000C0
310
A00000C0C00000C0E00000E0000000E0200000E0400000E0600000E0800000E0A00000E0C00000E0E00040000000400020004000400040006000400080004000A0004000C0004000E00040200000402020004020400040206000402080004020A0004020C0004020E000404000004040200040404000404060004040800040
310
40A0004040C0004040E00040600000406020004060400040606000406080004060A0004060C0004060E00040800000408020004080400040806000408080004080A0004080C0004080E00040A0000040A0200040A0400040A0600040A0800040A0A00040A0C00040A0E00040C0000040C0200040C0400040C0600040C08000
310
40C0A00040C0C00040C0E00040E0000040E0200040E0400040E0600040E0800040E0A00040E0C00040E0E00080000000800020008000400080006000800080008000A0008000C0008000E00080200000802020008020400080206000802080008020A0008020C0008020E00080400000804020008040400080406000804080
310
008040A0008040C0008040E00080600000806020008060400080606000806080008060A0008060C0008060E00080800000808020008080400080806000808080008080A0008080C0008080E00080A0000080A0200080A0400080A0600080A0800080A0A00080A0C00080A0E00080C0000080C0200080C0400080C0600080C0
310
800080C0A00080C0C00080C0E00080E0000080E0200080E0400080E0600080E0800080E0A00080E0C00080E0E000C0000000C0002000C0004000C0006000C0008000C000A000C000C000C000E000C0200000C0202000C0204000C0206000C0208000C020A000C020C000C020E000C0400000C0402000C0404000C0406000C0
310
408000C040A000C040C000C040E000C0600000C0602000C0604000C0606000C0608000C060A000C060C000C060E000C0800000C0802000C0804000C0806000C0808000C080A000C080C000C080E000C0A00000C0A02000C0A04000C0A06000C0A08000C0A0A000C0A0C000C0A0E000C0C00000C0C02000C0C04000C0C06000
310
C0C08000C0C0A000F0FBFF00A4A0A000808080000000FF0000FF000000FFFF00FF000000FF00FF00FFFF0000FFFFFF00000000000000000000000000000000000000000000000000000000000000000000000000000000000000000000FFFFFFFFFFFF0000000000000000000000000000000000000000000000FFFFFF0000
310
00000000FFFFFF000000000000000000000000000000000000FFFF000000000000000000000000FFFF000000000000000000000000000000FF00000000000000000000000000000000FF00000000000000FFFF00FFFFFFFFFF0000FF000000FF0000FF0000FFFFFF00FFFF0000FF00FFFF000000FF00FF00000000FF000000
310
FF00FFFF00FF000000FFFF00FF00FF00FF00000000FFFF0000000000FF000000FF00FFFF00FF000000FFFF00FFFFFF00FF00FF0000FFFFFF00000000FF000000FFFF00FF00FF000000FFFFFF00FFFF00FFFF000000FF000000000000FF000000FFFF00FF00FF000000FFFFFF00FFFF00FF00FFFF00FFFFFFFFFFFFFFFFFFFF
310
00FF0000FF00FF000000FFFF000000FF00FFFF000000FF000000000000000000000000000000000000000000000000FF0000000000FF0000000000000000000000000000000000000000000000000000FF00000000FF0000000000000000000000000000000000000000000000000000FF00000000FF000000000000000000
310
0000000000000000000000000000000000FF000000FF00000000000000000000000000000000000000000000000000000000FF0000FFFFFFFFFFFFFFFFFFFFFFFFFFFFFFFFFFFFFFFFFFFFFFFFFFFFFFFFFFFF00FFFFFFFF000000FFFF000000FF000000FF00FFFFFF0000FF0000FF00FFFFFF00FF00FF00000000FFFF0000
310
00FF0000FFFFFF000000FF00FF0000FF0000FF00FFFF00FF000000FF00FFFF0000FF0000FFFFFF000000FF00FFFF00FF0000FF00FFFFFF00FF0000FF00FFFF0000FF00FF00FFFF000000FF00FFFFFFFF00FFFFFF00FF0000FF0000FF0000FF0000FFFF0000FFFF000000FF00FFFFFFFF00FFFF00FFFF0000FF00FF00000000
310
FF00FFFF0000FFFF000000FF00FF0000FF00FFFF00FFFFFFFFFFFFFF00000000FF00FF000000FFFF000000FF00FF0000FFFFFFFFFF0000000000FF00000000000000000000000000000000000000000000FF000000000000000000FF0000000000000000000000000000000000000000FF0000000000000000000000FF0000
310
00000000000000000000000000000000FF00000000000000000000000000FF00000000000000000000000000000000FF000000000000000000000000000000FFFF000000000000000000000000FFFF000000000000000000000000000000000000FFFFFF000000000000FFFFFF000000000000000000000000000000000000
310
0000000000FFFFFFFFFFFF000000000000000000000000000000000000000000000000000000000000000000000000000000000000000000
 70
     4
280
     1
281
     0
  0
BLOCK_RECORD
  5
7098
102
{ACAD_XDICTIONARY
360
A982
102
}
330
1
100
AcDbSymbolTableRecord
100
AcDbBlockTableRecord
  2
mp000096
340
0
102
{BLKREFS
331
70A4
102
}
 70
     0
280
     1
281
     0
  0
BLOCK_RECORD
  5
90CD
102
{ACAD_XDICTIONARY
360
A34F
102
}
330
1
100
AcDbSymbolTableRecord
100
AcDbBlockTableRecord
  2
A$C076F0716
340
0
102
{BLKREFS
331
9170
102
}
 70
     4
280
     1
281
     0
1001
AcDbDynamicBlockGUID
1000
{C28204D1-B95D-4D99-818D-2D075138B9E2}
1001
AcDbBlockRepETag
1070
     1
1071
      151
  0
BLOCK_RECORD
  5
99C1
102
{ACAD_XDICTIONARY
360
A827
102
}
330
1
100
AcDbSymbolTableRecord
100
AcDbBlockTableRecord
  2
building wrap
340
0
 70
     4
280
     1
281
     1
1001
AcDbDynamicBlockGUID
1000
{11EEA66E-2202-4DAC-A6BA-53FDACE737C1}
1001
AcDbBlockRepETag
1070
     1
1071
      168
  0
BLOCK_RECORD
  5
A988
330
1
100
AcDbSymbolTableRecord
100
AcDbBlockTableRecord
  2
mp000096$0$_OBLIQUE
340
0
310
2800000020000000200000000100080000000000000400000000000000000000000000000000000000000000000080000080000000808000800000008000800080800000C0C0C000C0DCC000F0CAA6000020400000206000002080000020A0000020C0000020E00000400000004020000040400000406000004080000040A0
310
000040C0000040E00000600000006020000060400000606000006080000060A0000060C0000060E00000800000008020000080400000806000008080000080A0000080C0000080E00000A0000000A0200000A0400000A0600000A0800000A0A00000A0C00000A0E00000C0000000C0200000C0400000C0600000C0800000C0
310
A00000C0C00000C0E00000E0000000E0200000E0400000E0600000E0800000E0A00000E0C00000E0E00040000000400020004000400040006000400080004000A0004000C0004000E00040200000402020004020400040206000402080004020A0004020C0004020E000404000004040200040404000404060004040800040
310
40A0004040C0004040E00040600000406020004060400040606000406080004060A0004060C0004060E00040800000408020004080400040806000408080004080A0004080C0004080E00040A0000040A0200040A0400040A0600040A0800040A0A00040A0C00040A0E00040C0000040C0200040C0400040C0600040C08000
310
40C0A00040C0C00040C0E00040E0000040E0200040E0400040E0600040E0800040E0A00040E0C00040E0E00080000000800020008000400080006000800080008000A0008000C0008000E00080200000802020008020400080206000802080008020A0008020C0008020E00080400000804020008040400080406000804080
310
008040A0008040C0008040E00080600000806020008060400080606000806080008060A0008060C0008060E00080800000808020008080400080806000808080008080A0008080C0008080E00080A0000080A0200080A0400080A0600080A0800080A0A00080A0C00080A0E00080C0000080C0200080C0400080C0600080C0
310
800080C0A00080C0C00080C0E00080E0000080E0200080E0400080E0600080E0800080E0A00080E0C00080E0E000C0000000C0002000C0004000C0006000C0008000C000A000C000C000C000E000C0200000C0202000C0204000C0206000C0208000C020A000C020C000C020E000C0400000C0402000C0404000C0406000C0
310
408000C040A000C040C000C040E000C0600000C0602000C0604000C0606000C0608000C060A000C060C000C060E000C0800000C0802000C0804000C0806000C0808000C080A000C080C000C080E000C0A00000C0A02000C0A04000C0A06000C0A08000C0A0A000C0A0C000C0A0E000C0C00000C0C02000C0C04000C0C06000
310
C0C08000C0C0A000F0FBFF00A4A0A000808080000000FF0000FF000000FFFF00FF000000FF00FF00FFFF0000FFFFFF00000000000000000000000000000000000000000000000000000000000000000000FF0000000000000000000000000000000000000000000000000000000000000000FF000000000000000000000000
310
0000000000000000000000000000000000000000FF0000000000000000000000000000000000000000000000000000000000000000FF0000000000000000000000000000000000000000000000000000000000000000FF0000000000000000000000000000000000000000000000000000000000000000FF00000000000000
310
00000000000000000000000000000000000000000000000000FF0000000000000000000000000000000000000000000000000000000000000000FF0000000000000000000000000000000000000000000000000000000000000000FF0000000000000000000000000000000000000000000000000000000000000000FF0000
310
000000000000000000000000000000000000000000000000000000000000FF0000000000000000000000000000000000000000000000000000000000000000FF0000000000000000000000000000000000000000000000000000000000000000FF000000000000000000000000000000000000000000000000000000000000
310
0000FF0000000000000000000000000000000000000000000000000000000000000000FF0000000000000000000000000000000000000000000000000000000000000000FF0000000000000000000000000000000000000000000000000000000000000000FF00000000000000000000000000000000000000000000000000
310
00000000000000FF0000000000000000000000000000000000000000000000000000000000000000FF0000000000000000000000000000000000000000000000000000000000000000FF0000000000000000000000000000000000000000000000000000000000000000FF0000000000000000000000000000000000000000
310
000000000000000000000000FF0000000000000000000000000000000000000000000000000000000000000000FF0000000000000000000000000000000000000000000000000000000000000000FF0000000000000000000000000000000000000000000000000000000000000000FF000000000000000000000000000000
310
0000000000000000000000000000000000FF0000000000000000000000000000000000000000000000000000000000000000FF0000000000000000000000000000000000000000000000000000000000000000FF0000000000000000000000000000000000000000000000000000000000000000FF00000000000000000000
310
00000000000000000000000000000000000000000000FF000000000000000000000000000000000000000000000000000000000000000000
 70
     0
280
     1
281
     0
  0
BLOCK_RECORD
  5
A98C
330
1
100
AcDbSymbolTableRecord
100
AcDbBlockTableRecord
  2
mp000096$0$_DetailCallout
340
0
310
2800000020000000200000000100080000000000000400000000000000000000000000000000000000000000000080000080000000808000800000008000800080800000C0C0C000C0DCC000F0CAA6000020400000206000002080000020A0000020C0000020E00000400000004020000040400000406000004080000040A0
310
000040C0000040E00000600000006020000060400000606000006080000060A0000060C0000060E00000800000008020000080400000806000008080000080A0000080C0000080E00000A0000000A0200000A0400000A0600000A0800000A0A00000A0C00000A0E00000C0000000C0200000C0400000C0600000C0800000C0
310
A00000C0C00000C0E00000E0000000E0200000E0400000E0600000E0800000E0A00000E0C00000E0E00040000000400020004000400040006000400080004000A0004000C0004000E00040200000402020004020400040206000402080004020A0004020C0004020E000404000004040200040404000404060004040800040
310
40A0004040C0004040E00040600000406020004060400040606000406080004060A0004060C0004060E00040800000408020004080400040806000408080004080A0004080C0004080E00040A0000040A0200040A0400040A0600040A0800040A0A00040A0C00040A0E00040C0000040C0200040C0400040C0600040C08000
310
40C0A00040C0C00040C0E00040E0000040E0200040E0400040E0600040E0800040E0A00040E0C00040E0E00080000000800020008000400080006000800080008000A0008000C0008000E00080200000802020008020400080206000802080008020A0008020C0008020E00080400000804020008040400080406000804080
310
008040A0008040C0008040E00080600000806020008060400080606000806080008060A0008060C0008060E00080800000808020008080400080806000808080008080A0008080C0008080E00080A0000080A0200080A0400080A0600080A0800080A0A00080A0C00080A0E00080C0000080C0200080C0400080C0600080C0
310
800080C0A00080C0C00080C0E00080E0000080E0200080E0400080E0600080E0800080E0A00080E0C00080E0E000C0000000C0002000C0004000C0006000C0008000C000A000C000C000C000E000C0200000C0202000C0204000C0206000C0208000C020A000C020C000C020E000C0400000C0402000C0404000C0406000C0
310
408000C040A000C040C000C040E000C0600000C0602000C0604000C0606000C0608000C060A000C060C000C060E000C0800000C0802000C0804000C0806000C0808000C080A000C080C000C080E000C0A00000C0A02000C0A04000C0A06000C0A08000C0A0A000C0A0C000C0A0E000C0C00000C0C02000C0C04000C0C06000
310
C0C08000C0C0A000F0FBFF00A4A0A000808080000000FF0000FF000000FFFF00FF000000FF00FF00FFFF0000FFFFFF00000000000000000000000000000000000000000000000000000000000000000000000000000000000000000000FFFFFFFFFFFF0000000000000000000000000000000000000000000000FFFFFF0000
310
00000000FFFFFF000000000000000000000000000000000000FFFF000000000000000000000000FFFF000000000000000000000000000000FF00000000000000000000000000000000FF00000000000000FFFF00FFFFFFFFFF0000FF000000FF0000FF0000FFFFFF00FFFF0000FF00FFFF000000FF00FF00000000FF000000
310
FF00FFFF00FF000000FFFF00FF00FF00FF00000000FFFF0000000000FF000000FF00FFFF00FF000000FFFF00FFFFFF00FF00FF0000FFFFFF00000000FF000000FFFF00FF00FF000000FFFFFF00FFFF00FFFF000000FF000000000000FF000000FFFF00FF00FF000000FFFFFF00FFFF00FF00FFFF00FFFFFFFFFFFFFFFFFFFF
310
00FF0000FF00FF000000FFFF000000FF00FFFF000000FF000000000000000000000000000000000000000000000000FF0000000000FF0000000000000000000000000000000000000000000000000000FF00000000FF0000000000000000000000000000000000000000000000000000FF00000000FF000000000000000000
310
0000000000000000000000000000000000FF000000FF00000000000000000000000000000000000000000000000000000000FF0000FFFFFFFFFFFFFFFFFFFFFFFFFFFFFFFFFFFFFFFFFFFFFFFFFFFFFFFFFFFF00FFFFFFFF000000FFFF000000FF000000FF00FFFFFF0000FF0000FF00FFFFFF00FF00FF00000000FFFF0000
310
00FF0000FFFFFF000000FF00FF0000FF0000FF00FFFF00FF000000FF00FFFF0000FF0000FFFFFF000000FF00FFFF00FF0000FF00FFFFFF00FF0000FF00FFFF0000FF00FF00FFFF000000FF00FFFFFFFF00FFFFFF00FF0000FF0000FF0000FF0000FFFF0000FFFF000000FF00FFFFFFFF00FFFF00FFFF0000FF00FF00000000
310
FF00FFFF0000FFFF000000FF00FF0000FF00FFFF00FFFFFFFFFFFFFF00000000FF00FF000000FFFF000000FF00FF0000FFFFFFFFFF0000000000FF00000000000000000000000000000000000000000000FF000000000000000000FF0000000000000000000000000000000000000000FF0000000000000000000000FF0000
310
00000000000000000000000000000000FF00000000000000000000000000FF00000000000000000000000000000000FF000000000000000000000000000000FFFF000000000000000000000000FFFF000000000000000000000000000000000000FFFFFF000000000000FFFFFF000000000000000000000000000000000000
310
0000000000FFFFFFFFFFFF000000000000000000000000000000000000000000000000000000000000000000000000000000000000000000
 70
     4
280
     1
281
     0
  0
ENDTAB
  0
ENDSEC
  0
SECTION
  2
BLOCKS
  0
BLOCK
  5
20
330
1F
100
AcDbEntity
  8
0
100
AcDbBlockBegin
  2
*Model_Space
 70
     0
 10
0.0
 20
0.0
 30
0.0
  3
*Model_Space
  1

  0
ENDBLK
  5
21
330
1F
100
AcDbEntity
  8
0
100
AcDbBlockEnd
  0
BLOCK
  5
16BB
330
16B9
100
AcDbEntity
 67
     1
  8
0
100
AcDbBlockBegin
  2
*Paper_Space
 70
     0
 10
0.0
 20
0.0
 30
0.0
  3
*Paper_Space
  1

  0
ENDBLK
  5
16BC
330
16B9
100
AcDbEntity
 67
     1
  8
0
100
AcDbBlockEnd
  0
BLOCK
  5
353
330
352
100
AcDbEntity
  8
0
100
AcDbBlockBegin
  2
_OBLIQUE
 70
     0
 10
0.0
 20
0.0
 30
0.0
  3
_OBLIQUE
  1

  0
LINE
  5
354
330
352
100
AcDbEntity
  8
0
  6
ByBlock
 62
     0
100
AcDbLine
 10
-0.5
 20
-0.5
 30
0.0
 11
0.5
 21
0.5
 31
0.0
  0
ENDBLK
  5
355
330
352
100
AcDbEntity
  8
0
100
AcDbBlockEnd
  0
BLOCK
  5
357
330
356
100
AcDbEntity
  8
0
100
AcDbBlockBegin
  2
_DetailCallout
 70
     2
 10
0.0
 20
0.0
 30
0.0
  3
_DetailCallout
  1

  0
CIRCLE
  5
358
330
356
100
AcDbEntity
  8
0
  6
ByBlock
 62
     0
370
    -2
100
AcDbCircle
 10
0.0
 20
0.0
 30
0.0
 40
8.0
  0
LINE
  5
359
330
356
100
AcDbEntity
  8
0
  6
ByBlock
 62
     0
370
    -2
100
AcDbLine
 10
8.0
 20
0.0
 30
0.0
 11
-8.0
 21
0.0
 31
0.0
  0
ATTDEF
  5
35A
330
356
100
AcDbEntity
  8
0
 62
     0
100
AcDbText
 10
-15.0
 20
1.0
 30
0.0
 40
3.0
  1
VIEWNUMBER
  7
x01
 72
     1
 11
0.0
 21
1.0
 31
0.0
100
AcDbAttributeDefinition
  3
Enter view number
  2
VIEWNUMBER
 70
     0
280
     0
  0
ATTDEF
  5
35B
330
356
100
AcDbEntity
  8
0
 62
     0
100
AcDbText
 10
-16.0
 20
-6.0
 30
0.0
 40
3.0
  1
SHEETNUMBER
  7
x01
 72
     1
 11
0.0
 21
-6.0
 31
0.0
100
AcDbAttributeDefinition
  3
Enter sheet number
  2
SHEETNUMBER
 70
     0
280
     0
  0
ENDBLK
  5
35C
330
356
100
AcDbEntity
  8
0
100
AcDbBlockEnd
  0
BLOCK
  5
7099
330
7098
100
AcDbEntity
  8
0
100
AcDbBlockBegin
  2
mp000096
 70
     0
 10
0.0
 20
0.0
 30
0.0
  3
mp000096
  1
V:\mpcaddb\mp000000\mp000096.dwg
  0
MTEXT
  5
A97D
102
{ACAD_XDICTIONARY
360
A9DA
102
}
330
7098
100
AcDbEntity
  8
defpoints
 62
   253
370
     0
100
AcDbMText
 10
0.0
 20
-15.07001755932378
 30
0.0
 40
20.0
 41
1024.436706887209
 46
0.0
 71
     5
 72
     5
  3
The information provided is for guide only and must be used along side professional architectural/structural design. Professional architectural/structural design takes preference with any conflicting areas of the building design.\PAll documents or da
  3
ta downloaded from www.mpb.co.nz or emailed from MASONS Plastabrick Limited is the intellectual property of MASONS Plastabrick Limited. MASONS Plastabrick Limited takes no responsibility for any of the documents or data being used for any other purpo
  1
se than for professional architectural/structural design.
  7
mp000096$0$2mm
 73
     1
 44
1.0
1001
ACAD_MLEADERVER
1070
     2
  0
LWPOLYLINE
  5
A97F
330
7098
100
AcDbEntity
  8
defpoints
 62
   253
100
AcDbPolyline
 90
        5
 70
     0
 43
0.0
 10
531.1521450536488
 20
-172.9993298591075
 10
531.1521450536488
 20
205.6618318460798
 10
-530.9433261265999
 20
205.6618318460798
 10
-530.9433261265999
 20
-172.9993298591075
 10
531.1521450536488
 20
-172.9993298591075
  0
MTEXT
  5
A980
330
7098
100
AcDbEntity
  8
defpoints
 62
   253
370
     0
100
AcDbMText
 10
0.0
 20
159.8871316540671
 30
0.0
 40
30.0
 41
1026.407338423251
 46
0.0
 71
     5
 72
     5
  1
DISCLOSURE NOTE:
  7
mp000096$0$2mm
 73
     1
 44
1.0
1001
ACAD_MLEADERVER
1070
     2
  0
LWPOLYLINE
  5
A981
330
7098
100
AcDbEntity
  8
defpoints
 62
   253
100
AcDbPolyline
 90
        4
 70
     1
 43
0.0
 10
536.1521450536488
 20
-177.9993298591076
 10
536.1521450536488
 20
210.6618318460799
 10
-535.9433261265999
 20
210.6618318460798
 10
-535.9433261265999
 20
-177.9993298591077
  0
ENDBLK
  5
709A
330
7098
100
AcDbEntity
  8
0
100
AcDbBlockEnd
  0
BLOCK
  5
90D0
330
90CD
100
AcDbEntity
  8
0
100
AcDbBlockBegin
  2
A$C076F0716
 70
     0
 10
0.0
 20
0.0
 30
0.0
  3
A$C076F0716
  1

  0
LINE
  5
A2B8
330
90CD
100
AcDbEntity
  8
0
100
AcDbLine
 10
-22.85510970550786
 20
-39.7018099021119
 30
-0.0000000000000107
 11
-22.85510970550786
 21
-39.75651655833143
 31
-0.0000000000000089
210
0.0000000000000003
220
0.8164965809277259
230
0.5773502691896259
1001
AcDbBlockRepETag
1070
     1
1071
        0
1005
A2B8
  0
LINE
  5
A2B9
330
90CD
100
AcDbEntity
  8
0
100
AcDbLine
 10
1454.560505554329
 20
768.0182264728927
 30
0.000000000000414
 11
-10.90500881340904
 21
-78.06868273543182
 31
-0.000000000000032
210
0.0000000000000003
220
0.8164965809277259
230
0.5773502691896259
1001
AcDbBlockRepETag
1070
     1
1071
        1
1005
A2B9
  0
LINE
  5
A2BA
330
90CD
100
AcDbEntity
  8
0
100
AcDbLine
 10
1453.499845383612
 20
769.8329933411935
 30
0.0000000000004103
 11
-11.96566898412857
 21
-76.25391586713123
 31
-0.0000000000000284
210
0.0000000000000003
220
0.8164965809277259
230
0.5773502691896259
1001
AcDbBlockRepETag
1070
     1
1071
        2
1005
A2BA
  0
LINE
  5
A2BB
330
90CD
100
AcDbEntity
  8
0
100
AcDbLine
 10
66.16142418943036
 20
-4.692728370316216
 30
0.0000000000000111
 11
-48.16953618087972
 21
-70.70173911682286
 31
-0.0000000000000213
210
0.0000000000000003
220
0.8164965809277259
230
0.5773502691896259
1001
AcDbBlockRepETag
1070
     1
1071
        3
1005
A2BB
  0
LINE
  5
A2BC
330
90CD
100
AcDbEntity
  8
0
100
AcDbLine
 10
66.16142418943036
 20
11.63720324823884
 30
0.0000000000000055
 11
-49.0180643183039
 21
-54.86170544682477
 31
-0.0000000000000142
210
0.0000000000000003
220
0.8164965809277259
230
0.5773502691896259
1001
AcDbBlockRepETag
1070
     1
1071
        4
1005
A2BC
  0
LINE
  5
A2BD
330
90CD
100
AcDbEntity
  8
0
100
AcDbLine
 10
26.68974233159224
 20
-11.15178289775122
 30
0.0000000000000011
 11
26.64236497755064
 21
-11.1244295696415
 31
-0.000000000000002
210
0.0000000000000003
220
0.8164965809277259
230
0.5773502691896259
1001
AcDbBlockRepETag
1070
     1
1071
        5
1005
A2BD
  0
LINE
  5
A2BE
330
90CD
100
AcDbEntity
  8
0
100
AcDbLine
 10
26.64236497755064
 20
-11.1244295696415
 30
-0.000000000000002
 11
54.92663622501186
 21
5.205502048913102
 31
0.000000000000008
210
0.0000000000000003
220
0.8164965809277259
230
0.5773502691896259
1001
AcDbBlockRepETag
1070
     1
1071
        6
1005
A2BE
  0
LINE
  5
A2BF
330
90CD
100
AcDbEntity
  8
0
100
AcDbLine
 10
-49.0180643183039
 20
-57.25648425072757
 30
-0.0000000000000284
 11
-51.13938095296997
 21
-56.0317415206664
 31
-0.0000000000000213
210
0.0000000000000003
220
0.8164965809277259
230
0.5773502691896259
1001
AcDbBlockRepETag
1070
     1
1071
        7
1005
A2BF
  0
LINE
  5
A2C0
330
90CD
100
AcDbEntity
  8
0
100
AcDbLine
 10
-22.85510970550786
 20
-39.7018099021119
 30
-0.0000000000000107
 11
-22.80773235146626
 21
-39.72916323022161
 31
-0.0000000000000089
210
0.0000000000000003
220
0.8164965809277259
230
0.5773502691896259
1001
AcDbBlockRepETag
1070
     1
1071
        8
1005
A2C0
  0
LINE
  5
A2C1
330
90CD
100
AcDbEntity
  8
0
100
AcDbLine
 10
-51.13938095296997
 20
-56.0317415206664
 30
-0.0000000000000213
 11
-22.85510970550786
 21
-39.7018099021119
 31
-0.0000000000000142
210
0.0000000000000003
220
0.8164965809277259
230
0.5773502691896259
1001
AcDbBlockRepETag
1070
     1
1071
        9
1005
A2C1
  0
LINE
  5
A2C2
330
90CD
100
AcDbEntity
  8
0
100
AcDbLine
 10
66.16142418943036
 20
16.46367494005528
 30
-0.0000000000000054
 11
-59.40432414529731
 21
-56.03174366199676
 31
-0.0000000000000249
210
0.0000000000000003
220
0.8164965809277259
230
0.5773502691896259
1001
AcDbBlockRepETag
1070
     1
1071
       10
1005
A2C2
  0
LINE
  5
A2C3
330
90CD
100
AcDbEntity
  8
0
100
AcDbLine
 10
66.16142418943036
 20
16.51397969476238
 30
0.0000000000000066
 11
-59.7307320532791
 21
-56.16989060082858
 31
-0.0000000000000071
210
0.0000000000000003
220
0.8164965809277259
230
0.5773502691896259
1001
AcDbBlockRepETag
1070
     1
1071
       11
1005
A2C3
  0
LINE
  5
A2C4
330
90CD
100
AcDbEntity
  8
0
100
AcDbLine
 10
66.16142418943036
 20
16.9725327399284
 30
0.0000000000000136
 11
-59.84500792690504
 21
-55.77731476206178
 31
-0.0000000000000178
210
0.0000000000000003
220
0.8164965809277259
230
0.5773502691896259
1001
AcDbBlockRepETag
1070
     1
1071
       12
1005
A2C4
  0
LINE
  5
A2C5
330
90CD
100
AcDbEntity
  8
0
100
AcDbLine
 10
66.16142418943036
 20
20.54615784469377
 30
-0.0000000000000011
 11
-62.93985805123066
 21
-53.99050220967751
 31
-0.0000000000000071
210
0.0000000000000003
220
0.8164965809277259
230
0.5773502691896259
1001
AcDbBlockRepETag
1070
     1
1071
       13
1005
A2C5
  0
LINE
  5
A2C6
330
90CD
100
AcDbEntity
  8
0
100
AcDbLine
 10
66.16142418943036
 20
20.59646259940075
 30
0.0000000000000099
 11
-63.26626595921243
 21
-54.12864914850922
 31
-0.0000000000000142
210
0.0000000000000003
220
0.8164965809277259
230
0.5773502691896259
1001
AcDbBlockRepETag
1070
     1
1071
       14
1005
A2C6
  0
LINE
  5
A2C7
330
90CD
100
AcDbEntity
  8
0
100
AcDbLine
 10
66.16142418943036
 20
21.05501564456688
 30
0.000000000000009
 11
-63.38054183283748
 21
-53.73607330974254
 31
-0.0000000000000071
210
0.0000000000000003
220
0.8164965809277259
230
0.5773502691896259
1001
AcDbBlockRepETag
1070
     1
1071
       15
1005
A2C7
  0
LINE
  5
A2C8
330
90CD
100
AcDbEntity
  8
0
100
AcDbLine
 10
66.16142418943036
 20
32.79360655860968
 30
0.0000000000000176
 11
-73.54645976902884
 21
-47.86677785271956
 31
-0.0000000000000107
210
0.0000000000000003
220
0.8164965809277259
230
0.5773502691896259
1001
AcDbBlockRepETag
1070
     1
1071
       16
1005
A2C8
  0
LINE
  5
A2C9
330
90CD
100
AcDbEntity
  8
0
100
AcDbLine
 10
66.16142418943036
 20
32.84391131331665
 30
0.0000000000000097
 11
-73.87286767701062
 21
-48.00492479155138
 31
-0.0000000000000142
210
0.0000000000000003
220
0.8164965809277259
230
0.5773502691896259
1001
AcDbBlockRepETag
1070
     1
1071
       17
1005
A2C9
  0
LINE
  5
A2CA
330
90CD
100
AcDbEntity
  8
0
100
AcDbLine
 10
66.16142418943036
 20
33.30246435848267
 30
0.0000000000000127
 11
-73.98714355063567
 21
-47.61234895278461
 31
-0.0000000000000178
210
0.0000000000000003
220
0.8164965809277259
230
0.5773502691896259
1001
AcDbBlockRepETag
1070
     1
1071
       18
1005
A2CA
  0
LINE
  5
A2CB
330
90CD
100
AcDbEntity
  8
0
100
AcDbLine
 10
66.16142418943036
 20
41.21300126782251
 30
0.0000000000000279
 11
-80.83786947169846
 21
-43.65708049811485
 31
-0.0000000000000178
210
0.0000000000000003
220
0.8164965809277259
230
0.5773502691896259
1001
AcDbBlockRepETag
1070
     1
1071
       19
1005
A2CB
  0
LINE
  5
A2CC
330
90CD
100
AcDbEntity
  8
0
100
AcDbLine
 10
-73.70430083816154
 20
-48.42884553370834
 30
-0.0000000000000142
 11
-73.98714355063656
 21
-48.59214484989388
 31
-0.0000000000000178
210
0.0000000000000003
220
0.8164965809277259
230
0.5773502691896259
1001
AcDbBlockRepETag
1070
     1
1071
       20
1005
A2CC
  0
LINE
  5
A2CD
330
90CD
100
AcDbEntity
  8
0
100
AcDbLine
 10
-63.09769912036336
 20
-54.55256989066628
 30
-0.0000000000000249
 11
-63.38054183283839
 21
-54.71586920685183
 31
-0.0000000000000178
210
0.0000000000000003
220
0.8164965809277259
230
0.5773502691896259
1001
AcDbBlockRepETag
1070
     1
1071
       21
1005
A2CD
  0
LINE
  5
A2CE
330
90CD
100
AcDbEntity
  8
0
100
AcDbLine
 10
-59.56216521443093
 20
-56.59381134298553
 30
-0.0000000000000213
 11
-59.84500792690504
 21
-56.75711065917119
 31
-0.0000000000000178
210
0.0000000000000003
220
0.8164965809277259
230
0.5773502691896259
1001
AcDbBlockRepETag
1070
     1
1071
       22
1005
A2CE
  0
LINE
  5
A2CF
330
90CD
100
AcDbEntity
  8
0
100
AcDbLine
 10
-49.0180643183039
 20
-55.78679468772191
 30
-0.0000000000000213
 11
-50.29085281554308
 21
-56.52163946922474
 31
-0.0000000000000249
210
0.0000000000000003
220
0.8164965809277259
230
0.5773502691896259
1001
AcDbBlockRepETag
1070
     1
1071
       23
1005
A2CF
  0
LINE
  5
A2D0
330
90CD
100
AcDbEntity
  8
0
100
AcDbLine
 10
1455.107225435693
 20
744.4066014235207
 30
0.0000000000004294
 11
-10.3582889320478
 21
-101.680307784805
 31
0.0
210
0.0000000000000003
220
0.8164965809277259
230
0.5773502691896259
1001
AcDbBlockRepETag
1070
     1
1071
       24
1005
A2D0
  0
LINE
  5
A2D1
330
90CD
100
AcDbEntity
  8
0
100
AcDbLine
 10
1455.107225435692
 20
745.4019440640617
 30
0.0000000000004294
 11
-10.3582889320478
 21
-100.6849651442634
 31
0.0
210
0.0000000000000003
220
0.8164965809277259
230
0.5773502691896259
1001
AcDbBlockRepETag
1070
     1
1071
       25
1005
A2D1
  0
LINE
  5
A2D2
330
90CD
100
AcDbEntity
  8
0
100
AcDbLine
 10
-11.26370321519698
 20
-99.01971512672172
 30
-0.0000000000000355
 11
-11.96566898412857
 21
-99.42499525237622
 31
-0.0000000000000355
210
0.0000000000000003
220
0.8164965809277259
230
0.5773502691896259
1001
AcDbBlockRepETag
1070
     1
1071
       26
1005
A2D2
  0
LINE
  5
A2D3
330
90CD
100
AcDbEntity
  8
0
100
AcDbLine
 10
1454.560505554331
 20
746.3844262825199
 30
0.0000000000004174
 11
-10.90500881340904
 21
-99.7024829258046
 31
-0.0000000000000284
210
0.0000000000000003
220
0.8164965809277259
230
0.5773502691896259
1001
AcDbBlockRepETag
1070
     1
1071
       27
1005
A2D3
  0
LINE
  5
A2D4
330
90CD
100
AcDbEntity
  8
0
100
AcDbLine
 10
-45.09225820012761
 20
-73.4582022844944
 30
-0.0000000000000178
 11
-41.52273243772561
 21
-75.51906894429624
 31
-0.0000000000000249
210
0.0000000000000003
220
0.8164965809277259
230
0.5773502691896259
1001
AcDbBlockRepETag
1070
     1
1071
       28
1005
A2D4
  0
LINE
  5
A2D5
330
90CD
100
AcDbEntity
  8
0
100
AcDbLine
 10
-12.81419712155184
 20
-98.75986325438374
 30
-0.0000000000000213
 11
-45.09225820012761
 21
-73.4582022844944
 31
-0.0000000000000178
210
0.0000000000000003
220
0.8164965809277259
230
0.5773502691896259
1001
AcDbBlockRepETag
1070
     1
1071
       29
1005
A2D5
  0
LINE
  5
A2D6
330
90CD
100
AcDbEntity
  8
0
100
AcDbLine
 10
-12.81419712155184
 20
-92.09394953712909
 30
-0.0000000000000284
 11
-12.81419712155184
 21
-98.75986325438374
 31
-0.0000000000000142
210
0.0000000000000003
220
0.8164965809277259
230
0.5773502691896259
1001
AcDbBlockRepETag
1070
     1
1071
       30
1005
A2D6
  0
LINE
  5
A2D7
330
90CD
100
AcDbEntity
  8
0
100
AcDbLine
 10
-19.46098059700671
 20
-88.25642730833044
 30
-0.0000000000000284
 11
-12.81419712155184
 21
-92.09394953712909
 31
-0.0000000000000213
210
0.0000000000000003
220
0.8164965809277259
230
0.5773502691896259
1001
AcDbBlockRepETag
1070
     1
1071
       31
1005
A2D7
  0
ELLIPSE
  5
A2D8
330
90CD
100
AcDbEntity
  8
0
100
AcDbEllipse
 10
-19.46098059700671
 20
-87.76652935977381
 30
-0.0000000000000142
 11
0.3000000000000109
 21
-0.5196152422706831
 31
0.0
210
0.0
220
0.0
230
0.9999999999999998
 40
0.5773502691896258
 41
2.356194490018025
 42
5.497787143782148
1001
AcDbBlockRepETag
1070
     1
1071
       32
1005
A2D8
  0
LINE
  5
A2D9
330
90CD
100
AcDbEntity
  8
0
100
AcDbLine
 10
-12.81419712155184
 20
-91.11415364001606
 30
-0.0000000000000213
 11
-19.46098059693303
 21
-87.27663141125992
 31
-0.0000000000000284
210
0.0000000000000003
220
0.8164965809277259
230
0.5773502691896259
1001
AcDbBlockRepETag
1070
     1
1071
       33
1005
A2D9
  0
LINE
  5
A2DA
330
90CD
100
AcDbEntity
  8
0
100
AcDbLine
 10
-12.81419712155184
 20
-76.7438138156881
 30
-0.0000000000000249
 11
-12.81419712155184
 21
-91.11415364001606
 31
-0.0000000000000213
210
0.0000000000000003
220
0.8164965809277259
230
0.5773502691896259
1001
AcDbBlockRepETag
1070
     1
1071
       34
1005
A2DA
  0
ELLIPSE
  5
A2DB
330
90CD
100
AcDbEntity
  8
0
100
AcDbEllipse
 10
-12.81419712155184
 20
-76.25391586713135
 30
0.0000000000000036
 11
0.3000000000000109
 21
-0.5196152422706831
 31
0.0
210
0.0
220
0.0
230
0.9999999999999998
 40
0.5773502691896258
 41
2.356194490192355
 42
5.497787143782125
1001
AcDbBlockRepETag
1070
     1
1071
       35
1005
A2DB
  0
LINE
  5
A2DC
330
90CD
100
AcDbEntity
  8
0
100
AcDbLine
 10
-11.96566898412857
 20
-76.25391586713123
 30
-0.0000000000000284
 11
-12.81419712155184
 21
-75.76401791857461
 31
-0.0000000000000142
210
0.0000000000000003
220
0.8164965809277259
230
0.5773502691896259
1001
AcDbBlockRepETag
1070
     1
1071
       36
1005
A2DC
  0
LINE
  5
A2DD
330
90CD
100
AcDbEntity
  8
0
100
AcDbLine
 10
-11.96566898412857
 20
-78.86288381682459
 30
-0.0000000000000355
 11
-11.96566898412857
 21
-76.25391586713123
 31
-0.0000000000000426
210
0.0000000000000003
220
0.8164965809277259
230
0.5773502691896259
1001
AcDbBlockRepETag
1070
     1
1071
       37
1005
A2DD
  0
LINE
  5
A2DE
330
90CD
100
AcDbEntity
  8
0
100
AcDbLine
 10
-10.90500881340904
 20
-78.06868273543194
 30
-0.000000000000032
 11
-11.96566898412857
 21
-78.86288381682459
 31
-0.0000000000000426
210
0.0000000000000003
220
0.8164965809277259
230
0.5773502691896259
1001
AcDbBlockRepETag
1070
     1
1071
       38
1005
A2DE
  0
LINE
  5
A2DF
330
90CD
100
AcDbEntity
  8
0
100
AcDbLine
 10
-10.90500881340904
 20
-78.76758309875286
 30
-0.0000000000000426
 11
-10.90500881340904
 21
-78.06868273543182
 31
-0.000000000000032
210
0.0000000000000003
220
0.8164965809277259
230
0.5773502691896259
1001
AcDbBlockRepETag
1070
     1
1071
       39
1005
A2DF
  0
LINE
  5
A2E0
330
90CD
100
AcDbEntity
  8
0
100
AcDbLine
 10
-11.70745936342882
 20
-79.36088037187767
 30
-0.0000000000000284
 11
-10.90500881340904
 21
-78.76758309875286
 31
-0.0000000000000355
210
0.0000000000000003
220
0.8164965809277259
230
0.5773502691896259
1001
AcDbBlockRepETag
1070
     1
1071
       40
1005
A2E0
  0
LINE
  5
A2E1
330
90CD
100
AcDbEntity
  8
0
100
AcDbLine
 10
-10.90500881340904
 20
-80.88076772713248
 30
-0.0000000000000213
 11
-11.70745936342882
 21
-79.36088037187767
 31
-0.0000000000000213
210
0.0000000000000003
220
0.8164965809277259
230
0.5773502691896259
1001
AcDbBlockRepETag
1070
     1
1071
       41
1005
A2E1
  0
LINE
  5
A2E2
330
90CD
100
AcDbEntity
  8
0
100
AcDbLine
 10
-10.90500881340904
 20
-81.57966809045353
 30
-0.0000000000000213
 11
-10.90500881340904
 21
-80.88076772713248
 31
-0.0000000000000213
210
0.0000000000000003
220
0.8164965809277259
230
0.5773502691896259
1001
AcDbBlockRepETag
1070
     1
1071
       42
1005
A2E2
  0
LINE
  5
A2E3
330
90CD
100
AcDbEntity
  8
0
100
AcDbLine
 10
-11.96566898412857
 20
-79.56072213889398
 30
-0.0000000000000284
 11
-10.90500881340904
 21
-81.57966809045353
 31
-0.0000000000000213
210
0.0000000000000003
220
0.8164965809277259
230
0.5773502691896259
1001
AcDbBlockRepETag
1070
     1
1071
       43
1005
A2E3
  0
LINE
  5
A2E4
330
90CD
100
AcDbEntity
  8
0
100
AcDbLine
 10
-11.96566898412857
 20
-82.48744678389483
 30
-0.0000000000000213
 11
-11.96566898412857
 21
-79.56072213889398
 31
-0.0000000000000355
210
0.0000000000000003
220
0.8164965809277259
230
0.5773502691896259
1001
AcDbBlockRepETag
1070
     1
1071
       44
1005
A2E4
  0
LINE
  5
A2E5
330
90CD
100
AcDbEntity
  8
0
100
AcDbLine
 10
-10.90500881340904
 20
-81.69324570250195
 30
-0.0000000000000284
 11
-11.96566898412857
 21
-82.48744678389469
 31
-0.0000000000000142
210
0.0000000000000003
220
0.8164965809277259
230
0.5773502691896259
1001
AcDbBlockRepETag
1070
     1
1071
       45
1005
A2E5
  0
LINE
  5
A2E6
330
90CD
100
AcDbEntity
  8
0
100
AcDbLine
 10
-10.90500881340904
 20
-82.39214606582299
 30
-0.0000000000000213
 11
-10.90500881340904
 21
-81.69324570250205
 31
-0.0000000000000213
210
0.0000000000000003
220
0.8164965809277259
230
0.5773502691896259
1001
AcDbBlockRepETag
1070
     1
1071
       46
1005
A2E6
  0
LINE
  5
A2E7
330
90CD
100
AcDbEntity
  8
0
100
AcDbLine
 10
-11.70745936342882
 20
-82.98544333894779
 30
-0.0000000000000355
 11
-10.90500881340904
 21
-82.39214606582299
 31
-0.0000000000000284
210
0.0000000000000003
220
0.8164965809277259
230
0.5773502691896259
1001
AcDbBlockRepETag
1070
     1
1071
       47
1005
A2E7
  0
LINE
  5
A2E8
330
90CD
100
AcDbEntity
  8
0
100
AcDbLine
 10
-10.90500881340904
 20
-84.50533069420272
 30
-0.0000000000000213
 11
-11.70745936342882
 21
-82.9854433389479
 31
-0.0000000000000213
210
0.0000000000000003
220
0.8164965809277259
230
0.5773502691896259
1001
AcDbBlockRepETag
1070
     1
1071
       48
1005
A2E8
  0
LINE
  5
A2E9
330
90CD
100
AcDbEntity
  8
0
100
AcDbLine
 10
-10.90500881340904
 20
-85.20423105752366
 30
-0.0000000000000142
 11
-10.90500881340904
 21
-84.50533069420272
 31
-0.0000000000000213
210
0.0000000000000003
220
0.8164965809277259
230
0.5773502691896259
1001
AcDbBlockRepETag
1070
     1
1071
       49
1005
A2E9
  0
LINE
  5
A2EA
330
90CD
100
AcDbEntity
  8
0
100
AcDbLine
 10
-11.96566898412857
 20
-83.18528510596422
 30
-0.0000000000000213
 11
-10.90500881340904
 21
-85.20423105752366
 31
-0.0000000000000284
210
0.0000000000000003
220
0.8164965809277259
230
0.5773502691896259
1001
AcDbBlockRepETag
1070
     1
1071
       50
1005
A2EA
  0
LINE
  5
A2EB
330
90CD
100
AcDbEntity
  8
0
100
AcDbLine
 10
-11.96566898412766
 20
-86.11200975096494
 30
-0.0000000000000213
 11
-11.96566898412857
 21
-83.18528510596422
 31
-0.0000000000000284
210
0.0000000000000003
220
0.8164965809277259
230
0.5773502691896259
1001
AcDbBlockRepETag
1070
     1
1071
       51
1005
A2EB
  0
LINE
  5
A2EC
330
90CD
100
AcDbEntity
  8
0
100
AcDbLine
 10
-10.90500881340904
 20
-85.31780866957239
 30
-0.0000000000000071
 11
-11.96566898412857
 21
-86.11200975096483
 31
-0.0000000000000142
210
0.0000000000000003
220
0.8164965809277259
230
0.5773502691896259
1001
AcDbBlockRepETag
1070
     1
1071
       52
1005
A2EC
  0
LINE
  5
A2ED
330
90CD
100
AcDbEntity
  8
0
100
AcDbLine
 10
-10.90500881340904
 20
-86.01670903289322
 30
-0.0000000000000213
 11
-10.90500881340904
 21
-85.31780866957218
 31
-0.0000000000000213
210
0.0000000000000003
220
0.8164965809277259
230
0.5773502691896259
1001
AcDbBlockRepETag
1070
     1
1071
       53
1005
A2ED
  0
LINE
  5
A2EE
330
90CD
100
AcDbEntity
  8
0
100
AcDbLine
 10
-11.70745936342882
 20
-86.61000630601803
 30
-0.0000000000000213
 11
-10.90500881340904
 21
-86.01670903289322
 31
-0.0000000000000213
210
0.0000000000000003
220
0.8164965809277259
230
0.5773502691896259
1001
AcDbBlockRepETag
1070
     1
1071
       54
1005
A2EE
  0
LINE
  5
A2EF
330
90CD
100
AcDbEntity
  8
0
100
AcDbLine
 10
-10.90500881340904
 20
-88.12989366127283
 30
-0.0000000000000284
 11
-11.70745936342882
 21
-86.61000630601803
 31
-0.0000000000000284
210
0.0000000000000003
220
0.8164965809277259
230
0.5773502691896259
1001
AcDbBlockRepETag
1070
     1
1071
       55
1005
A2EF
  0
LINE
  5
A2F0
330
90CD
100
AcDbEntity
  8
0
100
AcDbLine
 10
-10.90500881340904
 20
-88.82879402459389
 30
-0.0000000000000284
 11
-10.90500881340904
 21
-88.12989366127283
 31
-0.0000000000000213
210
0.0000000000000003
220
0.8164965809277259
230
0.5773502691896259
1001
AcDbBlockRepETag
1070
     1
1071
       56
1005
A2F0
  0
LINE
  5
A2F1
330
90CD
100
AcDbEntity
  8
0
100
AcDbLine
 10
-11.96566898412857
 20
-86.80984807303445
 30
-0.0000000000000284
 11
-10.90500881340904
 21
-88.82879402459389
 31
-0.0000000000000355
210
0.0000000000000003
220
0.8164965809277259
230
0.5773502691896259
1001
AcDbBlockRepETag
1070
     1
1071
       57
1005
A2F1
  0
LINE
  5
A2F2
330
90CD
100
AcDbEntity
  8
0
100
AcDbLine
 10
-11.96566898412857
 20
-89.73657271803507
 30
-0.0000000000000213
 11
-11.96566898412857
 21
-86.80984807303445
 31
-0.0000000000000284
210
0.0000000000000003
220
0.8164965809277259
230
0.5773502691896259
1001
AcDbBlockRepETag
1070
     1
1071
       58
1005
A2F2
  0
LINE
  5
A2F3
330
90CD
100
AcDbEntity
  8
0
100
AcDbLine
 10
-10.90500881340904
 20
-88.94237163664252
 30
-0.0000000000000284
 11
-11.96566898412857
 21
-89.73657271803515
 31
-0.0000000000000284
210
0.0000000000000003
220
0.8164965809277259
230
0.5773502691896259
1001
AcDbBlockRepETag
1070
     1
1071
       59
1005
A2F3
  0
LINE
  5
A2F4
330
90CD
100
AcDbEntity
  8
0
100
AcDbLine
 10
-10.90500881340904
 20
-89.64127199996356
 30
-0.0000000000000284
 11
-10.90500881340904
 21
-88.94237163664262
 31
-0.0000000000000213
210
0.0000000000000003
220
0.8164965809277259
230
0.5773502691896259
1001
AcDbBlockRepETag
1070
     1
1071
       60
1005
A2F4
  0
LINE
  5
A2F5
330
90CD
100
AcDbEntity
  8
0
100
AcDbLine
 10
-11.70745936342882
 20
-90.23456927308835
 30
-0.0000000000000213
 11
-10.90500881340904
 21
-89.64127199996356
 31
-0.0000000000000355
210
0.0000000000000003
220
0.8164965809277259
230
0.5773502691896259
1001
AcDbBlockRepETag
1070
     1
1071
       61
1005
A2F5
  0
LINE
  5
A2F6
330
90CD
100
AcDbEntity
  8
0
100
AcDbLine
 10
-10.90500881340904
 20
-91.75445662834318
 30
-0.0000000000000355
 11
-11.70745936342882
 21
-90.23456927308835
 31
-0.0000000000000213
210
0.0000000000000003
220
0.8164965809277259
230
0.5773502691896259
1001
AcDbBlockRepETag
1070
     1
1071
       62
1005
A2F6
  0
LINE
  5
A2F7
330
90CD
100
AcDbEntity
  8
0
100
AcDbLine
 10
-10.90500881340904
 20
-92.45335699166423
 30
-0.0000000000000213
 11
-10.90500881340904
 21
-91.75445662834327
 31
-0.0000000000000213
210
0.0000000000000003
220
0.8164965809277259
230
0.5773502691896259
1001
AcDbBlockRepETag
1070
     1
1071
       63
1005
A2F7
  0
LINE
  5
A2F8
330
90CD
100
AcDbEntity
  8
0
100
AcDbLine
 10
-11.96566898412857
 20
-90.43441104010469
 30
-0.0000000000000284
 11
-10.90500881340904
 21
-92.45335699166423
 31
-0.0000000000000213
210
0.0000000000000003
220
0.8164965809277259
230
0.5773502691896259
1001
AcDbBlockRepETag
1070
     1
1071
       64
1005
A2F8
  0
LINE
  5
A2F9
330
90CD
100
AcDbEntity
  8
0
100
AcDbLine
 10
-11.96566898412857
 20
-93.36113568510532
 30
-0.0000000000000071
 11
-11.96566898412857
 21
-90.43441104010469
 31
-0.0000000000000284
210
0.0000000000000003
220
0.8164965809277259
230
0.5773502691896259
1001
AcDbBlockRepETag
1070
     1
1071
       65
1005
A2F9
  0
LINE
  5
A2FA
330
90CD
100
AcDbEntity
  8
0
100
AcDbLine
 10
-10.90500881340904
 20
-92.56693460371277
 30
-0.0000000000000142
 11
-11.96566898412857
 21
-93.36113568510532
 31
-0.0000000000000071
210
0.0000000000000003
220
0.8164965809277259
230
0.5773502691896259
1001
AcDbBlockRepETag
1070
     1
1071
       66
1005
A2FA
  0
LINE
  5
A2FB
330
90CD
100
AcDbEntity
  8
0
100
AcDbLine
 10
-10.90500881340904
 20
-93.26583496703369
 30
-0.0000000000000213
 11
-10.90500881340904
 21
-92.56693460371277
 31
-0.0000000000000213
210
0.0000000000000003
220
0.8164965809277259
230
0.5773502691896259
1001
AcDbBlockRepETag
1070
     1
1071
       67
1005
A2FB
  0
LINE
  5
A2FC
330
90CD
100
AcDbEntity
  8
0
100
AcDbLine
 10
-11.70745936342882
 20
-93.8591322401586
 30
-0.0000000000000213
 11
-10.90500881340904
 21
-93.26583496703381
 31
-0.0000000000000284
210
0.0000000000000003
220
0.8164965809277259
230
0.5773502691896259
1001
AcDbBlockRepETag
1070
     1
1071
       68
1005
A2FC
  0
LINE
  5
A2FD
330
90CD
100
AcDbEntity
  8
0
100
AcDbLine
 10
-10.90500881340904
 20
-95.37901959541342
 30
-0.0000000000000142
 11
-11.70745936342882
 21
-93.8591322401586
 31
-0.0000000000000142
210
0.0000000000000003
220
0.8164965809277259
230
0.5773502691896259
1001
AcDbBlockRepETag
1070
     1
1071
       69
1005
A2FD
  0
LINE
  5
A2FE
330
90CD
100
AcDbEntity
  8
0
100
AcDbLine
 10
-10.90500881340904
 20
-96.0779199587345
 30
-0.0000000000000284
 11
-10.90500881340904
 21
-95.37901959541342
 31
-0.0000000000000142
210
0.0000000000000003
220
0.8164965809277259
230
0.5773502691896259
1001
AcDbBlockRepETag
1070
     1
1071
       70
1005
A2FE
  0
LINE
  5
A2FF
330
90CD
100
AcDbEntity
  8
0
100
AcDbLine
 10
-11.96566898412857
 20
-94.05897400717492
 30
-0.0000000000000284
 11
-10.90500881340904
 21
-96.0779199587345
 31
-0.0000000000000355
210
0.0000000000000003
220
0.8164965809277259
230
0.5773502691896259
1001
AcDbBlockRepETag
1070
     1
1071
       71
1005
A2FF
  0
LINE
  5
A300
330
90CD
100
AcDbEntity
  8
0
100
AcDbLine
 10
-11.96566898412857
 20
-96.98569865217553
 30
-0.0000000000000355
 11
-11.96566898412857
 21
-94.05897400717492
 31
-0.0000000000000142
210
0.0000000000000003
220
0.8164965809277259
230
0.5773502691896259
1001
AcDbBlockRepETag
1070
     1
1071
       72
1005
A300
  0
LINE
  5
A301
330
90CD
100
AcDbEntity
  8
0
100
AcDbLine
 10
-10.90500881340904
 20
-96.19149757078311
 30
0.0
 11
-11.96566898412857
 21
-96.98569865217553
 31
-0.0000000000000071
210
0.0000000000000003
220
0.8164965809277259
230
0.5773502691896259
1001
AcDbBlockRepETag
1070
     1
1071
       73
1005
A301
  0
LINE
  5
A302
330
90CD
100
AcDbEntity
  8
0
100
AcDbLine
 10
-10.90500881340904
 20
-96.89039793410394
 30
-0.0000000000000284
 11
-10.90500881340904
 21
-96.19149757078288
 31
-0.0000000000000142
210
0.0000000000000003
220
0.8164965809277259
230
0.5773502691896259
1001
AcDbBlockRepETag
1070
     1
1071
       74
1005
A302
  0
LINE
  5
A303
330
90CD
100
AcDbEntity
  8
0
100
AcDbLine
 10
-11.70745936342882
 20
-97.48369520722873
 30
-0.0000000000000142
 11
-10.90500881340904
 21
-96.89039793410394
 31
-0.0000000000000355
210
0.0000000000000003
220
0.8164965809277259
230
0.5773502691896259
1001
AcDbBlockRepETag
1070
     1
1071
       75
1005
A303
  0
LINE
  5
A304
330
90CD
100
AcDbEntity
  8
0
100
AcDbLine
 10
-10.90500881340904
 20
-99.00358256248352
 30
-0.0000000000000355
 11
-11.70745936342882
 21
-97.48369520722873
 31
-0.0000000000000213
210
0.0000000000000003
220
0.8164965809277259
230
0.5773502691896259
1001
AcDbBlockRepETag
1070
     1
1071
       76
1005
A304
  0
LINE
  5
A305
330
90CD
100
AcDbEntity
  8
0
100
AcDbLine
 10
-10.90500881340904
 20
-99.7024829258046
 30
-0.0000000000000213
 11
-10.90500881340904
 21
-99.00358256248352
 31
-0.0000000000000284
210
0.0000000000000003
220
0.8164965809277259
230
0.5773502691896259
1001
AcDbBlockRepETag
1070
     1
1071
       77
1005
A305
  0
LINE
  5
A306
330
90CD
100
AcDbEntity
  8
0
100
AcDbLine
 10
-11.96566898412857
 20
-97.68353697424515
 30
-0.0000000000000355
 11
-10.90500881340904
 21
-99.7024829258046
 31
-0.0000000000000284
210
0.0000000000000003
220
0.8164965809277259
230
0.5773502691896259
1001
AcDbBlockRepETag
1070
     1
1071
       78
1005
A306
  0
LINE
  5
A307
330
90CD
100
AcDbEntity
  8
0
100
AcDbLine
 10
-11.96566898412857
 20
-99.42499525237613
 30
-0.0000000000000142
 11
-11.96566898412857
 21
-97.68353697424515
 31
-0.0000000000000284
210
0.0000000000000003
220
0.8164965809277259
230
0.5773502691896259
1001
AcDbBlockRepETag
1070
     1
1071
       79
1005
A307
  0
LINE
  5
A308
330
90CD
100
AcDbEntity
  8
0
100
AcDbLine
 10
-10.3582889320478
 20
-100.6849651442635
 30
-0.0000000000000284
 11
-11.96566898412857
 21
-99.42499525237622
 31
-0.0000000000000355
210
0.0000000000000003
220
0.8164965809277259
230
0.5773502691896259
1001
AcDbBlockRepETag
1070
     1
1071
       80
1005
A308
  0
LINE
  5
A309
330
90CD
100
AcDbEntity
  8
0
100
AcDbLine
 10
-10.3582889320478
 20
-101.680307784805
 30
-0.0000000000000142
 11
-10.3582889320478
 21
-100.6849651442634
 31
-0.0000000000000142
210
0.0000000000000003
220
0.8164965809277259
230
0.5773502691896259
1001
AcDbBlockRepETag
1070
     1
1071
       81
1005
A309
  0
LINE
  5
A30A
330
90CD
100
AcDbEntity
  8
0
100
AcDbLine
 10
-49.018064318303
 20
-71.37624064725503
 30
-0.0000000000000213
 11
-10.3582889320478
 21
-101.680307784805
 31
0.0
210
0.0000000000000003
220
0.8164965809277259
230
0.5773502691896259
1001
AcDbBlockRepETag
1070
     1
1071
       82
1005
A30A
  0
LINE
  5
A30B
330
90CD
100
AcDbEntity
  8
0
100
AcDbLine
 10
-49.018064318303
 20
-63.00804946610207
 30
-0.0000000000000071
 11
-49.018064318303
 21
-71.37624064725503
 31
-0.0000000000000036
210
0.0000000000000003
220
0.8164965809277259
230
0.5773502691896259
1001
AcDbBlockRepETag
1070
     1
1071
       83
1005
A30B
  0
LINE
  5
A30C
330
90CD
100
AcDbEntity
  8
0
100
AcDbLine
 10
-59.40432414529642
 20
-57.01153955911445
 30
-0.0000000000000036
 11
-49.018064318303
 21
-63.00804946610207
 31
-0.0000000000000071
210
0.0000000000000003
220
0.8164965809277259
230
0.5773502691896259
1001
AcDbBlockRepETag
1070
     1
1071
       84
1005
A30C
  0
LINE
  5
A30D
330
90CD
100
AcDbEntity
  8
0
100
AcDbLine
 10
-59.51860001892328
 20
-56.6189637203389
 30
-0.0000000000000178
 11
-59.40432414529642
 21
-57.01153955911445
 31
-0.0000000000000036
210
0.0000000000000003
220
0.8164965809277259
230
0.5773502691896259
1001
AcDbBlockRepETag
1070
     1
1071
       85
1005
A30D
  0
LINE
  5
A30E
330
90CD
100
AcDbEntity
  8
0
100
AcDbLine
 10
-59.73073205328001
 20
-56.49648923319977
 30
-0.0000000000000107
 11
-59.51860001892328
 21
-56.6189637203389
 31
-0.0000000000000036
210
0.0000000000000003
220
0.8164965809277259
230
0.5773502691896259
1001
AcDbBlockRepETag
1070
     1
1071
       86
1005
A30E
  0
LINE
  5
A30F
330
90CD
100
AcDbEntity
  8
0
100
AcDbLine
 10
-59.84500792690504
 20
-56.75711065917119
 30
-0.0000000000000142
 11
-59.7307320532791
 21
-56.49648923319977
 31
-0.0000000000000071
210
0.0000000000000003
220
0.8164965809277259
230
0.5773502691896259
1001
AcDbBlockRepETag
1070
     1
1071
       87
1005
A30F
  0
LINE
  5
A310
330
90CD
100
AcDbEntity
  8
0
100
AcDbLine
 10
-62.93985805122884
 20
-54.97029810679146
 30
-0.0000000000000142
 11
-59.84500792690504
 21
-56.75711065917119
 31
-0.0000000000000178
210
0.0000000000000003
220
0.8164965809277259
230
0.5773502691896259
1001
AcDbBlockRepETag
1070
     1
1071
       88
1005
A310
  0
LINE
  5
A311
330
90CD
100
AcDbEntity
  8
0
100
AcDbLine
 10
-63.05413392485661
 20
-54.57772226801957
 30
-0.0000000000000178
 11
-62.93985805122884
 21
-54.97029810679499
 31
-0.0000000000000142
210
0.0000000000000003
220
0.8164965809277259
230
0.5773502691896259
1001
AcDbBlockRepETag
1070
     1
1071
       89
1005
A311
  0
LINE
  5
A312
330
90CD
100
AcDbEntity
  8
0
100
AcDbLine
 10
-63.26626595921243
 20
-54.45524778088042
 30
-0.0000000000000071
 11
-63.05413392485661
 21
-54.57772226801957
 31
-0.0000000000000107
210
0.0000000000000003
220
0.8164965809277259
230
0.5773502691896259
1001
AcDbBlockRepETag
1070
     1
1071
       90
1005
A312
  0
LINE
  5
A313
330
90CD
100
AcDbEntity
  8
0
100
AcDbLine
 10
-63.38054183283839
 20
-54.71586920685183
 30
-0.0000000000000036
 11
-63.26626595921243
 21
-54.45524778088042
 31
-0.0000000000000071
210
0.0000000000000003
220
0.8164965809277259
230
0.5773502691896259
1001
AcDbBlockRepETag
1070
     1
1071
       91
1005
A313
  0
LINE
  5
A314
330
90CD
100
AcDbEntity
  8
0
100
AcDbLine
 10
-73.54645976902701
 20
-48.84657374983373
 30
-0.0000000000000107
 11
-63.38054183283839
 21
-54.71586920685183
 31
-0.0000000000000071
210
0.0000000000000003
220
0.8164965809277259
230
0.5773502691896259
1001
AcDbBlockRepETag
1070
     1
1071
       92
1005
A314
  0
LINE
  5
A315
330
90CD
100
AcDbEntity
  8
0
100
AcDbLine
 10
-73.66073564265389
 20
-48.45399791106172
 30
-0.0000000000000142
 11
-73.54645976902701
 21
-48.84657374983738
 31
-0.0000000000000071
210
0.0000000000000003
220
0.8164965809277259
230
0.5773502691896259
1001
AcDbBlockRepETag
1070
     1
1071
       93
1005
A315
  0
LINE
  5
A316
330
90CD
100
AcDbEntity
  8
0
100
AcDbLine
 10
-73.87286767701062
 20
-48.33152342392247
 30
-0.0000000000000071
 11
-73.6607356426548
 21
-48.4539979110616
 31
-0.0000000000000142
210
0.0000000000000003
220
0.8164965809277259
230
0.5773502691896259
1001
AcDbBlockRepETag
1070
     1
1071
       94
1005
A316
  0
LINE
  5
A317
330
90CD
100
AcDbEntity
  8
0
100
AcDbLine
 10
-73.98714355063656
 20
-48.59214484989388
 30
-0.0000000000000178
 11
-73.87286767701062
 21
-48.33152342392247
 31
-0.0000000000000071
210
0.0000000000000003
220
0.8164965809277259
230
0.5773502691896259
1001
AcDbBlockRepETag
1070
     1
1071
       95
1005
A317
  0
LINE
  5
A318
330
90CD
100
AcDbEntity
  8
0
100
AcDbLine
 10
-80.83786947169846
 20
-44.63687639522446
 30
-0.0000000000000142
 11
-73.98714355063656
 21
-48.59214484989388
 31
-0.0000000000000178
210
0.0000000000000003
220
0.8164965809277259
230
0.5773502691896259
1001
AcDbBlockRepETag
1070
     1
1071
       96
1005
A318
  0
LINE
  5
A319
330
90CD
100
AcDbEntity
  8
0
100
AcDbLine
 10
-80.83786947169846
 20
-43.65708049811485
 30
-0.0000000000000178
 11
-80.83786947169846
 21
-44.63687639522833
 31
-0.0000000000000071
210
0.0000000000000003
220
0.8164965809277259
230
0.5773502691896259
1001
AcDbBlockRepETag
1070
     1
1071
       97
1005
A319
  0
LINE
  5
A31A
330
90CD
100
AcDbEntity
  8
0
100
AcDbLine
 10
-73.98714355063567
 20
-47.61234895278461
 30
-0.0000000000000142
 11
-80.83786947169846
 21
-43.65708049811485
 31
-0.0000000000000178
210
0.0000000000000003
220
0.8164965809277259
230
0.5773502691896259
1001
AcDbBlockRepETag
1070
     1
1071
       98
1005
A31A
  0
LINE
  5
A31B
330
90CD
100
AcDbEntity
  8
0
100
AcDbLine
 10
-73.87286767701062
 20
-48.00492479155138
 30
-0.0000000000000142
 11
-73.98714355063567
 21
-47.61234895278461
 31
-0.0000000000000142
210
0.0000000000000003
220
0.8164965809277259
230
0.5773502691896259
1001
AcDbBlockRepETag
1070
     1
1071
       99
1005
A31B
  0
LINE
  5
A31C
330
90CD
100
AcDbEntity
  8
0
100
AcDbLine
 10
-73.6607356426548
 20
-48.12739927869063
 30
-0.0000000000000142
 11
-73.87286767701062
 21
-48.00492479155138
 31
-0.0000000000000142
210
0.0000000000000003
220
0.8164965809277259
230
0.5773502691896259
1001
AcDbBlockRepETag
1070
     1
1071
      100
1005
A31C
  0
LINE
  5
A31D
330
90CD
100
AcDbEntity
  8
0
100
AcDbLine
 10
-73.54645976902884
 20
-47.86677785271956
 30
-0.0000000000000107
 11
-73.6607356426548
 21
-48.12739927869063
 31
-0.0000000000000142
210
0.0000000000000003
220
0.8164965809277259
230
0.5773502691896259
1001
AcDbBlockRepETag
1070
     1
1071
      101
1005
A31D
  0
LINE
  5
A31E
330
90CD
100
AcDbEntity
  8
0
100
AcDbLine
 10
-63.38054183283748
 20
-53.73607330973925
 30
-0.0000000000000107
 11
-73.54645976902884
 21
-47.86677785271956
 31
-0.0000000000000107
210
0.0000000000000003
220
0.8164965809277259
230
0.5773502691896259
1001
AcDbBlockRepETag
1070
     1
1071
      102
1005
A31E
  0
LINE
  5
A31F
330
90CD
100
AcDbEntity
  8
0
100
AcDbLine
 10
-63.26626595921243
 20
-54.12864914850922
 30
-0.0000000000000107
 11
-63.38054183283748
 21
-53.73607330974254
 31
-0.0000000000000071
210
0.0000000000000003
220
0.8164965809277259
230
0.5773502691896259
1001
AcDbBlockRepETag
1070
     1
1071
      103
1005
A31F
  0
LINE
  5
A320
330
90CD
100
AcDbEntity
  8
0
100
AcDbLine
 10
-63.05413392485661
 20
-54.25112363564847
 30
-0.0000000000000142
 11
-63.26626595921243
 21
-54.12864914850922
 31
-0.0000000000000178
210
0.0000000000000003
220
0.8164965809277259
230
0.5773502691896259
1001
AcDbBlockRepETag
1070
     1
1071
      104
1005
A320
  0
LINE
  5
A321
330
90CD
100
AcDbEntity
  8
0
100
AcDbLine
 10
-62.93985805123066
 20
-53.99050220967751
 30
-0.0000000000000071
 11
-63.05413392485661
 21
-54.25112363564847
 31
-0.0000000000000142
210
0.0000000000000003
220
0.8164965809277259
230
0.5773502691896259
1001
AcDbBlockRepETag
1070
     1
1071
      105
1005
A321
  0
LINE
  5
A322
330
90CD
100
AcDbEntity
  8
0
100
AcDbLine
 10
-59.84500792690504
 20
-55.77731476205849
 30
-0.0000000000000178
 11
-62.93985805123066
 21
-53.99050220967751
 31
-0.0000000000000107
210
0.0000000000000003
220
0.8164965809277259
230
0.5773502691896259
1001
AcDbBlockRepETag
1070
     1
1071
      106
1005
A322
  0
LINE
  5
A323
330
90CD
100
AcDbEntity
  8
0
100
AcDbLine
 10
-59.73073205328001
 20
-56.16989060082858
 30
-0.0000000000000249
 11
-59.84500792690504
 21
-55.77731476206178
 31
-0.0000000000000213
210
0.0000000000000003
220
0.8164965809277259
230
0.5773502691896259
1001
AcDbBlockRepETag
1070
     1
1071
      107
1005
A323
  0
LINE
  5
A324
330
90CD
100
AcDbEntity
  8
0
100
AcDbLine
 10
-59.51860001892328
 20
-56.29236508796783
 30
-0.0000000000000213
 11
-59.73073205328001
 21
-56.16989060082858
 31
-0.0000000000000107
210
0.0000000000000003
220
0.8164965809277259
230
0.5773502691896259
1001
AcDbBlockRepETag
1070
     1
1071
      108
1005
A324
  0
LINE
  5
A325
330
90CD
100
AcDbEntity
  8
0
100
AcDbLine
 10
-59.40432414529731
 20
-56.03174366199676
 30
-0.0000000000000249
 11
-59.51860001892328
 21
-56.29236508796783
 31
-0.0000000000000178
210
0.0000000000000003
220
0.8164965809277259
230
0.5773502691896259
1001
AcDbBlockRepETag
1070
     1
1071
      109
1005
A325
  0
LINE
  5
A326
330
90CD
100
AcDbEntity
  8
0
100
AcDbLine
 10
-49.0180643183039
 20
-62.02825356898539
 30
-0.0000000000000071
 11
-59.40432414529731
 21
-56.03174366199676
 31
-0.0000000000000178
210
0.0000000000000003
220
0.8164965809277259
230
0.5773502691896259
1001
AcDbBlockRepETag
1070
     1
1071
      110
1005
A326
  0
LINE
  5
A327
330
90CD
100
AcDbEntity
  8
0
100
AcDbLine
 10
-49.0180643183039
 20
-54.86170544682477
 30
-0.0000000000000142
 11
-49.0180643183039
 21
-62.0282535689887
 31
-0.0000000000000142
210
0.0000000000000003
220
0.8164965809277259
230
0.5773502691896259
1001
AcDbBlockRepETag
1070
     1
1071
      111
1005
A327
  0
LINE
  5
A328
330
90CD
100
AcDbEntity
  8
0
100
AcDbLine
 10
-48.16953618087972
 20
-55.35160339538141
 30
-0.0000000000000142
 11
-49.0180643183039
 21
-54.86170544682477
 31
-0.0000000000000142
210
0.0000000000000003
220
0.8164965809277259
230
0.5773502691896259
1001
AcDbBlockRepETag
1070
     1
1071
      112
1005
A328
  0
ELLIPSE
  5
A329
330
90CD
100
AcDbEntity
  8
0
100
AcDbEllipse
 10
-48.16953618087972
 20
-55.84150134393815
 30
-0.0000000000000142
 11
0.3000000000000109
 21
-0.5196152422706831
 31
0.0
210
0.0
220
0.0
230
0.9999999999999998
 40
0.5773502691896258
 41
5.497787143782125
 42
8.639379797371942
1001
AcDbBlockRepETag
1070
     1
1071
      113
1005
A329
  0
LINE
  5
A32A
330
90CD
100
AcDbEntity
  8
0
100
AcDbLine
 10
-48.16953618087972
 20
-70.70173911682286
 30
-0.0000000000000213
 11
-48.16953618087972
 21
-56.33139929249488
 31
-0.0000000000000178
210
0.0000000000000003
220
0.8164965809277259
230
0.5773502691896259
1001
AcDbBlockRepETag
1070
     1
1071
      114
1005
A32A
  0
LINE
  5
A32B
330
90CD
100
AcDbEntity
  8
0
100
AcDbLine
 10
-41.52273243780018
 20
-74.53927304714046
 30
-0.0000000000000142
 11
-48.16953618087972
 21
-70.70173911682286
 31
-0.0000000000000213
210
0.0000000000000003
220
0.8164965809277259
230
0.5773502691896259
1001
AcDbBlockRepETag
1070
     1
1071
      115
1005
A32B
  0
ELLIPSE
  5
A32C
330
90CD
100
AcDbEntity
  8
0
100
AcDbEllipse
 10
-41.52273243772561
 20
-75.02917099573972
 30
-0.0000000000000036
 11
0.3000000000000109
 21
-0.5196152422706831
 31
0.0
210
0.0
220
0.0
230
0.9999999999999998
 40
0.5773502691896258
 41
5.497787143782148
 42
8.63937979754624
1001
AcDbBlockRepETag
1070
     1
1071
      116
1005
A32C
  0
LINE
  5
A32D
330
90CD
100
AcDbEntity
  8
0
100
AcDbLine
 10
1452.351317246188
 20
770.3526085834651
 30
0.000000000000414
 11
-13.11419712155202
 21
-75.73430062486067
 31
-0.000000000000032
210
0.0000000000000003
220
0.8164965809277259
230
0.5773502691896259
1001
AcDbBlockRepETag
1070
     1
1071
      117
1005
A32D
  0
LINE
  5
A32E
330
90CD
100
AcDbEntity
  8
0
100
AcDbLine
 10
-12.81419712155184
 20
-83.23618680794755
 30
-0.0000000000000213
 11
-19.76098059700689
 21
-87.24691411750312
 31
-0.0000000000000142
210
0.0000000000000003
220
0.8164965809277259
230
0.5773502691896259
1001
AcDbBlockRepETag
1070
     1
1071
      118
1005
A32E
  0
LINE
  5
A32F
330
90CD
100
AcDbEntity
  8
0
100
AcDbLine
 10
73.96154890057278
 20
-9.047110400930023
 30
0.0000000000000223
 11
-41.22273243772633
 21
-75.54878623801039
 31
-0.0000000000000036
210
0.0000000000000003
220
0.8164965809277259
230
0.5773502691896259
1001
AcDbBlockRepETag
1070
     1
1071
      119
1005
A32F
  0
LINE
  5
A330
330
90CD
100
AcDbEntity
  8
0
100
AcDbLine
 10
66.46142418943054
 20
9.647894160297823
 30
0.0000000000000036
 11
-47.86953618087954
 21
-56.36111658620882
 31
-0.0000000000000107
210
0.0000000000000003
220
0.8164965809277259
230
0.5773502691896259
1001
AcDbBlockRepETag
1070
     1
1071
      120
1005
A330
  0
ELLIPSE
  5
A331
330
90CD
100
AcDbEntity
  8
0
100
AcDbEllipse
 10
1452.651317246188
 20
769.8329933411932
 30
0.0000000000004423
 11
0.3000000000000109
 21
-0.5196152422706831
 31
0.0
210
0.0
220
0.0
230
0.9999999999999998
 40
0.5773502691896258
 41
2.356194490192355
 42
5.497787143782125
1001
AcDbBlockRepETag
1070
     1
1071
      121
1005
A331
  0
LINE
  5
A332
330
90CD
100
AcDbEntity
  8
0
100
AcDbLine
 10
1453.499845383612
 20
769.8329933411935
 30
0.0000000000004103
 11
1452.651317246188
 21
770.3228912897502
 31
0.0000000000004245
210
0.0000000000000003
220
0.8164965809277259
230
0.5773502691896259
1001
AcDbBlockRepETag
1070
     1
1071
      122
1005
A332
  0
LINE
  5
A333
330
90CD
100
AcDbEntity
  8
0
100
AcDbLine
 10
1453.499845383612
 20
767.2240253915
 30
0.0000000000004032
 11
1453.499845383612
 21
769.8329933411935
 31
0.0000000000003961
210
0.0000000000000003
220
0.8164965809277259
230
0.5773502691896259
1001
AcDbBlockRepETag
1070
     1
1071
      123
1005
A333
  0
LINE
  5
A334
330
90CD
100
AcDbEntity
  8
0
100
AcDbLine
 10
1454.560505554331
 20
768.0182264728927
 30
0.0000000000004068
 11
1453.499845383612
 21
767.2240253915
 31
0.0000000000003961
210
0.0000000000000003
220
0.8164965809277259
230
0.5773502691896259
1001
AcDbBlockRepETag
1070
     1
1071
      124
1005
A334
  0
LINE
  5
A335
330
90CD
100
AcDbEntity
  8
0
100
AcDbLine
 10
1454.560505554331
 20
767.3193261095716
 30
0.0000000000003961
 11
1454.560505554331
 21
768.0182264728927
 31
0.0000000000004068
210
0.0000000000000003
220
0.8164965809277259
230
0.5773502691896259
1001
AcDbBlockRepETag
1070
     1
1071
      125
1005
A335
  0
LINE
  5
A336
330
90CD
100
AcDbEntity
  8
0
100
AcDbLine
 10
1453.758055004312
 20
766.7260288364469
 30
0.0000000000004103
 11
1454.560505554331
 21
767.3193261095716
 31
0.0000000000004032
210
0.0000000000000003
220
0.8164965809277259
230
0.5773502691896259
1001
AcDbBlockRepETag
1070
     1
1071
      126
1005
A336
  0
LINE
  5
A337
330
90CD
100
AcDbEntity
  8
0
100
AcDbLine
 10
1454.560505554331
 20
765.2061414811923
 30
0.0000000000004174
 11
1453.758055004312
 21
766.7260288364469
 31
0.0000000000004174
210
0.0000000000000003
220
0.8164965809277259
230
0.5773502691896259
1001
AcDbBlockRepETag
1070
     1
1071
      127
1005
A337
  0
LINE
  5
A338
330
90CD
100
AcDbEntity
  8
0
100
AcDbLine
 10
1454.560505554331
 20
764.5072411178712
 30
0.0000000000004174
 11
1454.560505554331
 21
765.2061414811923
 31
0.0000000000004174
210
0.0000000000000003
220
0.8164965809277259
230
0.5773502691896259
1001
AcDbBlockRepETag
1070
     1
1071
      128
1005
A338
  0
LINE
  5
A339
330
90CD
100
AcDbEntity
  8
0
100
AcDbLine
 10
1454.560505554331
 20
763.6947631425019
 30
0.0000000000004174
 11
1454.560505554331
 21
764.3936635058224
 31
0.0000000000004174
210
0.0000000000000003
220
0.8164965809277259
230
0.5773502691896259
1001
AcDbBlockRepETag
1070
     1
1071
      129
1005
A339
  0
LINE
  5
A33A
330
90CD
100
AcDbEntity
  8
0
100
AcDbLine
 10
1453.758055004312
 20
763.1014658693771
 30
0.0000000000004032
 11
1454.560505554331
 21
763.6947631425019
 31
0.0000000000004103
210
0.0000000000000003
220
0.8164965809277259
230
0.5773502691896259
1001
AcDbBlockRepETag
1070
     1
1071
      130
1005
A33A
  0
LINE
  5
A33B
330
90CD
100
AcDbEntity
  8
0
100
AcDbLine
 10
1454.560505554331
 20
761.5815785141221
 30
0.0000000000004174
 11
1453.758055004312
 21
763.1014658693766
 31
0.0000000000004174
210
0.0000000000000003
220
0.8164965809277259
230
0.5773502691896259
1001
AcDbBlockRepETag
1070
     1
1071
      131
1005
A33B
  0
LINE
  5
A33C
330
90CD
100
AcDbEntity
  8
0
100
AcDbLine
 10
1454.560505554331
 20
760.8826781508009
 30
0.0000000000004245
 11
1454.560505554331
 21
761.5815785141221
 31
0.0000000000004174
210
0.0000000000000003
220
0.8164965809277259
230
0.5773502691896259
1001
AcDbBlockRepETag
1070
     1
1071
      132
1005
A33C
  0
LINE
  5
A33D
330
90CD
100
AcDbEntity
  8
0
100
AcDbLine
 10
1454.560505554331
 20
760.0702001754316
 30
0.0000000000004174
 11
1454.560505554331
 21
760.7691005387525
 31
0.0000000000004174
210
0.0000000000000003
220
0.8164965809277259
230
0.5773502691896259
1001
AcDbBlockRepETag
1070
     1
1071
      133
1005
A33D
  0
LINE
  5
A33E
330
90CD
100
AcDbEntity
  8
0
100
AcDbLine
 10
1453.758055004312
 20
759.4769029023068
 30
0.0000000000004174
 11
1454.560505554331
 21
760.0702001754316
 31
0.0000000000004174
210
0.0000000000000003
220
0.8164965809277259
230
0.5773502691896259
1001
AcDbBlockRepETag
1070
     1
1071
      134
1005
A33E
  0
LINE
  5
A33F
330
90CD
100
AcDbEntity
  8
0
100
AcDbLine
 10
1454.560505554331
 20
757.9570155470518
 30
0.0000000000004103
 11
1453.758055004312
 21
759.4769029023068
 31
0.0000000000004103
210
0.0000000000000003
220
0.8164965809277259
230
0.5773502691896259
1001
AcDbBlockRepETag
1070
     1
1071
      135
1005
A33F
  0
LINE
  5
A340
330
90CD
100
AcDbEntity
  8
0
100
AcDbLine
 10
1454.560505554331
 20
757.2581151837307
 30
0.0000000000004103
 11
1454.560505554331
 21
757.9570155470518
 31
0.0000000000004174
210
0.0000000000000003
220
0.8164965809277259
230
0.5773502691896259
1001
AcDbBlockRepETag
1070
     1
1071
      136
1005
A340
  0
LINE
  5
A341
330
90CD
100
AcDbEntity
  8
0
100
AcDbLine
 10
1454.560505554331
 20
756.445637208361
 30
0.0000000000004103
 11
1454.560505554331
 21
757.144537571682
 31
0.0000000000004174
210
0.0000000000000003
220
0.8164965809277259
230
0.5773502691896259
1001
AcDbBlockRepETag
1070
     1
1071
      137
1005
A341
  0
LINE
  5
A342
330
90CD
100
AcDbEntity
  8
0
100
AcDbLine
 10
1453.758055004312
 20
755.8523399352361
 30
0.0000000000004174
 11
1454.560505554331
 21
756.445637208361
 31
0.0000000000004032
210
0.0000000000000003
220
0.8164965809277259
230
0.5773502691896259
1001
AcDbBlockRepETag
1070
     1
1071
      138
1005
A342
  0
LINE
  5
A343
330
90CD
100
AcDbEntity
  8
0
100
AcDbLine
 10
1454.560505554331
 20
754.3324525799817
 30
0.0000000000004032
 11
1453.758055004312
 21
755.8523399352361
 31
0.0000000000004174
210
0.0000000000000003
220
0.8164965809277259
230
0.5773502691896259
1001
AcDbBlockRepETag
1070
     1
1071
      139
1005
A343
  0
LINE
  5
A344
330
90CD
100
AcDbEntity
  8
0
100
AcDbLine
 10
1454.560505554331
 20
753.6335522166604
 30
0.0000000000004174
 11
1454.560505554331
 21
754.3324525799813
 31
0.0000000000004174
210
0.0000000000000003
220
0.8164965809277259
230
0.5773502691896259
1001
AcDbBlockRepETag
1070
     1
1071
      140
1005
A344
  0
LINE
  5
A345
330
90CD
100
AcDbEntity
  8
0
100
AcDbLine
 10
1454.560505554331
 20
752.8210742412912
 30
0.0000000000004174
 11
1454.560505554331
 21
753.5199746046117
 31
0.0000000000004174
210
0.0000000000000003
220
0.8164965809277259
230
0.5773502691896259
1001
AcDbBlockRepETag
1070
     1
1071
      141
1005
A345
  0
LINE
  5
A346
330
90CD
100
AcDbEntity
  8
0
100
AcDbLine
 10
1453.758055004312
 20
752.2277769681661
 30
0.0000000000004174
 11
1454.560505554331
 21
752.8210742412909
 31
0.0000000000004103
210
0.0000000000000003
220
0.8164965809277259
230
0.5773502691896259
1001
AcDbBlockRepETag
1070
     1
1071
      142
1005
A346
  0
LINE
  5
A347
330
90CD
100
AcDbEntity
  8
0
100
AcDbLine
 10
1454.560505554331
 20
750.7078896129113
 30
0.0000000000004245
 11
1453.758055004312
 21
752.2277769681661
 31
0.0000000000004245
210
0.0000000000000003
220
0.8164965809277259
230
0.5773502691896259
1001
AcDbBlockRepETag
1070
     1
1071
      143
1005
A347
  0
LINE
  5
A348
330
90CD
100
AcDbEntity
  8
0
100
AcDbLine
 10
1454.560505554331
 20
750.0089892495902
 30
0.0000000000004103
 11
1454.560505554331
 21
750.7078896129113
 31
0.0000000000004245
210
0.0000000000000003
220
0.8164965809277259
230
0.5773502691896259
1001
AcDbBlockRepETag
1070
     1
1071
      144
1005
A348
  0
LINE
  5
A349
330
90CD
100
AcDbEntity
  8
0
100
AcDbLine
 10
1454.560505554331
 20
749.1965112742209
 30
0.0000000000004103
 11
1454.560505554331
 21
749.8954116375418
 31
0.0000000000004245
210
0.0000000000000003
220
0.8164965809277259
230
0.5773502691896259
1001
AcDbBlockRepETag
1070
     1
1071
      145
1005
A349
  0
LINE
  5
A34A
330
90CD
100
AcDbEntity
  8
0
100
AcDbLine
 10
1453.758055004312
 20
748.6032140010961
 30
0.0000000000004245
 11
1454.560505554331
 21
749.1965112742209
 31
0.0000000000004032
210
0.0000000000000003
220
0.8164965809277259
230
0.5773502691896259
1001
AcDbBlockRepETag
1070
     1
1071
      146
1005
A34A
  0
LINE
  5
A34B
330
90CD
100
AcDbEntity
  8
0
100
AcDbLine
 10
1454.560505554331
 20
747.0833266458412
 30
0.0000000000004032
 11
1453.758055004312
 21
748.6032140010961
 31
0.0000000000004174
210
0.0000000000000003
220
0.8164965809277259
230
0.5773502691896259
1001
AcDbBlockRepETag
1070
     1
1071
      147
1005
A34B
  0
LINE
  5
A34C
330
90CD
100
AcDbEntity
  8
0
100
AcDbLine
 10
1454.560505554331
 20
746.3844262825199
 30
0.0000000000004174
 11
1454.560505554331
 21
747.0833266458412
 31
0.0000000000004103
210
0.0000000000000003
220
0.8164965809277259
230
0.5773502691896259
1001
AcDbBlockRepETag
1070
     1
1071
      148
1005
A34C
  0
LINE
  5
A34D
330
90CD
100
AcDbEntity
  8
0
100
AcDbLine
 10
1455.107225435693
 20
745.4019440640612
 30
0.0000000000004103
 11
1454.153569854306
 21
746.1494818465674
 31
0.0000000000004061
210
0.0000000000000003
220
0.8164965809277259
230
0.5773502691896259
1001
AcDbBlockRepETag
1070
     1
1071
      149
1005
A34D
  0
LINE
  5
A34E
330
90CD
100
AcDbEntity
  8
0
100
AcDbLine
 10
1455.107225435693
 20
744.4066014235197
 30
0.0000000000004245
 11
1455.107225435693
 21
745.4019440640612
 31
0.0000000000004245
210
0.0000000000000003
220
0.8164965809277259
230
0.5773502691896259
1001
AcDbBlockRepETag
1070
     1
1071
      150
1005
A34E
  0
ENDBLK
  5
9168
330
90CD
100
AcDbEntity
  8
0
100
AcDbBlockEnd
  0
BLOCK
  5
99C2
330
99C1
100
AcDbEntity
  8
0
100
AcDbBlockBegin
  2
building wrap
 70
     0
 10
0.0
 20
0.0
 30
0.0
  3
building wrap
  1

  0
LWPOLYLINE
  5
A7DE
330
99C1
100
AcDbEntity
  8
MP Panel Perimeter (00134148)
100
AcDbPolyline
 90
        3
 70
     0
 43
0.0
 10
552.6784155653984
 20
-447.7758406716411
 10
341.0007817358492
 20
-325.563701798726
 10
341.0007817358492
 20
-325.563701798726
1001
AcDbBlockRepETag
1070
     1
1071
       92
1005
A7DE
  0
ARC
  5
A7DF
330
99C1
100
AcDbEntity
  8
MP Panel Perimeter (00134148)
100
AcDbCircle
 10
-2681.622487083215
 20
-2639.488947085077
 30
0.0
 40
3573.269382701446
100
AcDbArc
 50
3.300794135608522
 51
7.288743187207241
1001
AcDbBlockRepETag
1070
     1
1071
       95
1005
A7DF
  0
HATCH
  5
A7E0
330
99C1
100
AcDbEntity
  8
MASONS Barricade Building Wrap Hatch (00134140)
100
AcDbHatch
 10
0.0
 20
0.0
 30
0.0
210
0.0
220
0.0
230
1.0
  2
ANSI31
 70
     0
 71
     0
 91
        4
 92
        7
 72
     0
 73
     1
 93
       36
 10
903.5645835999346
 20
-2807.227307949123
 10
1041.113277881994
 20
-2886.641083619551
 10
1031.937713860197
 20
-2891.938597977502
 10
1288.200753171282
 20
-3040.087126910385
 10
1281.870430372704
 20
-2640.591228318385
 10
1254.894461328658
 20
-2340.829404468247
 10
1202.964673864071
 20
-2018.976156086965
 10
1141.180448608644
 20
-1751.72999964714
 10
978.7037116438167
 20
-1064.60418501042
 10
968.9949649300595
 20
-982.8389604197495
 10
951.2820803662997
 20
-713.0079370489111
 10
954.4764608936604
 20
-469.6092844059476
 10
959.7014736207691
 20
-386.6955484768841
 10
0.0
 20
167.388355659647
 10
0.0
 20
0.0
 10
245.050209687206
 20
-141.4798045278844
 10
245.0502104846582
 20
-231.4798049882916
 10
296.5622677124029
 20
-261.2202898325486
 10
302.0296385655511
 20
-258.0637017987265
 10
341.000781735851
 20
-280.5637017987269
 10
341.000781735851
 20
-325.5637017987274
 10
443.382247733869
 20
-384.67366875271
 10
552.6784155654004
 20
-447.7758406716398
 10
557.9125224677318
 20
-639.7578637679371
 10
578.2846847650288
 20
-863.2919478953551
 10
595.5882499747586
 20
-982.9268171389646
 10
656.7516142894837
 20
-1273.486967677992
 10
769.7168943902434
 20
-1676.13347221197
 10
862.7726908524619
 20
-2186.149224605467
 10
885.6556934047258
 20
-2151.830291917817
 10
924.6268365750257
 20
-2174.330291917816
 10
924.6191935251973
 20
-2375.380292381822
 10
885.7189084057264
 20
-2433.747727630649
 10
893.7769186048496
 20
-2620.718513902305
 10
924.615542315756
 20
-2574.601776737108
 10
924.6078992659258
 20
-2775.651777201114
 97
        0
 92
       16
 93
        6
 72
     1
 10
926.0388149040828
 20
-1620.411390794781
 11
926.0331419772867
 21
-1821.461391314378
 72
     1
 10
926.0331419772867
 20
-1821.461391314378
 11
887.0888659302707
 21
-1879.891872893197
 72
     1
 10
887.0888659302707
 20
-1879.891872893197
 11
848.0967300744977
 21
-1857.379752760588
 72
     1
 10
848.0967300744977
 20
-1857.379752760588
 11
848.0966325719473
 21
-1656.358461571798
 72
     1
 10
848.0966325719473
 20
-1656.358461571798
 11
887.0676717337827
 21
-1597.911390794781
 72
     1
 10
887.0676717337827
 20
-1597.911390794781
 11
926.0388149040828
 21
-1620.411390794781
 97
        0
 92
       16
 93
        6
 72
     1
 10
924.6919578111899
 20
-1057.779526074894
 11
924.6862848843919
 21
-1258.829526594491
 72
     1
 10
924.6862848843919
 20
-1258.829526594491
 11
885.7420088373764
 21
-1317.26000817331
 72
     1
 10
885.7420088373764
 20
-1317.26000817331
 11
846.7498729816034
 21
-1294.7478880407
 72
     1
 10
846.7498729816034
 20
-1294.7478880407
 11
846.7497754790548
 21
-1093.726596851911
 72
     1
 10
846.7497754790548
 20
-1093.726596851911
 11
885.7208146408902
 21
-1035.279526074894
 72
     1
 10
885.7208146408902
 20
-1035.279526074894
 11
924.6919578111899
 21
-1057.779526074894
 97
        0
 92
       16
 93
        6
 72
     1
 10
924.670763614702
 20
-617.5445855589296
 11
924.6650906879056
 21
-818.5945860785269
 72
     1
 10
924.6650906879056
 20
-818.5945860785269
 11
885.7208146408902
 21
-877.025067657345
 72
     1
 10
885.7208146408902
 20
-877.025067657345
 11
846.7286787851172
 21
-854.5129475247357
 72
     1
 10
846.7286787851172
 20
-854.5129475247357
 11
846.7285812825666
 21
-653.4916563359464
 72
     1
 10
846.7285812825666
 20
-653.4916563359464
 11
885.6996204444021
 21
-595.0445855589296
 72
     1
 10
885.6996204444021
 20
-595.0445855589296
 11
924.670763614702
 21
-617.5445855589296
 97
        0
 75
     0
 76
     1
 52
0.0
 41
400.0
 77
     0
 78
     1
 53
45.0
 43
-3869.258822857867
 44
-3708.952900846144
 45
-35.35533905932737
 46
35.35533905932739
 79
     0
 47
3.478326836069785
 98
        2
 10
-3869.258822857867
 20
-3708.952900846144
 10
913.060607067362
 20
-1406.94717418611
1001
ACAD
1010
0.0
1020
0.0
1030
0.0
1001
AcDbBlockRepETag
1070
     1
1071
       96
1005
A7E0
  0
LINE
  5
A7E1
330
99C1
100
AcDbEntity
  8
MP Barricade Building Wrap Perimeter Isometric (00134183)
100
AcDbLine
 10
954.4764608936604
 20
-469.6092844059585
 30
0.0
 11
951.2820803662997
 21
-713.0079370489182
 31
0.0
1001
AcDbBlockRepETag
1070
     1
1071
       97
1005
A7E1
  0
LINE
  5
A7E2
330
99C1
100
AcDbEntity
  8
MP Barricade Building Wrap Perimeter Isometric (00134183)
100
AcDbLine
 10
951.2820803662997
 20
-713.0079370489182
 30
0.0
 11
968.9949649300579
 21
-982.8389604197584
 31
0.0
1001
AcDbBlockRepETag
1070
     1
1071
       98
1005
A7E2
  0
LINE
  5
A7E3
330
99C1
100
AcDbEntity
  8
MP Barricade Building Wrap Perimeter Isometric (00134183)
100
AcDbLine
 10
968.9949649300579
 20
-982.8389604197584
 30
0.0
 11
978.7037116438167
 21
-1064.604185010416
 31
0.0
1001
AcDbBlockRepETag
1070
     1
1071
       99
1005
A7E3
  0
LINE
  5
A7E4
330
99C1
100
AcDbEntity
  8
MP Barricade Building Wrap Perimeter Isometric (00134183)
100
AcDbLine
 10
978.7037116438167
 20
-1064.604185010416
 30
0.0
 11
1141.180448608655
 21
-1751.729999647256
 31
0.0
1001
AcDbBlockRepETag
1070
     1
1071
      100
1005
A7E4
  0
LINE
  5
A7E5
330
99C1
100
AcDbEntity
  8
MP Barricade Building Wrap Perimeter Isometric (00134183)
100
AcDbLine
 10
1141.180448608655
 20
-1751.729999647256
 30
0.0
 11
1202.964673864073
 21
-2018.976156086959
 31
0.0
1001
AcDbBlockRepETag
1070
     1
1071
      101
1005
A7E5
  0
LINE
  5
A7E6
330
99C1
100
AcDbEntity
  8
MP Barricade Building Wrap Perimeter Isometric (00134183)
100
AcDbLine
 10
1202.964673864073
 20
-2018.976156086959
 30
0.0
 11
1254.894461328658
 21
-2340.829404468248
 31
0.0
1001
AcDbBlockRepETag
1070
     1
1071
      102
1005
A7E6
  0
LINE
  5
A7E7
330
99C1
100
AcDbEntity
  8
MP Barricade Building Wrap Perimeter Isometric (00134183)
100
AcDbLine
 10
1254.894461328658
 20
-2340.829404468248
 30
0.0
 11
1281.870430372704
 21
-2640.591228318385
 31
0.0
1001
AcDbBlockRepETag
1070
     1
1071
      103
1005
A7E7
  0
LINE
  5
A7E8
330
99C1
100
AcDbEntity
  8
MP Barricade Building Wrap Perimeter Isometric (00134183)
100
AcDbLine
 10
1281.870430372704
 20
-2640.591228318385
 30
0.0
 11
1288.200753171282
 21
-3040.087126910385
 31
0.0
1001
AcDbBlockRepETag
1070
     1
1071
      104
1005
A7E8
  0
LINE
  5
A7E9
330
99C1
100
AcDbEntity
  8
MP Barricade Building Wrap Perimeter Isometric (00134183)
100
AcDbLine
 10
1288.200753171282
 20
-3040.087126910385
 30
0.0
 11
1031.937713860197
 21
-2891.938597977502
 31
-0.0000000000000214
1001
AcDbBlockRepETag
1070
     1
1071
      105
1005
A7E9
  0
LINE
  5
A7EA
330
99C1
100
AcDbEntity
  8
Timber Perimeter (00134144)
100
AcDbLine
 10
924.6078992659258
 20
-2775.651777201114
 30
0.0
 11
924.615542315756
 21
-2574.601776737108
 31
0.0
1001
AcDbBlockRepETag
1070
     1
1071
      106
1005
A7EA
  0
LINE
  5
A7EB
330
99C1
100
AcDbEntity
  8
Timber Perimeter (00134144)
100
AcDbLine
 10
924.615542315756
 20
-2574.601776737108
 30
0.0
 11
893.7769186048496
 21
-2620.718513902306
 31
0.0
1001
AcDbBlockRepETag
1070
     1
1071
      107
1005
A7EB
  0
LINE
  5
A7EC
330
99C1
100
AcDbEntity
  8
MP Panel Perimeter (00134148)
100
AcDbLine
 10
893.7769186048496
 20
-2620.718513902306
 30
0.0
 11
885.7189084057242
 21
-2433.747727630649
 31
0.0
1001
AcDbBlockRepETag
1070
     1
1071
      108
1005
A7EC
  0
LINE
  5
A7ED
330
99C1
100
AcDbEntity
  8
Timber Perimeter (00134144)
100
AcDbLine
 10
924.6191935251973
 20
-2375.380292381823
 30
0.0
 11
924.6268365750257
 21
-2174.330291917817
 31
0.0
1001
AcDbBlockRepETag
1070
     1
1071
      109
1005
A7ED
  0
LINE
  5
A7EE
330
99C1
100
AcDbEntity
  8
Timber Perimeter (00134144)
100
AcDbLine
 10
924.6268365750257
 20
-2174.330291917817
 30
0.0
 11
885.6556934047258
 21
-2151.830291917817
 31
0.0
1001
AcDbBlockRepETag
1070
     1
1071
      110
1005
A7EE
  0
LINE
  5
A7EF
330
99C1
100
AcDbEntity
  8
MP Panel Perimeter (00134148)
100
AcDbLine
 10
862.7726908524619
 20
-2186.149224605467
 30
0.0
 11
769.716894390247
 21
-1676.13347221197
 31
0.0
1001
AcDbBlockRepETag
1070
     1
1071
      112
1005
A7EF
  0
LINE
  5
A7F0
330
99C1
100
AcDbEntity
  8
MP Panel Perimeter (00134148)
100
AcDbLine
 10
769.716894390247
 20
-1676.13347221197
 30
0.0
 11
656.7516142894837
 21
-1273.486967677987
 31
0.0
1001
AcDbBlockRepETag
1070
     1
1071
      113
1005
A7F0
  0
LINE
  5
A7F1
330
99C1
100
AcDbEntity
  8
MP Panel Perimeter (00134148)
100
AcDbLine
 10
656.7516142894837
 20
-1273.486967677987
 30
0.0
 11
595.5882499747586
 21
-982.9268171389557
 31
0.0
1001
AcDbBlockRepETag
1070
     1
1071
      114
1005
A7F1
  0
LINE
  5
A7F2
330
99C1
100
AcDbEntity
  8
MP Panel Perimeter (00134148)
100
AcDbLine
 10
595.5882499747586
 20
-982.9268171389557
 30
0.0
 11
578.2846847650271
 21
-863.2919478953517
 31
0.0
1001
AcDbBlockRepETag
1070
     1
1071
      115
1005
A7F2
  0
LINE
  5
A7F3
330
99C1
100
AcDbEntity
  8
MP Panel Perimeter (00134148)
100
AcDbLine
 10
578.2846847650271
 20
-863.2919478953517
 30
0.0
 11
557.9125224677318
 21
-639.7578637679488
 31
0.0
1001
AcDbBlockRepETag
1070
     1
1071
      116
1005
A7F3
  0
LINE
  5
A7F4
330
99C1
100
AcDbEntity
  8
MP Panel Perimeter (00134148)
100
AcDbLine
 10
557.9125224677318
 20
-639.7578637679488
 30
0.0
 11
552.6784155654004
 21
-447.7758406716401
 31
0.0
1001
AcDbBlockRepETag
1070
     1
1071
      117
1005
A7F4
  0
LINE
  5
A7F5
330
99C1
100
AcDbEntity
  8
Timber Perimeter (00134144)
100
AcDbLine
 10
341.0007817358492
 20
-280.563701798726
 30
0.0
 11
245.0502096872078
 21
-231.479804527884
 31
0.0
1001
AcDbBlockRepETag
1070
     1
1071
      118
1005
A7F5
  0
LINE
  5
A7F6
330
99C1
100
AcDbEntity
  8
Timber Perimeter (00134144)
100
AcDbLine
 10
245.0502096872078
 20
-231.479804527884
 30
0.0
 11
245.0502104846582
 21
-231.479804988292
 31
0.0
1001
AcDbBlockRepETag
1070
     1
1071
      119
1005
A7F6
  0
LINE
  5
A7F7
330
99C1
100
AcDbEntity
  8
Timber Perimeter (00134144)
100
AcDbLine
 10
245.0502104846582
 20
-231.479804988292
 30
0.0
 11
245.0502096872078
 21
-141.4798045278849
 31
0.0
1001
AcDbBlockRepETag
1070
     1
1071
      120
1005
A7F7
  0
LINE
  5
A7F8
330
99C1
100
AcDbEntity
  8
Timber Perimeter (00134144)
100
AcDbLine
 10
245.0502096872078
 20
-141.4798045278849
 30
0.0
 11
0.0
 21
0.0
 31
0.0
1001
AcDbBlockRepETag
1070
     1
1071
      121
1005
A7F8
  0
LINE
  5
A7F9
330
99C1
100
AcDbEntity
  8
MP Barricade Building Wrap Perimeter Isometric (00134183)
100
AcDbLine
 10
0.0
 20
0.0
 30
0.0
 11
0.0
 21
167.3883556596465
 31
0.0
1001
AcDbBlockRepETag
1070
     1
1071
      122
1005
A7F9
  0
LINE
  5
A7FA
330
99C1
100
AcDbEntity
  8
MP Barricade Building Wrap Perimeter Isometric (00134183)
100
AcDbLine
 10
0.0
 20
167.3883556596465
 30
0.0
 11
959.7014736207691
 21
-386.6955484768832
 31
0.0
1001
AcDbBlockRepETag
1070
     1
1071
      123
1005
A7FA
  0
LINE
  5
A7FB
330
99C1
100
AcDbEntity
  8
MP Barricade Building Wrap Perimeter Isometric (00134183)
100
AcDbLine
 10
959.7014736207691
 20
-386.6955484768832
 30
0.0
 11
954.4764608936604
 21
-469.6092844059585
 31
0.0
1001
AcDbBlockRepETag
1070
     1
1071
      124
1005
A7FB
  0
LWPOLYLINE
  5
A7FC
330
99C1
100
AcDbEntity
  8
Timber Perimeter (00134144)
100
AcDbPolyline
 90
        7
 70
     0
 43
0.0
 10
887.0888659302707
 20
-1879.891872893197
 10
926.0331419772867
 20
-1821.461391314378
 10
926.0388149040828
 20
-1620.411390794781
 10
887.0676717337827
 20
-1597.911390794779
 10
848.0965285634828
 20
-1656.358521621114
 10
848.0967300744977
 20
-1857.379752760588
 10
887.0888659302707
 20
-1879.891872893197
1001
AcDbBlockRepETag
1070
     1
1071
      125
1005
A7FC
  0
LWPOLYLINE
  5
A7FD
330
99C1
100
AcDbEntity
  8
Timber Perimeter (00134144)
100
AcDbPolyline
 90
        6
 70
     0
 43
0.0
 10
926.0388149040828
 20
-1620.411390794781
 10
887.0676717337827
 20
-1597.911390794781
 10
848.0965285634828
 20
-1656.358521621114
 10
848.0967300744977
 20
-1857.379752760588
 10
887.0888659302707
 20
-1879.891872893197
 10
926.0331419772867
 20
-1821.461391314378
1001
AcDbBlockRepETag
1070
     1
1071
      126
1005
A7FD
  0
LWPOLYLINE
  5
A7FE
330
99C1
100
AcDbEntity
  8
Timber Perimeter (00134144)
100
AcDbPolyline
 90
        6
 70
     1
 43
0.0
 10
926.0388149040828
 20
-1620.411390794781
 10
926.0331419772867
 20
-1821.461391314378
 10
887.0888659302707
 20
-1879.891872893197
 10
848.0967300744977
 20
-1857.379752760588
 10
848.0966325719473
 20
-1656.358461571798
 10
887.0676717337827
 20
-1597.911390794781
1001
AcDbBlockRepETag
1070
     1
1071
      127
1005
A7FE
  0
LWPOLYLINE
  5
A7FF
330
99C1
100
AcDbEntity
  8
Timber Perimeter (00134144)
100
AcDbPolyline
 90
        4
 70
     1
 43
0.0
 10
848.0965285634828
 20
-1656.358521621114
 10
887.0676717337827
 20
-1597.911390794781
 10
926.0388149040828
 20
-1620.411390794781
 10
887.0676717337827
 20
-1678.858521621114
1001
AcDbBlockRepETag
1070
     1
1071
      128
1005
A7FF
  0
LINE
  5
A800
330
99C1
100
AcDbEntity
  8
Timber Perimeter (00134144)
100
AcDbLine
 10
887.0888659302707
 20
-1879.891872893197
 30
0.0
 11
887.0676717337827
 21
-1678.858521621112
 31
0.0
1001
AcDbBlockRepETag
1070
     1
1071
      129
1005
A800
  0
LWPOLYLINE
  5
A801
330
99C1
100
AcDbEntity
  8
Timber Perimeter (00134144)
100
AcDbPolyline
 90
        7
 70
     0
 43
0.0
 10
885.7420088373764
 20
-1317.26000817331
 10
924.6862848843919
 20
-1258.829526594491
 10
924.6919578111899
 20
-1057.779526074894
 10
885.7208146408902
 20
-1035.279526074892
 10
846.7496714705902
 20
-1093.726656901227
 10
846.7498729816034
 20
-1294.7478880407
 10
885.7420088373764
 20
-1317.26000817331
1001
AcDbBlockRepETag
1070
     1
1071
      130
1005
A801
  0
LWPOLYLINE
  5
A802
330
99C1
100
AcDbEntity
  8
Timber Perimeter (00134144)
100
AcDbPolyline
 90
        6
 70
     0
 43
0.0
 10
924.6919578111899
 20
-1057.779526074893
 10
885.7208146408902
 20
-1035.279526074894
 10
846.7496714705902
 20
-1093.726656901227
 10
846.7498729816034
 20
-1294.7478880407
 10
885.7420088373764
 20
-1317.26000817331
 10
924.6862848843919
 20
-1258.829526594491
1001
AcDbBlockRepETag
1070
     1
1071
      131
1005
A802
  0
LWPOLYLINE
  5
A803
330
99C1
100
AcDbEntity
  8
Timber Perimeter (00134144)
100
AcDbPolyline
 90
        6
 70
     1
 43
0.0
 10
924.6919578111899
 20
-1057.779526074894
 10
924.6862848843919
 20
-1258.829526594491
 10
885.7420088373764
 20
-1317.26000817331
 10
846.7498729816034
 20
-1294.7478880407
 10
846.7497754790548
 20
-1093.726596851911
 10
885.7208146408902
 20
-1035.279526074894
1001
AcDbBlockRepETag
1070
     1
1071
      132
1005
A803
  0
LWPOLYLINE
  5
A804
330
99C1
100
AcDbEntity
  8
Timber Inner (00134145)
100
AcDbPolyline
 90
        9
 70
     0
 43
0.0
 10
875.6318596838882
 20
-1050.410477396904
 10
874.1871920524626
 20
-1073.777671652874
 10
873.4540119920403
 20
-1087.425490946687
 10
872.1113253662187
 20
-1096.931167927105
 10
872.0842324480583
 20
-1097.829999551419
 10
872.4723700582709
 20
-1102.298389296792
 10
872.9683545706446
 20
-1104.545573800209
 10
874.2623096951666
 20
-1108.182319977955
 10
875.3193443599538
 20
-1110.221365234562
1001
AcDbBlockRepETag
1070
     1
1071
      133
1005
A804
  0
LWPOLYLINE
  5
A805
330
99C1
100
AcDbEntity
  8
Timber Inner (00134145)
100
AcDbPolyline
 90
        7
 70
     0
 43
0.0
 10
860.8852603341947
 20
-1072.526811022106
 10
860.7639062775415
 20
-1087.910736896644
 10
860.1394746585718
 20
-1089.879442951227
 10
859.4659567999768
 20
-1093.647103803037
 10
859.3756523343309
 20
-1095.681249511974
 10
859.6681973321338
 20
-1099.328732694202
 10
860.1357996496826
 20
-1101.455141608833
1001
AcDbBlockRepETag
1070
     1
1071
      134
1005
A805
  0
LWPOLYLINE
  5
A806
330
99C1
100
AcDbEntity
  8
Timber Inner (00134145)
100
AcDbPolyline
 90
       12
 70
     0
 43
0.0
 10
897.4077982526067
 20
-1042.027009209132
 10
893.052862364957
 20
-1047.193205515572
 10
891.4432925807904
 20
-1074.366502270279
 10
891.3780785720247
 20
-1074.495972221048
 10
890.5150203631581
 20
-1088.117660489833
 10
889.6324947472583
 20
-1092.346831237219
 10
888.6855668179178
 20
-1097.59573691889
 10
888.6423217821921
 20
-1099.867941608926
 10
889.2407364139144
 20
-1103.394276120964
 10
890.3662062257735
 20
-1106.667767012293
 10
890.5960474332477
 20
-1107.159345002711
 10
891.1492633714169
 20
-1108.085318789825
1001
AcDbBlockRepETag
1070
     1
1071
      135
1005
A806
  0
LWPOLYLINE
  5
A807
330
99C1
100
AcDbEntity
  8
Timber Inner (00134145)
100
AcDbPolyline
 90
        9
 70
     0
 43
0.0
 10
910.4147158050889
 20
-1049.536556559385
 10
906.5703006092901
 20
-1054.239182828335
 10
905.7097120057422
 20
-1055.621757871129
 10
905.6440169522446
 20
-1055.753852350599
 10
904.9325896565479
 20
-1057.664145940928
 10
904.4293696660043
 20
-1060.198708789112
 10
904.4146629221778
 20
-1060.341864051295
 10
904.4146629221778
 20
-1064.307245918689
 10
906.0852247210187
 20
-1085.685049872837
1001
AcDbBlockRepETag
1070
     1
1071
      136
1005
A807
  0
LWPOLYLINE
  5
A808
330
99C1
100
AcDbEntity
  8
Timber Perimeter (00134144)
100
AcDbPolyline
 90
        4
 70
     1
 43
0.0
 10
846.7496714705902
 20
-1093.726656901227
 10
885.7208146408902
 20
-1035.279526074894
 10
924.6919578111899
 20
-1057.779526074894
 10
885.7208146408902
 20
-1116.226656901227
1001
AcDbBlockRepETag
1070
     1
1071
      137
1005
A808
  0
LINE
  5
A809
330
99C1
100
AcDbEntity
  8
Timber Perimeter (00134144)
100
AcDbLine
 10
885.7420088373764
 20
-1317.26000817331
 30
0.0
 11
885.7208146408902
 21
-1116.226656901224
 31
0.0
1001
AcDbBlockRepETag
1070
     1
1071
      138
1005
A809
  0
LWPOLYLINE
  5
A80A
330
99C1
100
AcDbEntity
  8
Timber Perimeter (00134144)
100
AcDbPolyline
 90
        7
 70
     0
 43
0.0
 10
885.7208146408902
 20
-877.025067657345
 10
924.6650906879056
 20
-818.5945860785269
 10
924.670763614702
 20
-617.5445855589296
 10
885.6996204444021
 20
-595.0445855589268
 10
846.7284772741024
 20
-653.4917163852624
 10
846.7286787851172
 20
-854.5129475247357
 10
885.7208146408902
 20
-877.025067657345
1001
AcDbBlockRepETag
1070
     1
1071
      139
1005
A80A
  0
LWPOLYLINE
  5
A80B
330
99C1
100
AcDbEntity
  8
Timber Perimeter (00134144)
100
AcDbPolyline
 90
        6
 70
     0
 43
0.0
 10
924.670763614702
 20
-617.5445855589287
 10
885.6996204444021
 20
-595.0445855589296
 10
846.7284772741024
 20
-653.4917163852624
 10
846.7286787851172
 20
-854.5129475247357
 10
885.7208146408902
 20
-877.025067657345
 10
924.6650906879056
 20
-818.5945860785269
1001
AcDbBlockRepETag
1070
     1
1071
      140
1005
A80B
  0
LWPOLYLINE
  5
A80C
330
99C1
100
AcDbEntity
  8
Timber Perimeter (00134144)
100
AcDbPolyline
 90
        6
 70
     1
 43
0.0
 10
924.670763614702
 20
-617.5445855589296
 10
924.6650906879056
 20
-818.5945860785269
 10
885.7208146408902
 20
-877.025067657345
 10
846.7286787851172
 20
-854.5129475247357
 10
846.7285812825666
 20
-653.4916563359464
 10
885.6996204444021
 20
-595.0445855589296
1001
AcDbBlockRepETag
1070
     1
1071
      141
1005
A80C
  0
LWPOLYLINE
  5
A80D
330
99C1
100
AcDbEntity
  8
Timber Perimeter (00134144)
100
AcDbPolyline
 90
        4
 70
     1
 43
0.0
 10
846.7284772741024
 20
-653.4917163852624
 10
885.6996204444021
 20
-595.0445855589296
 10
924.670763614702
 20
-617.5445855589296
 10
885.6996204444021
 20
-675.9917163852624
1001
AcDbBlockRepETag
1070
     1
1071
      142
1005
A80D
  0
LINE
  5
A80E
330
99C1
100
AcDbEntity
  8
Timber Perimeter (00134144)
100
AcDbLine
 10
885.7208146408902
 20
-877.025067657345
 30
0.0
 11
885.6996204444021
 21
-675.9917163852596
 31
0.0
1001
AcDbBlockRepETag
1070
     1
1071
      143
1005
A80E
  0
LWPOLYLINE
  5
A80F
330
99C1
100
AcDbEntity
  8
Timber Perimeter (00134144)
100
AcDbPolyline
 90
        5
 70
     0
 43
0.0
 10
885.676887601212
 20
-2433.810774016234
 10
924.6211636482277
 20
-2375.380292437414
 10
924.6268365750257
 20
-2174.330291917817
 10
885.6556934047258
 20
-2151.830291917815
 10
862.7726847468291
 20
-2186.149177429685
1001
AcDbBlockRepETag
1070
     1
1071
      144
1005
A80F
  0
LWPOLYLINE
  5
A810
330
99C1
100
AcDbEntity
  8
Timber Perimeter (00134144)
100
AcDbPolyline
 90
        3
 70
     0
 43
0.0
 10
924.6268365750257
 20
-2174.330291917817
 10
885.6556934047258
 20
-2151.830291917817
 10
862.7726847468291
 20
-2186.149177429687
1001
AcDbBlockRepETag
1070
     1
1071
      145
1005
A810
  0
LWPOLYLINE
  5
A811
330
99C1
100
AcDbEntity
  8
Timber Perimeter (00134144)
100
AcDbPolyline
 90
        6
 70
     0
 43
0.0
 10
862.7726908524619
 20
-2186.149224605467
 10
885.6556934047258
 20
-2151.830291917817
 10
924.6268365750257
 20
-2174.330291917817
 10
924.6211636482277
 20
-2375.380292437414
 10
885.676887601212
 20
-2433.810774016234
 10
884.2849182514964
 20
-2433.007120137471
1001
AcDbBlockRepETag
1070
     1
1071
      146
1005
A811
  0
LWPOLYLINE
  5
A812
330
99C1
100
AcDbEntity
  8
Timber Perimeter (00134144)
100
AcDbPolyline
 90
        5
 70
     0
 43
0.0
 10
862.7726847468291
 20
-2186.149177429687
 10
885.6556934047258
 20
-2151.830291917817
 10
924.6268365750257
 20
-2174.330291917817
 10
885.6556934047258
 20
-2232.777422744149
 10
867.2251873869551
 20
-2222.136565133489
1001
AcDbBlockRepETag
1070
     1
1071
      147
1005
A812
  0
LINE
  5
A813
330
99C1
100
AcDbEntity
  8
Timber Perimeter (00134144)
100
AcDbLine
 10
885.676887601212
 20
-2433.810774016234
 30
0.0
 11
885.6556934047258
 21
-2232.777422744148
 31
0.0
1001
AcDbBlockRepETag
1070
     1
1071
      148
1005
A813
  0
LWPOLYLINE
  5
A814
330
99C1
100
AcDbEntity
  8
Timber Perimeter (00134144)
100
AcDbPolyline
 90
        4
 70
     0
 43
0.0
 10
903.5645835989036
 20
-2807.22730795067
 10
924.6098693889598
 20
-2775.651777256705
 10
924.615542315756
 20
-2574.601776737108
 10
889.1094562754696
 20
-2554.102328403876
1001
AcDbBlockRepETag
1070
     1
1071
      149
1005
A814
  0
LWPOLYLINE
  5
A815
330
99C1
100
AcDbEntity
  8
Timber Perimeter (00134144)
100
AcDbPolyline
 90
        2
 70
     0
 43
0.0
 10
924.615542315756
 20
-2574.601776737107
 10
889.1094562754696
 20
-2554.102328403879
1001
AcDbBlockRepETag
1070
     1
1071
      150
1005
A815
  0
LWPOLYLINE
  5
A816
330
99C1
100
AcDbEntity
  8
Timber Perimeter (00134144)
100
AcDbPolyline
 90
        4
 70
     0
 43
0.0
 10
889.1094562754696
 20
-2554.102328403879
 10
924.615542315756
 20
-2574.601776737108
 10
924.6098693889598
 20
-2775.651777256705
 10
903.5645835999346
 20
-2807.227307949123
1001
AcDbBlockRepETag
1070
     1
1071
      151
1005
A816
  0
LWPOLYLINE
  5
A817
330
99C1
100
AcDbEntity
  8
Timber Perimeter (00134144)
100
AcDbPolyline
 90
        2
 70
     0
 43
0.0
 10
889.1094562754696
 20
-2554.102328403879
 10
924.615542315756
 20
-2574.601776737108
1001
AcDbBlockRepETag
1070
     1
1071
      152
1005
A817
  0
LWPOLYLINE
  5
A818
330
99C1
100
AcDbEntity
  8
Timber Inner (00134145)
100
AcDbPolyline
 90
        9
 70
     0
 43
0.0
 10
875.6106654874001
 20
-610.1755368809363
 10
874.1659978559747
 20
-633.5427311369066
 10
873.4328177955539
 20
-647.1905504307195
 10
872.0901311697325
 20
-656.6962274111374
 10
872.063038251572
 20
-657.5950590354513
 10
872.4511758617861
 20
-662.0634487808247
 10
872.9471603741583
 20
-664.3106332842417
 10
874.2411154986822
 20
-667.947379461988
 10
875.2981501634693
 20
-669.9864247185943
1001
AcDbBlockRepETag
1070
     1
1071
      153
1005
A818
  0
LWPOLYLINE
  5
A819
330
99C1
100
AcDbEntity
  8
Timber Inner (00134145)
100
AcDbPolyline
 90
        7
 70
     0
 43
0.0
 10
860.8640661377084
 20
-632.2918705061383
 10
860.7427120810553
 20
-647.6757963806767
 10
860.1182804620858
 20
-649.6445024352595
 10
859.4447626034908
 20
-653.4121632870692
 10
859.3544581378427
 20
-655.4463089960072
 10
859.6470031356494
 20
-659.0937921782342
 10
860.1146054531946
 20
-661.2202010928657
1001
AcDbBlockRepETag
1070
     1
1071
      154
1005
A819
  0
LWPOLYLINE
  5
A81A
330
99C1
100
AcDbEntity
  8
Timber Inner (00134145)
100
AcDbPolyline
 90
       12
 70
     0
 43
0.0
 10
897.3866040561206
 20
-601.7920686931647
 10
893.031668168469
 20
-606.9582649996045
 10
891.4220983843025
 20
-634.1315617543114
 10
891.3568843755381
 20
-634.2610317050803
 10
890.4938261666721
 20
-647.8827199738653
 10
889.6113005507723
 20
-652.1118907212521
 10
888.6643726214296
 20
-657.3607964029223
 10
888.6211275857077
 20
-659.6330010929587
 10
889.2195422174282
 20
-663.1593356049961
 10
890.3450120292873
 20
-666.432826496326
 10
890.5748532367613
 20
-666.9244044867435
 10
891.1280691749325
 20
-667.850378273858
1001
AcDbBlockRepETag
1070
     1
1071
      155
1005
A81A
  0
LWPOLYLINE
  5
A81B
330
99C1
100
AcDbEntity
  8
Timber Inner (00134145)
100
AcDbPolyline
 90
        9
 70
     0
 43
0.0
 10
910.3935216086027
 20
-609.3016160434173
 10
906.5491064128037
 20
-614.0042423123677
 10
905.688517809258
 20
-615.3868173551617
 10
905.6228227557566
 20
-615.5189118346314
 10
904.9113954600597
 20
-617.4292054249607
 10
904.4081754695181
 20
-619.9637682731445
 10
904.3934687256914
 20
-620.1069235353279
 10
904.3934687256914
 20
-624.072305402722
 10
906.0640305245323
 20
-645.4501093568697
1001
AcDbBlockRepETag
1070
     1
1071
      156
1005
A81B
  0
LWPOLYLINE
  5
A81C
330
99C1
100
AcDbEntity
  8
Timber Inner (00134145)
100
AcDbPolyline
 90
        9
 70
     0
 43
0.0
 10
876.9787167767809
 20
-1613.042342116791
 10
875.5340491453551
 20
-1636.409536372761
 10
874.8008690849328
 20
-1650.057355666574
 10
873.4581824591131
 20
-1659.563032646992
 10
873.4310895409526
 20
-1660.461864271305
 10
873.8192271511653
 20
-1664.930254016679
 10
874.3152116635373
 20
-1667.177438520096
 10
875.6091667880609
 20
-1670.814184697842
 10
876.6662014528481
 20
-1672.853229954449
1001
AcDbBlockRepETag
1070
     1
1071
      157
1005
A81C
  0
LWPOLYLINE
  5
A81D
330
99C1
100
AcDbEntity
  8
Timber Inner (00134145)
100
AcDbPolyline
 90
        7
 70
     0
 43
0.0
 10
862.2321174270892
 20
-1635.158675741992
 10
862.110763370436
 20
-1650.542601616531
 10
861.4863317514664
 20
-1652.511307671114
 10
860.8128138928714
 20
-1656.278968522923
 10
860.7225094272235
 20
-1658.313114231862
 10
861.0150544250283
 20
-1661.960597414088
 10
861.4826567425753
 20
-1664.08700632872
1001
AcDbBlockRepETag
1070
     1
1071
      158
1005
A81D
  0
LWPOLYLINE
  5
A81E
330
99C1
100
AcDbEntity
  8
Timber Inner (00134145)
100
AcDbPolyline
 90
       12
 70
     0
 43
0.0
 10
898.7546553455013
 20
-1604.658873929019
 10
894.3997194578495
 20
-1609.825070235459
 10
892.7901496736831
 20
-1636.998366990165
 10
892.7249356649173
 20
-1637.127836940934
 10
891.861877456051
 20
-1650.749525209719
 10
890.9793518401512
 20
-1654.978695957106
 10
890.0324239108103
 20
-1660.227601638777
 10
889.9891788750865
 20
-1662.499806328813
 10
890.5875935068086
 20
-1666.02614084085
 10
891.7130633186662
 20
-1669.29963173218
 10
891.9429045261404
 20
-1669.791209722598
 10
892.4961204643114
 20
-1670.717183509712
1001
AcDbBlockRepETag
1070
     1
1071
      159
1005
A81E
  0
LWPOLYLINE
  5
A81F
330
99C1
100
AcDbEntity
  8
Timber Inner (00134145)
100
AcDbPolyline
 90
        9
 70
     0
 43
0.0
 10
911.7615728979815
 20
-1612.168421279271
 10
907.9171577021822
 20
-1616.871047548222
 10
907.0565690986368
 20
-1618.253622591016
 10
906.9908740451372
 20
-1618.385717070486
 10
906.2794467494404
 20
-1620.296010660815
 10
905.7762267588968
 20
-1622.830573508999
 10
905.7615200150703
 20
-1622.973728771182
 10
905.7615200150703
 20
-1626.939110638576
 10
907.4320818139112
 20
-1648.316914592724
1001
AcDbBlockRepETag
1070
     1
1071
      160
1005
A81F
  0
LWPOLYLINE
  5
A820
330
99C1
100
AcDbEntity
  8
Timber Inner (00134145)
100
AcDbPolyline
 90
        9
 70
     0
 43
0.0
 10
875.5667384477236
 20
-2166.961243239827
 10
874.1220708162982
 20
-2190.328437495796
 10
873.3888907558776
 20
-2203.97625678961
 10
872.0462041300542
 20
-2213.481933770028
 10
872.0191112118937
 20
-2214.380765394341
 10
872.407248822108
 20
-2218.849155139714
 10
872.9032333344822
 20
-2221.096339643132
 10
874.1971884590039
 20
-2224.733085820878
 10
875.2542231237912
 20
-2226.772131077484
1001
AcDbBlockRepETag
1070
     1
1071
      161
1005
A820
  0
LWPOLYLINE
  5
A821
330
99C1
100
AcDbEntity
  8
Timber Inner (00134145)
100
AcDbPolyline
 90
       12
 70
     0
 43
0.0
 10
897.3426770164424
 20
-2158.577775052055
 10
892.9877411287925
 20
-2163.743971358495
 10
891.378171344626
 20
-2190.917268113201
 10
891.3129573358618
 20
-2191.04673806397
 10
890.4498991269957
 20
-2204.668426332755
 10
889.5673735110959
 20
-2208.897597080142
 10
888.6204455817532
 20
-2214.146502761813
 10
888.5772005460292
 20
-2216.418707451849
 10
889.1756151777499
 20
-2219.945041963886
 10
890.3010849896109
 20
-2223.218532855216
 10
890.5309261970851
 20
-2223.710110845634
 10
891.0841421352541
 20
-2224.636084632748
1001
AcDbBlockRepETag
1070
     1
1071
      162
1005
A821
  0
LWPOLYLINE
  5
A822
330
99C1
100
AcDbEntity
  8
Timber Inner (00134145)
100
AcDbPolyline
 90
        9
 70
     0
 43
0.0
 10
910.3495945689264
 20
-2166.087322402307
 10
906.5051793731273
 20
-2170.789948671258
 10
905.6445907695795
 20
-2172.172523714052
 10
905.5788957160803
 20
-2172.304618193521
 10
904.8674684203833
 20
-2174.214911783851
 10
904.3642484298416
 20
-2176.749474632035
 10
904.3495416860153
 20
-2176.892629894219
 10
904.3495416860153
 20
-2180.858011761612
 10
906.020103484856
 20
-2202.23581571576
1001
AcDbBlockRepETag
1070
     1
1071
      163
1005
A822
  0
LWPOLYLINE
  5
A823
330
99C1
100
AcDbEntity
  8
Timber Inner (00134145)
100
AcDbPolyline
 90
        3
 70
     0
 43
0.0
 10
897.3313827571747
 20
-2558.849259871345
 10
892.976446869523
 20
-2564.015456177785
 10
892.4348806853359
 20
-2573.158358076161
1001
AcDbBlockRepETag
1070
     1
1071
      164
1005
A823
  0
LWPOLYLINE
  5
A824
330
99C1
100
AcDbEntity
  8
Timber Inner (00134145)
100
AcDbPolyline
 90
        9
 70
     0
 43
0.0
 10
910.3383003096553
 20
-2566.358807221597
 10
906.4938851138558
 20
-2571.061433490549
 10
905.6332965103102
 20
-2572.444008533342
 10
905.5676014568106
 20
-2572.576103012812
 10
904.8561741611136
 20
-2574.486396603141
 10
904.3529541705702
 20
-2577.020959451325
 10
904.3382474267435
 20
-2577.164114713508
 10
904.3382474267435
 20
-2581.129496580902
 10
906.0088092255844
 20
-2602.50730053505
1001
AcDbBlockRepETag
1070
     1
1071
      165
1005
A824
  0
LINE
  5
A825
330
99C1
100
AcDbEntity
  8
MP Panel Perimeter (00134148)
100
AcDbLine
 10
893.7769186048496
 20
-2620.718513902306
 30
0.0
 11
893.2654560834444
 21
-2847.186833543198
 31
0.0
1001
AcDbBlockRepETag
1070
     1
1071
      166
1005
A825
  0
LINE
  5
A826
330
99C1
100
AcDbEntity
  8
Timber Perimeter (00134144)
100
AcDbLine
 10
341.0007817358492
 20
-280.563701798726
 30
0.0
 11
341.0007817358492
 21
-325.563701798726
 31
0.0
1001
AcDbBlockRepETag
1070
     1
1071
      167
1005
A826
  0
ENDBLK
  5
99C3
330
99C1
100
AcDbEntity
  8
0
100
AcDbBlockEnd
  0
BLOCK
  5
A989
330
A988
100
AcDbEntity
  8
0
100
AcDbBlockBegin
  2
mp000096$0$_OBLIQUE
 70
     0
 10
0.0
 20
0.0
 30
0.0
  3
mp000096$0$_OBLIQUE
  1

  0
LINE
  5
A98A
330
A988
100
AcDbEntity
  8
0
  6
ByBlock
 62
     0
100
AcDbLine
 10
-0.5
 20
-0.5
 30
0.0
 11
0.5
 21
0.5
 31
0.0
  0
ENDBLK
  5
A98B
330
A988
100
AcDbEntity
  8
0
100
AcDbBlockEnd
  0
BLOCK
  5
A98D
330
A98C
100
AcDbEntity
  8
0
100
AcDbBlockBegin
  2
mp000096$0$_DetailCallout
 70
     2
 10
0.0
 20
0.0
 30
0.0
  3
mp000096$0$_DetailCallout
  1

  0
CIRCLE
  5
A98E
330
A98C
100
AcDbEntity
  8
0
  6
ByBlock
 62
     0
370
    -2
100
AcDbCircle
 10
0.0
 20
0.0
 30
0.0
 40
8.0
  0
LINE
  5
A98F
330
A98C
100
AcDbEntity
  8
0
  6
ByBlock
 62
     0
370
    -2
100
AcDbLine
 10
8.0
 20
0.0
 30
0.0
 11
-8.0
 21
0.0
 31
0.0
  0
ATTDEF
  5
A990
330
A98C
100
AcDbEntity
  8
0
 62
     0
100
AcDbText
 10
-15.0
 20
1.0
 30
0.0
 40
3.0
  1
VIEWNUMBER
  7
mp000096$0$x01
 72
     1
 11
0.0
 21
1.0
 31
0.0
100
AcDbAttributeDefinition
  3
Enter view number
  2
VIEWNUMBER
 70
     0
280
     0
  0
ATTDEF
  5
A992
330
A98C
100
AcDbEntity
  8
0
 62
     0
100
AcDbText
 10
-16.0
 20
-6.0
 30
0.0
 40
3.0
  1
SHEETNUMBER
  7
mp000096$0$x01
 72
     1
 11
0.0
 21
-6.0
 31
0.0
100
AcDbAttributeDefinition
  3
Enter sheet number
  2
SHEETNUMBER
 70
     0
280
     0
  0
ENDBLK
  5
A993
330
A98C
100
AcDbEntity
  8
0
100
AcDbBlockEnd
  0
ENDSEC
  0
SECTION
  2
ENTITIES
  0
INSERT
  5
70A4
330
1F
100
AcDbEntity
  8
0
100
AcDbBlockReference
  2
mp000096
 10
5764.371527045391
 20
-1511.946304829258
 30
0.0
 41
1.25
 42
1.25
 43
1.25
1001
AEC_XDATA_BOUND_SPACE
1070
   100
1070
     1
  0
LWPOLYLINE
  5
87B3
330
1F
100
AcDbEntity
  8
MP Concrete Perimeter Isometric (00134230)
100
AcDbPolyline
 90
        3
 70
     0
 43
0.0
 10
5764.305104632942
 20
392.3124735915699
 10
5764.371527045391
 20
87.60000148735818
 10
3525.340232650154
 20
1380.305322030445
  0
LWPOLYLINE
  5
87B4
330
1F
100
AcDbEntity
  8
Timber Perimeter (00134144)
100
AcDbPolyline
 90
        3
 70
     0
 43
0.0
 10
6807.593508817717
 20
2174.438024798892
 10
7203.939384098733
 20
2403.268422584585
 10
7203.939384098733
 20
3583.338351959446
  0
LINE
  5
87B7
330
1F
100
AcDbEntity
  8
MP Concrete Perimeter Isometric (00134230)
100
AcDbLine
 10
7502.074033588481
 20
1395.537134518001
 30
0.0
 11
5764.371527045391
 21
392.2741245938613
 31
0.0
  0
LWPOLYLINE
  5
87B8
330
1F
100
AcDbEntity
  8
Timber Perimeter (00134144)
100
AcDbPolyline
 90
        6
 70
     0
 43
0.0
 10
3869.258822857861
 20
3730.266092176484
 10
3869.258822857861
 20
3886.341256505785
 10
3947.559096754952
 20
3931.547940717891
 10
5764.305104632942
 20
2882.649144020427
 10
5686.004830735794
 20
2837.44245980829
 10
3869.258822857868
 20
3886.341256505788
  0
LWPOLYLINE
  5
87B9
330
1F
100
AcDbEntity
  8
Timber Perimeter (00134144)
100
AcDbPolyline
 90
        3
 70
     0
 43
0.0
 10
6767.593508817717
 20
2059.72529460935
 10
6254.371059085855
 20
1763.416175102498
 10
6254.371059085855
 20
3035.175486320213
  0
LINE
  5
87BA
330
1F
100
AcDbEntity
  8
Timber Perimeter (00134144)
100
AcDbLine
 10
5151.129253230575
 20
1063.337404837497
 30
0.0
 11
5151.129253230575
 21
3103.411816821379
 31
0.0
  0
LINE
  5
87C1
330
1F
100
AcDbEntity
  8
Timber Perimeter (00134144)
100
AcDbLine
 10
5686.071253148242
 20
477.4791646840339
 30
0.0
 11
5686.071253148242
 21
2837.442460727459
 31
0.0
  0
LINE
  5
87C2
330
1F
100
AcDbEntity
  8
Timber Perimeter (00134144)
100
AcDbLine
 10
5274.326402275829
 20
1764.647849074595
 30
0.0
 11
5274.326402275829
 21
3035.104903711054
 31
0.0
  0
LWPOLYLINE
  5
87C3
330
1F
100
AcDbEntity
  8
Timber Perimeter (00134144)
100
AcDbPolyline
 90
        4
 70
     0
 43
0.0
 10
6175.946583510846
 20
760.4298263579002
 10
6254.371059085855
 20
715.1514342736183
 10
6254.371059085855
 20
1723.906064056864
 10
6244.414797741505
 20
1713.949802712518
  0
LWPOLYLINE
  5
87C5
330
1F
100
AcDbEntity
  8
Timber Perimeter (00134144)
100
AcDbPolyline
 90
        3
 70
     0
 43
0.0
 10
5196.005298695338
 20
1676.99648053836
 10
5274.773246609904
 20
1631.519784606368
 10
5274.773246609904
 20
806.4112879287803
  0
LWPOLYLINE
  5
87C6
330
1F
100
AcDbEntity
  8
Timber Perimeter (00134144)
100
AcDbPolyline
 90
        5
 70
     0
 43
0.0
 10
5196.005298695334
 20
3080.319769488042
 10
5196.005298695334
 20
760.9345919967868
 10
5274.773246609904
 20
806.4112879287803
 10
5464.707510707605
 20
696.7526894236423
 10
5646.005298695327
 20
592.0803627254461
  0
LWPOLYLINE
  5
87C7
330
1F
100
AcDbEntity
  8
Timber Perimeter (00134144)
100
AcDbPolyline
 90
        3
 70
     0
 43
0.0
 10
5646.005298695334
 20
2820.534236988028
 10
5646.005298695334
 20
1770.949568823578
 10
5646.005298695334
 20
500.5362003993081
  0
LINE
  5
87C8
330
1F
100
AcDbEntity
  8
Timber Perimeter (00134144)
100
AcDbLine
 10
7283.283522580346
 20
2317.948951827935
 30
0.0
 11
6767.593508817717
 21
2020.215183563679
 31
0.0
  0
LWPOLYLINE
  5
87CA
330
1F
100
AcDbEntity
  8
Timber Perimeter (00134144)
100
AcDbPolyline
 90
        3
 70
     0
 43
0.0
 10
6767.593508817717
 20
1013.339420647473
 10
6689.920255428926
 20
1058.184094400324
 10
6689.920255428926
 20
1975.620802551603
  0
LWPOLYLINE
  5
87CB
330
1F
100
AcDbEntity
  8
Timber Perimeter (00134144)
100
AcDbPolyline
 90
        3
 70
     0
 43
0.0
 10
5764.371527045394
 20
2752.274124593862
 10
7323.283522580346
 20
3652.312384858905
 10
7323.283522580346
 20
3692.235864328785
  0
LINE
  5
87CC
330
1F
100
AcDbEntity
  8
Timber Perimeter (00134144)
100
AcDbLine
 10
6807.593508817717
 20
2082.819305376937
 30
0.0
 11
6807.593508817717
 21
3354.650251086153
 31
0.0
  0
LINE
  5
87CE
330
1F
100
AcDbEntity
  8
Timber Perimeter (00134144)
100
AcDbLine
 10
5151.129253230575
 20
1835.775756239268
 30
0.0
 11
5022.438837767126
 21
1910.07520224921
 31
0.0
  0
LINE
  5
87CF
330
1F
100
AcDbEntity
  8
Timber Perimeter (00134144)
100
AcDbLine
 10
5918.233292472098
 20
1530.087126758352
 30
0.0
 11
5918.233292472098
 21
521.10625628096
 31
0.0
  0
LINE
  5
87D2
330
1F
100
AcDbEntity
  8
Timber Perimeter (00134144)
100
AcDbLine
 10
6689.920255428926
 20
1058.184094400324
 30
0.0
 11
6294.196534122129
 21
829.7128973791252
 31
0.0
  0
LINE
  5
87D3
330
1F
100
AcDbEntity
  8
Timber Perimeter (00134144)
100
AcDbLine
 10
6767.593508817717
 20
1011.435361817077
 30
0.0
 11
6767.593508817717
 21
2020.464322244484
 31
0.0
  0
LWPOLYLINE
  5
87D4
330
1F
100
AcDbEntity
  8
Timber Perimeter (00134144)
100
AcDbPolyline
 90
        3
 70
     0
 43
0.0
 10
6254.371059085855
 20
1763.416175102499
 10
6176.049955505361
 20
1809.816184289028
 10
6176.049955505361
 20
2989.936568496625
  0
LINE
  5
87D5
330
1F
100
AcDbEntity
  8
MP Concrete Perimeter Isometric (00134230)
100
AcDbLine
 10
5764.371527045391
 20
392.2741245938613
 30
0.0
 11
5157.227574199191
 21
742.808849206467
 31
0.0
  0
LINE
  5
87D6
330
1F
100
AcDbEntity
  8
Timber Perimeter (00134144)
100
AcDbLine
 10
7323.283522580346
 20
3652.235864328781
 30
0.0
 11
7323.250389275265
 21
1332.293255336296
 31
0.0
  0
LINE
  5
87D7
330
1F
100
AcDbEntity
  8
Timber Perimeter (00134144)
100
AcDbLine
 10
7203.939384098733
 20
2403.268422584585
 30
0.0
 11
7283.283522580346
 21
2357.459062873607
 31
0.0
  0
LWPOLYLINE
  5
87D8
330
1F
100
AcDbEntity
  8
Timber Perimeter (00134144)
100
AcDbPolyline
 90
        3
 70
     0
 43
0.0
 10
6254.371059085855
 20
1763.416175102499
 10
5878.167338019186
 20
1546.21485547452
 10
5878.167338019186
 20
2817.974166692234
  0
LINE
  5
87D9
330
1F
100
AcDbEntity
  8
Timber Perimeter (00134144)
100
AcDbLine
 10
5646.005298695334
 20
1417.188859403029
 30
0.0
 11
5274.773246609904
 21
1631.519784606368
 31
0.0
  0
LWPOLYLINE
  5
87DA
330
1F
100
AcDbEntity
  8
Timber Perimeter (00134144)
100
AcDbPolyline
 90
        3
 70
     0
 43
0.0
 10
5804.371059085855
 20
1588.821156981874
 10
5878.167338019186
 20
1546.214855474521
 10
5804.371059085855
 20
1503.608553967167
  0
LINE
  5
87DB
330
1F
100
AcDbEntity
  8
Timber Perimeter (00134144)
100
AcDbLine
 10
5151.129253230575
 20
1744.157036817314
 30
0.0
 11
5047.780837080992
 21
1803.825272701596
 31
0.0
  0
LWPOLYLINE
  5
87DE
330
1F
100
AcDbEntity
  8
Timber Perimeter (00134144)
100
AcDbPolyline
 90
        3
 70
     0
 43
0.0
 10
6807.593508817717
 20
2043.309194331264
 10
6807.593508817717
 20
2043.309194331264
 10
6807.593508817717
 20
1034.578616594648
  0
LINE
  5
87E5
330
1F
100
AcDbEntity
  8
CAD_DEFAULT_LAYER
100
AcDbLine
 10
7283.283522580346
 20
1312.75110900605
 30
0.0
 11
7280.159516060296
 21
1310.947463000748
 31
0.0
  0
LINE
  5
87E6
330
1F
100
AcDbEntity
  8
MP Panel Perimeter (00134148)
100
AcDbLine
 10
3597.629953443022
 20
2034.091093052817
 30
0.0
 11
3597.629953443022
 21
2585.091093052816
 31
0.0
  0
LWPOLYLINE
  5
87E7
330
1F
100
AcDbEntity
  8
Timber Perimeter (00134144)
100
AcDbPolyline
 90
        4
 70
     0
 43
0.0
 10
5646.005298695334
 20
1550.05893817469
 10
5274.326402275827
 20
1764.647849074596
 10
5194.982263794216
 20
1718.838489363618
 10
5646.005298695331
 20
1458.440218752736
  0
LINE
  5
87EA
330
1F
100
AcDbEntity
  8
Timber Perimeter (00134144)
100
AcDbLine
 10
5918.233292472098
 20
2841.027594874254
 30
0.0
 11
5918.233292472098
 21
1569.346945063248
 31
0.0
  0
LWPOLYLINE
  5
87EB
330
1F
100
AcDbEntity
  8
Timber Perimeter (00134144)
100
AcDbPolyline
 90
        3
 70
     0
 43
0.0
 10
6767.593508817717
 20
2059.72529460935
 10
6689.920255428926
 20
2104.569968362203
 10
6689.920255428926
 20
3282.45300419709
  0
LWPOLYLINE
  5
87EC
330
1F
100
AcDbEntity
  8
MP Panel Perimeter (00134148)
100
AcDbPolyline
 90
        3
 70
     0
 43
0.0
 10
4296.687249544171
 20
3333.49017496985
 10
4253.385979354947
 20
3308.49017496985
 10
4253.385979354947
 20
2757.490174969849
  0
LINE
  5
87ED
330
1F
100
AcDbEntity
  8
Timber Perimeter (00134144)
100
AcDbLine
 10
5151.129253230575
 20
1702.587766341067
 30
0.0
 11
5060.546061551926
 21
1754.885996440789
 31
0.0
  0
LWPOLYLINE
  5
87EE
330
1F
100
AcDbEntity
  8
Timber Perimeter (00134144)
100
AcDbPolyline
 90
        2
 70
     0
 43
0.0
 10
5918.233292472098
 20
1660.965664485203
 10
6176.049955505361
 20
1809.816184289028
  0
LINE
  5
87EF
330
1F
100
AcDbEntity
  8
Timber Perimeter (00134144)
100
AcDbLine
 10
6294.371059085854
 20
1786.510185870084
 30
0.0
 11
6294.371059085854
 21
3058.243481606953
 31
0.0
  0
LINE
  5
87F0
330
1F
100
AcDbEntity
  8
Timber Perimeter (00134144)
100
AcDbLine
 10
6767.593508817717
 20
2020.465476304455
 30
0.0
 11
5804.371059085855
 21
1464.348735662273
 31
0.0
  0
LWPOLYLINE
  5
87F1
330
1F
100
AcDbEntity
  8
MP Panel Perimeter (00134148)
100
AcDbPolyline
 90
        5
 70
     0
 43
0.0
 10
3733.308217814116
 20
3107.757210594985
 10
3165.297416943191
 20
3435.698399380426
 10
3121.99614675397
 20
3410.698399380426
 10
4430.141421013463
 20
2655.440373147569
 10
4473.442691202687
 20
2680.440373147569
  0
LWPOLYLINE
  5
87F2
330
1F
100
AcDbEntity
  8
Timber Perimeter (00134144)
100
AcDbPolyline
 90
        3
 70
     0
 43
0.0
 10
7283.283522580346
 20
2357.459062873607
 10
6767.593508817717
 20
2059.725294609351
 10
6767.593508817717
 20
3331.558203752815
  0
LWPOLYLINE
  5
87F3
330
1F
100
AcDbEntity
  8
Timber Perimeter (00134144)
100
AcDbPolyline
 90
        3
 70
     0
 43
0.0
 10
5878.167338019186
 20
1506.955037169625
 10
5878.167338019186
 20
497.9722986752641
 10
5804.371059085855
 20
540.5786001826181
  0
LINE
  5
87F4
330
1F
100
AcDbEntity
  8
Timber Perimeter (00134144)
100
AcDbLine
 10
6176.049955505361
 20
761.5009384109182
 30
0.0
 11
6176.049955505361
 21
1678.687353821445
 31
0.0
  0
LINE
  5
87F5
330
1F
100
AcDbEntity
  8
Timber Perimeter (00134144)
100
AcDbLine
 10
5918.233292472098
 20
612.6504186070933
 30
0.0
 11
6175.946583510846
 21
761.4412565620582
 31
0.0
  0
LINE
  5
87F6
330
1F
100
AcDbEntity
  8
Timber Perimeter (00134144)
100
AcDbLine
 10
5764.305104632942
 20
2792.274125513029
 30
0.0
 11
5764.305104632942
 21
392.3124735915692
 31
0.0
  0
LINE
  5
8805
330
1F
100
AcDbEntity
  8
Timber Perimeter (00134144)
100
AcDbLine
 10
5764.304232023551
 20
432.2352717948861
 30
0.0
 11
5155.631310101904
 21
784.2445251794615
 31
0.0
  0
LINE
  5
8806
330
1F
100
AcDbEntity
  8
MP Concrete Perimeter Isometric (00134230)
100
AcDbLine
 10
5764.371527045391
 20
87.60000148735818
 30
0.0
 11
7502.074033588484
 21
1090.863011411499
 31
0.0
  0
LWPOLYLINE
  5
8807
330
1F
100
AcDbEntity
  8
MP Panel Perimeter (00134148)
100
AcDbPolyline
 90
        4
 70
     0
 43
0.0
 10
3894.90742861043
 20
3515.457862740903
 10
4378.635968234048
 20
3236.177060174504
 42
0.0815157563320402
 10
4549.977254851088
 20
2188.328286552166
 42
-0.0678735212758976
 10
4727.242496083142
 20
856.8642431831243
 42
-0.0678735212758976
  0
LINE
  5
8808
330
1F
100
AcDbEntity
  8
Timber Perimeter (00134144)
100
AcDbLine
 10
5804.371059085855
 20
1464.348735662273
 30
0.0
 11
5804.371059085855
 21
2775.367865184879
 31
0.0
  0
LINE
  5
880A
330
1F
100
AcDbEntity
  8
Timber Perimeter (00134144)
100
AcDbLine
 10
5804.371059085855
 20
455.3659017735991
 30
0.0
 11
5804.371059085855
 21
1464.348735662271
 31
0.0
  0
LINE
  5
880B
330
1F
100
AcDbEntity
  8
MP Panel Perimeter (00134148)
100
AcDbLine
 10
3121.99614675397
 20
2859.698399380428
 30
0.0
 11
3121.99614675397
 21
3410.698399380426
 31
0.0
  0
LWPOLYLINE
  5
880C
330
1F
100
AcDbEntity
  8
Timber Perimeter (00134144)
100
AcDbPolyline
 90
        4
 70
     0
 43
0.0
 10
7203.939384098733
 20
2272.139592116954
 10
7203.939384098733
 20
1354.953176706424
 10
7053.457782499727
 20
1268.072583515159
 10
6807.551047464818
 20
1126.098263847214
  0
LINE
  5
880D
330
1F
100
AcDbEntity
  8
Timber Perimeter (00134144)
100
AcDbLine
 10
6689.920255428926
 20
2104.569968362203
 30
0.0
 11
6294.371059085854
 21
1876.199533375788
 31
0.0
  0
LINE
  5
880E
330
1F
100
AcDbEntity
  8
Timber Perimeter (00134144)
100
AcDbLine
 10
6294.371059085854
 20
738.2434816069533
 30
0.0
 11
6294.371059085854
 21
1747.250367565189
 31
0.0
  0
LWPOLYLINE
  5
8811
330
1F
100
AcDbEntity
  8
MP Panel Perimeter (00134148)
100
AcDbPolyline
 90
        3
 70
     0
 43
0.0
 10
4639.885396711648
 20
2033.344632317321
 10
4596.584126522426
 20
2008.344632317321
 10
3121.99614675397
 20
2859.698399380428
  0
LWPOLYLINE
  5
8812
330
1F
100
AcDbEntity
  8
MP Panel Perimeter (00134148)
100
AcDbPolyline
 90
        3
 70
     0
 43
0.0
 10
4741.815798104297
 20
1423.646949959397
 10
4698.514527915071
 20
1398.646949959396
 10
3388.449267261564
 20
2155.013480853677
  0
LWPOLYLINE
  5
8816
330
1F
100
AcDbEntity
  8
Timber Perimeter (00134144)
100
AcDbPolyline
 90
        4
 70
     1
 43
0.0
 10
5686.071253148275
 20
2837.480808805947
 10
7244.916979960263
 20
3737.480808805949
 10
7323.250389275265
 20
3692.293255336299
 10
5764.371527045391
 20
2792.27412459386
  0
LINE
  5
881B
330
1F
100
AcDbEntity
  8
MP Panel Perimeter (00134148)
100
AcDbLine
 10
3733.308217814121
 20
3057.757210594985
 30
0.0
 11
3733.308217814121
 21
3422.158514886819
 31
0.0
  0
LINE
  5
881D
330
1F
100
AcDbEntity
  8
Timber Perimeter (00134144)
100
AcDbLine
 10
7390.757319431577
 20
1371.268399634208
 30
0.0
 11
5764.304232023551
 21
432.2352717948861
 31
0.0
  0
LWPOLYLINE
  5
8A38
330
1F
100
AcDbEntity
  8
Timber Perimeter (00134144)
100
AcDbPolyline
 90
        4
 70
     0
 43
0.0
 10
4114.309032545075
 20
3567.473096318259
 10
3690.551818647276
 20
3812.129437833203
 10
3690.551818647276
 20
3812.129437833203
 10
3690.551818647276
 20
3812.129437833203
  0
LWPOLYLINE
  5
8A49
330
1F
100
AcDbEntity
  8
Timber Perimeter (00134144)
100
AcDbPolyline
 90
        3
 70
     0
 43
0.0
 10
3824.488139255576
 20
3604.801267075731
 10
3655.910802495899
 20
3702.129437833203
 10
3655.910802495895
 20
3792.1294378332
  0
LWPOLYLINE
  5
8A52
330
1F
100
AcDbEntity
  8
Timber Perimeter (00134144)
100
AcDbPolyline
 90
        5
 70
     0
 43
0.0
 10
3937.071441747547
 20
3539.80126707573
 10
3937.071441747547
 20
3629.80126707573
 10
3461.028701314428
 20
3354.957862740902
 10
3426.387685163049
 20
3374.957862740901
 10
3902.430425596169
 20
3649.80126707573
  0
LINE
  5
8A67
330
1F
100
AcDbEntity
  8
MP Panel Perimeter (00134148)
100
AcDbLine
 10
3733.308217814121
 20
3552.158514886818
 30
0.0
 11
3733.308217814121
 21
3608.757210594985
 31
0.0
  0
LWPOLYLINE
  5
8A71
330
1F
100
AcDbEntity
  8
MP Panel Perimeter (00134148)
100
AcDbPolyline
 90
        3
 70
     0
 43
0.0
 10
3775.472230951237
 20
3633.100614929816
 10
3733.308217814121
 20
3608.757210594986
 10
3782.324126118452
 20
3580.457862740904
  0
LWPOLYLINE
  5
8A78
330
1F
100
AcDbEntity
  8
Timber Perimeter (00134144)
100
AcDbPolyline
 90
        3
 70
     0
 43
0.0
 10
3426.387685163049
 20
3374.957862740901
 10
3426.387685163049
 20
3284.9578627409
 10
3461.028701314428
 20
3264.9578627409
  0
LINE
  5
8B96
330
1F
100
AcDbEntity
  8
MP Hidden Lines (00134167)
 48
10.0
100
AcDbLine
 10
4727.172640522121
 20
841.3600714585747
 30
0.0
 11
3388.449267261564
 21
1613.182152279281
 31
0.0
  0
LINE
  5
8B99
330
1F
100
AcDbEntity
  8
MP Hidden Lines (00134167)
 48
10.0
100
AcDbLine
 10
3388.449267261564
 20
1628.726592312293
 30
0.0
 11
3388.449267261564
 21
1613.182152279281
 31
0.0
  0
LINE
  5
8B9B
330
1F
100
AcDbEntity
  8
MP Panel Perimeter (00134148)
100
AcDbLine
 10
3388.449267261564
 20
1628.726592312293
 30
0.0
 11
3388.449267261564
 21
2155.013480853677
 31
0.0
  0
LINE
  5
8B9C
330
1F
100
AcDbEntity
  8
MP Panel Perimeter (00134148)
100
AcDbLine
 10
3388.449267261564
 20
2155.013480853677
 30
0.0
 11
3431.750537450785
 21
2180.013480853677
 31
0.0
  0
LINE
  5
8B9D
330
1F
100
AcDbEntity
  8
MP Panel Perimeter (00134148)
100
AcDbLine
 10
3431.750537450785
 20
2180.013480853677
 30
0.0
 11
3597.629953443022
 21
2084.242955377541
 31
0.0
  0
LINE
  5
8BAA
330
1F
100
AcDbEntity
  8
Timber Perimeter (00134144)
100
AcDbLine
 10
5686.071253148242
 20
477.4791646840346
 30
0.0
 11
5686.071253148242
 21
2797.404110810583
 31
0.0
  0
LINE
  5
8BAB
330
1F
100
AcDbEntity
  8
Timber Perimeter (00134144)
100
AcDbLine
 10
5764.371527045394
 20
2752.274124593862
 30
0.0
 11
4826.962556181654
 21
3293.410748267393
 31
0.0
  0
LINE
  5
8C62
330
1F
100
AcDbEntity
  8
MP Panel Perimeter (00134148)
100
AcDbLine
 10
4080.8052734458
 20
3458.129691983432
 30
0.0
 11
4210.259604593717
 21
3383.389199047418
 31
0.0
  0
LINE
  5
8C74
330
1F
100
AcDbEntity
  8
Timber Perimeter (00134144)
100
AcDbLine
 10
7390.757319431577
 20
1331.268399634208
 30
0.0
 11
7390.757319431577
 21
1371.268399634208
 31
0.0
  0
LINE
  5
8C75
330
1F
100
AcDbEntity
  8
Timber Perimeter (00134144)
100
AcDbLine
 10
7203.939384098733
 20
1354.953176706424
 30
0.0
 11
7283.283522580346
 21
1309.143816995447
 31
0.0
  0
LINE
  5
8C76
330
1F
100
AcDbEntity
  8
Timber Perimeter (00134144)
100
AcDbLine
 10
7283.283522580346
 20
1309.143816995447
 30
0.0
 11
7283.283522580346
 21
3629.143816995447
 31
0.0
  0
LINE
  5
8C77
330
1F
100
AcDbEntity
  8
Timber Perimeter (00134144)
100
AcDbLine
 10
7323.251501483425
 20
1410.168344702568
 30
0.0
 11
7390.757319431577
 21
1371.193842538336
 31
0.0
  0
LINE
  5
8CAB
330
1F
100
AcDbEntity
  8
Timber Perimeter (00134144)
100
AcDbLine
 10
3690.551818647276
 20
3812.129437833203
 30
0.0
 11
3655.910802495892
 21
3792.1294378332
 31
0.0
  0
LINE
  5
8CAD
330
1F
100
AcDbEntity
  8
Timber Perimeter (00134144)
100
AcDbLine
 10
3655.910802495892
 20
3792.1294378332
 30
0.0
 11
4079.668016393698
 21
3547.473096318256
 31
0.0
  0
LINE
  5
8CAE
330
1F
100
AcDbEntity
  8
Timber Inner (00134145)
100
AcDbLine
 10
4079.668016393698
 20
3547.473096318256
 30
0.0
 11
4114.309032545075
 21
3477.473096318256
 31
0.0
  0
LINE
  5
8CAF
330
1F
100
AcDbEntity
  8
Timber Perimeter (00134144)
100
AcDbLine
 10
4114.309032545075
 20
3477.473096318256
 30
0.0
 11
4079.668016393698
 21
3457.473096318256
 31
0.0
  0
LINE
  5
8CB0
330
1F
100
AcDbEntity
  8
Timber Inner (00134145)
100
AcDbLine
 10
4079.668016393698
 20
3457.473096318256
 30
0.0
 11
4114.309032545075
 21
3567.473096318259
 31
0.0
  0
LINE
  5
8CB1
330
1F
100
AcDbEntity
  8
Timber Perimeter (00134144)
100
AcDbLine
 10
4114.309032545075
 20
3567.473096318259
 30
0.0
 11
4079.668016393698
 21
3547.473096318256
 31
0.0
  0
LINE
  5
8CB2
330
1F
100
AcDbEntity
  8
Timber Perimeter (00134144)
100
AcDbLine
 10
4079.668016393698
 20
3547.473096318256
 30
0.0
 11
4079.668016393698
 21
3457.473096318256
 31
0.0
  0
LINE
  5
8CB3
330
1F
100
AcDbEntity
  8
MP Panel Perimeter (00134148)
100
AcDbLine
 10
4079.668016393698
 20
3457.473096318256
 30
0.0
 11
3937.07144174755
 21
3539.801267075731
 31
0.0
  0
LINE
  5
8CB4
330
1F
100
AcDbEntity
  8
Timber Perimeter (00134144)
100
AcDbLine
 10
3937.071441747547
 20
3539.801267075731
 30
0.0
 11
3461.028701314428
 21
3264.9578627409
 31
0.0
  0
LINE
  5
8CB5
330
1F
100
AcDbEntity
  8
Timber Perimeter (00134144)
100
AcDbLine
 10
3461.028701314428
 20
3264.9578627409
 30
0.0
 11
3461.028701314428
 21
3354.957862740902
 31
0.0
  0
LWPOLYLINE
  5
8E87
330
1F
100
AcDbEntity
  8
MP Panel Perimeter (00134148)
100
AcDbPolyline
 90
        2
 70
     0
 43
0.0
 10
4740.638283299577
 20
849.1301818277083
 10
4762.52427894131
 20
861.7660673029451
  0
LINE
  5
8E88
330
1F
100
AcDbEntity
  8
MP Hidden Lines (00134167)
 48
10.0
100
AcDbLine
 10
4727.172640522121
 20
841.3600714585747
 30
0.0
 11
4727.242496083138
 21
856.8642431831266
 31
0.0
  0
LINE
  5
8E89
330
1F
100
AcDbEntity
  8
MP Hidden Lines (00134167)
 48
10.0
100
AcDbLine
 10
4727.172640522121
 20
841.3600714585747
 30
0.0
 11
4740.638283299577
 21
849.1301818277086
 31
0.0
  0
INSERT
  5
9170
330
1F
100
AcDbEntity
  8
Detail Flashings (00134165)
100
AcDbBlockReference
  2
A$C076F0716
 10
4828.685703130741
 20
866.4587956732622
 30
-0.0000000000000111
 41
-1.0
  0
LWPOLYLINE
  5
9A31
330
1F
100
AcDbEntity
  8
Timber Perimeter (00134144)
100
AcDbPolyline
 90
        4
 70
     0
 43
0.0
 10
4149.623685602968
 20
3418.397363199284
 10
4170.013591325513
 20
3448.977207421313
 10
4210.259604593749
 20
3428.3891990474
 10
4188.594828773267
 20
3395.897363199285
  0
LWPOLYLINE
  5
9A32
330
1F
100
AcDbEntity
  8
Timber Inner (00134145)
100
AcDbPolyline
 90
        2
 70
     0
 43
0.0
 10
4161.199506466448
 20
3435.758247725394
 10
4159.764215887153
 20
3412.542725309986
  0
LWPOLYLINE
  5
9A33
330
1F
100
AcDbEntity
  8
Timber Inner (00134145)
100
AcDbPolyline
 90
        5
 70
     0
 43
0.0
 10
4181.918103255448
 20
3442.887406931826
 10
4178.620509147516
 20
3438.975519606727
 10
4177.01093936335
 20
3411.802222852019
 10
4176.945725354584
 20
3411.67275290125
 10
4176.392573951111
 20
3402.942338305579
  0
LWPOLYLINE
  5
9A34
330
1F
100
AcDbEntity
  8
Timber Inner (00134145)
100
AcDbPolyline
 90
        9
 70
     0
 43
0.0
 10
4195.440862102012
 20
3435.969785787194
 10
4192.13794739185
 20
3431.929542293963
 10
4191.277358788306
 20
3430.546967251169
 10
4191.211663734804
 20
3430.414872771699
 10
4190.500236439106
 20
3428.50457918137
 10
4189.997016448564
 20
3425.970016333186
 10
4189.982309704737
 20
3425.826861071002
 10
4189.982309704737
 20
3421.861479203608
 10
4191.652871503577
 20
3400.483675249461
  0
LINE
  5
9DC2
330
1F
100
AcDbEntity
  8
MP Panel Perimeter (00134148)
100
AcDbLine
 10
4421.937238423263
 20
3261.177060174502
 30
0.0
 11
4378.635968234048
 21
3236.177060174504
 31
0.0
  0
LWPOLYLINE
  5
A8FC
330
1F
100
AcDbEntity
  8
MP Panel Perimeter (00134148)
100
AcDbPolyline
 90
        3
 70
     0
 43
0.0
 10
4421.937238423265
 20
3261.177060174502
 10
4210.259604593717
 20
3383.389199047418
 10
4210.259604593717
 20
3383.389199047418
1001
AcDbBlockRepETag
1070
     1
1071
       92
1005
A8FC
  0
ARC
  5
A8FD
330
1F
100
AcDbEntity
  8
MP Panel Perimeter (00134148)
100
AcDbCircle
 10
1187.636335774652
 20
1069.463953761067
 30
0.0
 40
3573.269382701446
100
AcDbArc
 50
3.300794135617042
 51
7.288743187195271
1001
AcDbBlockRepETag
1070
     1
1071
       95
1005
A8FD
  0
HATCH
  5
A8FE
330
1F
100
AcDbEntity
  8
MASONS Barricade Building Wrap Hatch (00134140)
100
AcDbHatch
 10
0.0
 20
0.0
 30
0.0
210
0.0
220
0.0
230
1.0
  2
ANSI31
 70
     0
 71
     0
 91
        4
 92
        7
 72
     0
 73
     1
 93
       36
 10
4772.823406457802
 20
901.7255928970202
 10
4910.372100739862
 20
822.3118172265927
 10
4901.196536718066
 20
817.0143028686416
 10
5157.459576029149
 20
668.8657739357586
 10
5151.129253230571
 20
1068.361672527758
 10
5124.153284186526
 20
1368.123496377897
 10
5072.223496721939
 20
1689.976744759179
 10
5010.439271466512
 20
1957.222901199003
 10
4847.962534501685
 20
2644.348715835724
 10
4838.253787787928
 20
2726.113940426394
 10
4820.540903224166
 20
2995.944963797234
 10
4823.735283751528
 20
3239.343616440196
 10
4828.960296478637
 20
3322.25735236926
 10
3869.258822857868
 20
3876.341256505791
 10
3869.258822857868
 20
3708.952900846144
 10
4114.309032545074
 20
3567.473096318259
 10
4114.309033342526
 20
3477.473095857853
 10
4165.821090570271
 20
3447.732611013595
 10
4171.288461423419
 20
3450.889199047419
 10
4210.259604593718
 20
3428.389199047418
 10
4210.259604593718
 20
3383.389199047416
 10
4312.641070591737
 20
3324.279232093434
 10
4421.937238423267
 20
3261.177060174504
 10
4427.171345325599
 20
3069.195037078207
 10
4447.543507622897
 20
2845.660952950789
 10
4464.847072832625
 20
2726.026083707179
 10
4526.010437147351
 20
2435.465933168152
 10
4638.97571724811
 20
2032.819428634173
 10
4732.03151371033
 20
1522.803676240677
 10
4754.914516262592
 20
1557.122608928327
 10
4793.885659432894
 20
1534.622608928327
 10
4793.878016383064
 20
1333.572608464322
 10
4754.977731263593
 20
1275.205173215494
 10
4763.035741462718
 20
1088.234386943838
 10
4793.874365173624
 20
1134.351124109036
 10
4793.866722123794
 20
933.3011236450293
 97
        0
 92
       16
 93
        6
 72
     1
 10
4795.29763776195
 20
2088.541510051362
 11
4795.291964835153
 21
1887.491509531765
 72
     1
 10
4795.291964835153
 20
1887.491509531765
 11
4756.347688788138
 21
1829.061027952946
 72
     1
 10
4756.347688788138
 20
1829.061027952946
 11
4717.355552932366
 21
1851.573148085556
 72
     1
 10
4717.355552932366
 20
1851.573148085556
 11
4717.355455429816
 21
2052.594439274345
 72
     1
 10
4717.355455429816
 20
2052.594439274345
 11
4756.326494591649
 21
2111.041510051363
 72
     1
 10
4756.326494591649
 20
2111.041510051363
 11
4795.29763776195
 21
2088.541510051362
 97
        0
 92
       16
 93
        6
 72
     1
 10
4793.950780669058
 20
2651.17337477125
 11
4793.94510774226
 21
2450.123374251653
 72
     1
 10
4793.94510774226
 20
2450.123374251653
 11
4755.000831695244
 21
2391.692892672834
 72
     1
 10
4755.000831695244
 20
2391.692892672834
 11
4716.00869583947
 21
2414.205012805443
 72
     1
 10
4716.00869583947
 20
2414.205012805443
 11
4716.008598336922
 21
2615.226303994232
 72
     1
 10
4716.008598336922
 20
2615.226303994232
 11
4754.979637498758
 21
2673.673374771249
 72
     1
 10
4754.979637498758
 20
2673.673374771249
 11
4793.950780669058
 21
2651.17337477125
 97
        0
 92
       16
 93
        6
 72
     1
 10
4793.92958647257
 20
3091.408315287214
 11
4793.923913545774
 21
2890.358314767617
 72
     1
 10
4793.923913545774
 20
2890.358314767617
 11
4754.979637498758
 21
2831.927833188799
 72
     1
 10
4754.979637498758
 20
2831.927833188799
 11
4715.987501642985
 21
2854.439953321409
 72
     1
 10
4715.987501642985
 20
2854.439953321409
 11
4715.987404140434
 21
3055.461244510197
 72
     1
 10
4715.987404140434
 20
3055.461244510197
 11
4754.95844330227
 21
3113.908315287214
 72
     1
 10
4754.95844330227
 20
3113.908315287214
 11
4793.92958647257
 21
3091.408315287214
 97
        0
 75
     0
 76
     1
 52
0.0
 41
400.0
 77
     0
 78
     1
 53
45.0
 43
0.000000000001819
 44
0.0
 45
-35.35533905932737
 46
35.35533905932739
 79
     0
 47
3.478326836069785
 98
        2
 10
0.000000000001819
 20
0.0
 10
4782.319429925229
 20
2302.005726660033
1001
ACAD
1010
0.0
1020
0.0
1030
0.0
1001
AcDbBlockRepETag
1070
     1
1071
       96
1005
A8FE
  0
LINE
  5
A8FF
330
1F
100
AcDbEntity
  8
MP Barricade Building Wrap Perimeter Isometric (00134183)
100
AcDbLine
 10
4823.735283751528
 20
3239.343616440185
 30
0.0
 11
4820.540903224166
 21
2995.944963797225
 31
0.0
1001
AcDbBlockRepETag
1070
     1
1071
       97
1005
A8FF
  0
LINE
  5
A900
330
1F
100
AcDbEntity
  8
MP Barricade Building Wrap Perimeter Isometric (00134183)
100
AcDbLine
 10
4820.540903224166
 20
2995.944963797225
 30
0.0
 11
4838.253787787926
 21
2726.113940426385
 31
0.0
1001
AcDbBlockRepETag
1070
     1
1071
       98
1005
A900
  0
LINE
  5
A901
330
1F
100
AcDbEntity
  8
MP Barricade Building Wrap Perimeter Isometric (00134183)
100
AcDbLine
 10
4838.253787787926
 20
2726.113940426385
 30
0.0
 11
4847.962534501685
 21
2644.348715835727
 31
0.0
1001
AcDbBlockRepETag
1070
     1
1071
       99
1005
A901
  0
LINE
  5
A902
330
1F
100
AcDbEntity
  8
MP Barricade Building Wrap Perimeter Isometric (00134183)
100
AcDbLine
 10
4847.962534501685
 20
2644.348715835727
 30
0.0
 11
5010.439271466523
 21
1957.222901198887
 31
0.0
1001
AcDbBlockRepETag
1070
     1
1071
      100
1005
A902
  0
LINE
  5
A903
330
1F
100
AcDbEntity
  8
MP Barricade Building Wrap Perimeter Isometric (00134183)
100
AcDbLine
 10
5010.439271466523
 20
1957.222901198887
 30
0.0
 11
5072.223496721941
 21
1689.976744759183
 31
0.0
1001
AcDbBlockRepETag
1070
     1
1071
      101
1005
A903
  0
LINE
  5
A904
330
1F
100
AcDbEntity
  8
MP Barricade Building Wrap Perimeter Isometric (00134183)
100
AcDbLine
 10
5072.223496721941
 20
1689.976744759183
 30
0.0
 11
5124.153284186526
 21
1368.123496377896
 31
0.0
1001
AcDbBlockRepETag
1070
     1
1071
      102
1005
A904
  0
LINE
  5
A905
330
1F
100
AcDbEntity
  8
MP Barricade Building Wrap Perimeter Isometric (00134183)
100
AcDbLine
 10
5124.153284186526
 20
1368.123496377896
 30
0.0
 11
5151.129253230571
 21
1068.36167252776
 31
0.0
1001
AcDbBlockRepETag
1070
     1
1071
      103
1005
A905
  0
LINE
  5
A906
330
1F
100
AcDbEntity
  8
MP Barricade Building Wrap Perimeter Isometric (00134183)
100
AcDbLine
 10
5151.129253230571
 20
1068.36167252776
 30
0.0
 11
5157.459576029149
 21
668.8657739357586
 31
0.0
1001
AcDbBlockRepETag
1070
     1
1071
      104
1005
A906
  0
LINE
  5
A907
330
1F
100
AcDbEntity
  8
MP Barricade Building Wrap Perimeter Isometric (00134183)
100
AcDbLine
 10
5157.459576029149
 20
668.8657739357586
 30
0.0
 11
4901.196536718066
 21
817.0143028686421
 31
-0.0000000000000214
1001
AcDbBlockRepETag
1070
     1
1071
      105
1005
A907
  0
LINE
  5
A908
330
1F
100
AcDbEntity
  8
Timber Perimeter (00134144)
100
AcDbLine
 10
4793.866722123794
 20
933.3011236450301
 30
0.0
 11
4793.874365173624
 21
1134.351124109036
 31
0.0
1001
AcDbBlockRepETag
1070
     1
1071
      106
1005
A908
  0
LINE
  5
A909
330
1F
100
AcDbEntity
  8
Timber Perimeter (00134144)
100
AcDbLine
 10
4793.874365173624
 20
1134.351124109036
 30
0.0
 11
4763.035741462718
 21
1088.234386943837
 31
0.0
1001
AcDbBlockRepETag
1070
     1
1071
      107
1005
A909
  0
LINE
  5
A90A
330
1F
100
AcDbEntity
  8
MP Panel Perimeter (00134148)
100
AcDbLine
 10
4763.035741462718
 20
1088.234386943837
 30
0.0
 11
4754.977731263593
 21
1275.205173215494
 31
0.0
1001
AcDbBlockRepETag
1070
     1
1071
      108
1005
A90A
  0
LINE
  5
A90B
330
1F
100
AcDbEntity
  8
Timber Perimeter (00134144)
100
AcDbLine
 10
4793.878016383064
 20
1333.572608464321
 30
0.0
 11
4793.885659432894
 21
1534.622608928327
 31
0.0
1001
AcDbBlockRepETag
1070
     1
1071
      109
1005
A90B
  0
LINE
  5
A90C
330
1F
100
AcDbEntity
  8
Timber Perimeter (00134144)
100
AcDbLine
 10
4793.885659432894
 20
1534.622608928327
 30
0.0
 11
4754.914516262592
 21
1557.122608928327
 31
0.0
1001
AcDbBlockRepETag
1070
     1
1071
      110
1005
A90C
  0
LINE
  5
A90D
330
1F
100
AcDbEntity
  8
MP Panel Perimeter (00134148)
100
AcDbLine
 10
4732.03151371033
 20
1522.803676240677
 30
0.0
 11
4638.975717248114
 21
2032.819428634173
 31
0.0
1001
AcDbBlockRepETag
1070
     1
1071
      112
1005
A90D
  0
LINE
  5
A90E
330
1F
100
AcDbEntity
  8
MP Panel Perimeter (00134148)
100
AcDbLine
 10
4638.975717248114
 20
2032.819428634173
 30
0.0
 11
4526.010437147351
 21
2435.465933168157
 31
0.0
1001
AcDbBlockRepETag
1070
     1
1071
      113
1005
A90E
  0
LINE
  5
A90F
330
1F
100
AcDbEntity
  8
MP Panel Perimeter (00134148)
100
AcDbLine
 10
4526.010437147351
 20
2435.465933168157
 30
0.0
 11
4464.847072832625
 21
2726.026083707188
 31
0.0
1001
AcDbBlockRepETag
1070
     1
1071
      114
1005
A90F
  0
LINE
  5
A910
330
1F
100
AcDbEntity
  8
MP Panel Perimeter (00134148)
100
AcDbLine
 10
4464.847072832625
 20
2726.026083707188
 30
0.0
 11
4447.543507622895
 21
2845.660952950792
 31
0.0
1001
AcDbBlockRepETag
1070
     1
1071
      115
1005
A910
  0
LINE
  5
A911
330
1F
100
AcDbEntity
  8
MP Panel Perimeter (00134148)
100
AcDbLine
 10
4447.543507622895
 20
2845.660952950792
 30
0.0
 11
4427.171345325599
 21
3069.195037078195
 31
0.0
1001
AcDbBlockRepETag
1070
     1
1071
      116
1005
A911
  0
LINE
  5
A912
330
1F
100
AcDbEntity
  8
MP Panel Perimeter (00134148)
100
AcDbLine
 10
4427.171345325599
 20
3069.195037078195
 30
0.0
 11
4421.937238423267
 21
3261.177060174504
 31
0.0
1001
AcDbBlockRepETag
1070
     1
1071
      117
1005
A912
  0
LINE
  5
A913
330
1F
100
AcDbEntity
  8
Timber Perimeter (00134144)
100
AcDbLine
 10
4210.259604593717
 20
3428.389199047418
 30
0.0
 11
4114.309032545075
 21
3477.47309631826
 31
0.0
1001
AcDbBlockRepETag
1070
     1
1071
      118
1005
A913
  0
LINE
  5
A914
330
1F
100
AcDbEntity
  8
Timber Perimeter (00134144)
100
AcDbLine
 10
4114.309032545075
 20
3477.47309631826
 30
0.0
 11
4114.309033342526
 21
3477.473095857853
 31
0.0
1001
AcDbBlockRepETag
1070
     1
1071
      119
1005
A914
  0
LINE
  5
A915
330
1F
100
AcDbEntity
  8
Timber Perimeter (00134144)
100
AcDbLine
 10
4114.309033342526
 20
3477.473095857853
 30
0.0
 11
4114.309032545075
 21
3567.473096318259
 31
0.0
1001
AcDbBlockRepETag
1070
     1
1071
      120
1005
A915
  0
LINE
  5
A916
330
1F
100
AcDbEntity
  8
Timber Perimeter (00134144)
100
AcDbLine
 10
4114.309032545075
 20
3567.473096318259
 30
0.0
 11
3869.258822857868
 21
3708.952900846144
 31
0.0
1001
AcDbBlockRepETag
1070
     1
1071
      121
1005
A916
  0
LINE
  5
A917
330
1F
100
AcDbEntity
  8
MP Barricade Building Wrap Perimeter Isometric (00134183)
100
AcDbLine
 10
3869.258822857868
 20
3708.952900846144
 30
0.0
 11
3869.258822857868
 21
3876.341256505791
 31
0.0
1001
AcDbBlockRepETag
1070
     1
1071
      122
1005
A917
  0
LINE
  5
A918
330
1F
100
AcDbEntity
  8
MP Barricade Building Wrap Perimeter Isometric (00134183)
100
AcDbLine
 10
3869.258822857868
 20
3876.341256505791
 30
0.0
 11
4828.960296478637
 21
3322.25735236926
 31
0.0
1001
AcDbBlockRepETag
1070
     1
1071
      123
1005
A918
  0
LINE
  5
A919
330
1F
100
AcDbEntity
  8
MP Barricade Building Wrap Perimeter Isometric (00134183)
100
AcDbLine
 10
4828.960296478637
 20
3322.25735236926
 30
0.0
 11
4823.735283751528
 21
3239.343616440185
 31
0.0
1001
AcDbBlockRepETag
1070
     1
1071
      124
1005
A919
  0
LWPOLYLINE
  5
A91A
330
1F
100
AcDbEntity
  8
Timber Perimeter (00134144)
100
AcDbPolyline
 90
        7
 70
     0
 43
0.0
 10
4756.347688788138
 20
1829.061027952946
 10
4795.291964835153
 20
1887.491509531765
 10
4795.29763776195
 20
2088.541510051362
 10
4756.326494591649
 20
2111.041510051364
 10
4717.355351421351
 20
2052.59437922503
 10
4717.355552932366
 20
1851.573148085556
 10
4756.347688788138
 20
1829.061027952946
1001
AcDbBlockRepETag
1070
     1
1071
      125
1005
A91A
  0
LWPOLYLINE
  5
A91B
330
1F
100
AcDbEntity
  8
Timber Perimeter (00134144)
100
AcDbPolyline
 90
        6
 70
     0
 43
0.0
 10
4795.29763776195
 20
2088.541510051363
 10
4756.326494591649
 20
2111.041510051363
 10
4717.355351421351
 20
2052.59437922503
 10
4717.355552932366
 20
1851.573148085556
 10
4756.347688788138
 20
1829.061027952946
 10
4795.291964835153
 20
1887.491509531765
1001
AcDbBlockRepETag
1070
     1
1071
      126
1005
A91B
  0
LWPOLYLINE
  5
A91C
330
1F
100
AcDbEntity
  8
Timber Perimeter (00134144)
100
AcDbPolyline
 90
        6
 70
     1
 43
0.0
 10
4795.29763776195
 20
2088.541510051362
 10
4795.291964835153
 20
1887.491509531765
 10
4756.347688788138
 20
1829.061027952946
 10
4717.355552932366
 20
1851.573148085556
 10
4717.355455429816
 20
2052.594439274345
 10
4756.326494591649
 20
2111.041510051363
1001
AcDbBlockRepETag
1070
     1
1071
      127
1005
A91C
  0
LWPOLYLINE
  5
A91D
330
1F
100
AcDbEntity
  8
Timber Perimeter (00134144)
100
AcDbPolyline
 90
        4
 70
     1
 43
0.0
 10
4717.355351421351
 20
2052.59437922503
 10
4756.326494591649
 20
2111.041510051363
 10
4795.29763776195
 20
2088.541510051362
 10
4756.326494591649
 20
2030.09437922503
1001
AcDbBlockRepETag
1070
     1
1071
      128
1005
A91D
  0
LINE
  5
A91E
330
1F
100
AcDbEntity
  8
Timber Perimeter (00134144)
100
AcDbLine
 10
4756.347688788138
 20
1829.061027952946
 30
0.0
 11
4756.326494591649
 21
2030.094379225032
 31
0.0
1001
AcDbBlockRepETag
1070
     1
1071
      129
1005
A91E
  0
LWPOLYLINE
  5
A91F
330
1F
100
AcDbEntity
  8
Timber Perimeter (00134144)
100
AcDbPolyline
 90
        7
 70
     0
 43
0.0
 10
4755.000831695244
 20
2391.692892672834
 10
4793.94510774226
 20
2450.123374251653
 10
4793.950780669058
 20
2651.17337477125
 10
4754.979637498758
 20
2673.673374771252
 10
4716.008494328458
 20
2615.226243944916
 10
4716.00869583947
 20
2414.205012805443
 10
4755.000831695244
 20
2391.692892672834
1001
AcDbBlockRepETag
1070
     1
1071
      130
1005
A91F
  0
LWPOLYLINE
  5
A920
330
1F
100
AcDbEntity
  8
Timber Perimeter (00134144)
100
AcDbPolyline
 90
        6
 70
     0
 43
0.0
 10
4793.950780669058
 20
2651.17337477125
 10
4754.979637498758
 20
2673.673374771249
 10
4716.008494328458
 20
2615.226243944916
 10
4716.00869583947
 20
2414.205012805443
 10
4755.000831695244
 20
2391.692892672834
 10
4793.94510774226
 20
2450.123374251653
1001
AcDbBlockRepETag
1070
     1
1071
      131
1005
A920
  0
LWPOLYLINE
  5
A921
330
1F
100
AcDbEntity
  8
Timber Perimeter (00134144)
100
AcDbPolyline
 90
        6
 70
     1
 43
0.0
 10
4793.950780669058
 20
2651.17337477125
 10
4793.94510774226
 20
2450.123374251653
 10
4755.000831695244
 20
2391.692892672834
 10
4716.00869583947
 20
2414.205012805443
 10
4716.008598336922
 20
2615.226303994232
 10
4754.979637498758
 20
2673.673374771249
1001
AcDbBlockRepETag
1070
     1
1071
      132
1005
A921
  0
LWPOLYLINE
  5
A922
330
1F
100
AcDbEntity
  8
Timber Inner (00134145)
100
AcDbPolyline
 90
        9
 70
     0
 43
0.0
 10
4744.890682541756
 20
2658.54242344924
 10
4743.446014910331
 20
2635.175229193269
 10
4742.712834849908
 20
2621.527409899457
 10
4741.370148224087
 20
2612.02173291904
 10
4741.343055305926
 20
2611.122901294725
 10
4741.731192916137
 20
2606.654511549352
 10
4742.227177428513
 20
2604.407327045934
 10
4743.521132553034
 20
2600.770580868188
 10
4744.578167217822
 20
2598.731535611582
1001
AcDbBlockRepETag
1070
     1
1071
      133
1005
A922
  0
LWPOLYLINE
  5
A923
330
1F
100
AcDbEntity
  8
Timber Inner (00134145)
100
AcDbPolyline
 90
        7
 70
     0
 43
0.0
 10
4730.144083192063
 20
2636.426089824038
 10
4730.022729135408
 20
2621.0421639495
 10
4729.398297516438
 20
2619.073457894917
 10
4728.724779657844
 20
2615.305797043107
 10
4728.634475192198
 20
2613.271651334169
 10
4728.927020190002
 20
2609.624168151942
 10
4729.394622507551
 20
2607.49775923731
1001
AcDbBlockRepETag
1070
     1
1071
      134
1005
A923
  0
LWPOLYLINE
  5
A924
330
1F
100
AcDbEntity
  8
Timber Inner (00134145)
100
AcDbPolyline
 90
       12
 70
     0
 43
0.0
 10
4766.666621110474
 20
2666.925891637012
 10
4762.311685222825
 20
2661.759695330572
 10
4760.702115438657
 20
2634.586398575865
 10
4760.636901429893
 20
2634.456928625096
 10
4759.773843221026
 20
2620.835240356311
 10
4758.891317605125
 20
2616.606069608924
 10
4757.944389675786
 20
2611.357163927254
 10
4757.90114464006
 20
2609.084959237217
 10
4758.499559271782
 20
2605.55862472518
 10
4759.625029083641
 20
2602.28513383385
 10
4759.854870291116
 20
2601.793555843432
 10
4760.408086229285
 20
2600.867582056318
1001
AcDbBlockRepETag
1070
     1
1071
      135
1005
A924
  0
LWPOLYLINE
  5
A925
330
1F
100
AcDbEntity
  8
Timber Inner (00134145)
100
AcDbPolyline
 90
        9
 70
     0
 43
0.0
 10
4779.673538662957
 20
2659.416344286759
 10
4775.829123467158
 20
2654.713718017808
 10
4774.96853486361
 20
2653.331142975015
 10
4774.902839810112
 20
2653.199048495545
 10
4774.191412514414
 20
2651.288754905215
 10
4773.688192523872
 20
2648.754192057032
 10
4773.673485780046
 20
2648.611036794848
 10
4773.673485780046
 20
2644.645654927454
 10
4775.344047578886
 20
2623.267850973306
1001
AcDbBlockRepETag
1070
     1
1071
      136
1005
A925
  0
LWPOLYLINE
  5
A926
330
1F
100
AcDbEntity
  8
Timber Perimeter (00134144)
100
AcDbPolyline
 90
        4
 70
     1
 43
0.0
 10
4716.008494328458
 20
2615.226243944916
 10
4754.979637498758
 20
2673.673374771249
 10
4793.950780669058
 20
2651.17337477125
 10
4754.979637498758
 20
2592.726243944917
1001
AcDbBlockRepETag
1070
     1
1071
      137
1005
A926
  0
LINE
  5
A927
330
1F
100
AcDbEntity
  8
Timber Perimeter (00134144)
100
AcDbLine
 10
4755.000831695244
 20
2391.692892672834
 30
0.0
 11
4754.979637498758
 21
2592.726243944919
 31
0.0
1001
AcDbBlockRepETag
1070
     1
1071
      138
1005
A927
  0
LWPOLYLINE
  5
A928
330
1F
100
AcDbEntity
  8
Timber Perimeter (00134144)
100
AcDbPolyline
 90
        7
 70
     0
 43
0.0
 10
4754.979637498758
 20
2831.927833188799
 10
4793.923913545774
 20
2890.358314767617
 10
4793.92958647257
 20
3091.408315287214
 10
4754.95844330227
 20
3113.908315287217
 10
4715.98730013197
 20
3055.461184460881
 10
4715.987501642985
 20
2854.439953321409
 10
4754.979637498758
 20
2831.927833188799
1001
AcDbBlockRepETag
1070
     1
1071
      139
1005
A928
  0
LWPOLYLINE
  5
A929
330
1F
100
AcDbEntity
  8
Timber Perimeter (00134144)
100
AcDbPolyline
 90
        6
 70
     0
 43
0.0
 10
4793.92958647257
 20
3091.408315287215
 10
4754.95844330227
 20
3113.908315287214
 10
4715.98730013197
 20
3055.461184460881
 10
4715.987501642985
 20
2854.439953321409
 10
4754.979637498758
 20
2831.927833188799
 10
4793.923913545774
 20
2890.358314767617
1001
AcDbBlockRepETag
1070
     1
1071
      140
1005
A929
  0
LWPOLYLINE
  5
A92A
330
1F
100
AcDbEntity
  8
Timber Perimeter (00134144)
100
AcDbPolyline
 90
        6
 70
     1
 43
0.0
 10
4793.92958647257
 20
3091.408315287214
 10
4793.923913545774
 20
2890.358314767617
 10
4754.979637498758
 20
2831.927833188799
 10
4715.987501642985
 20
2854.439953321409
 10
4715.987404140434
 20
3055.461244510197
 10
4754.95844330227
 20
3113.908315287214
1001
AcDbBlockRepETag
1070
     1
1071
      141
1005
A92A
  0
LWPOLYLINE
  5
A92B
330
1F
100
AcDbEntity
  8
Timber Perimeter (00134144)
100
AcDbPolyline
 90
        4
 70
     1
 43
0.0
 10
4715.98730013197
 20
3055.461184460881
 10
4754.95844330227
 20
3113.908315287214
 10
4793.92958647257
 20
3091.408315287214
 10
4754.95844330227
 20
3032.961184460881
1001
AcDbBlockRepETag
1070
     1
1071
      142
1005
A92B
  0
LINE
  5
A92C
330
1F
100
AcDbEntity
  8
Timber Perimeter (00134144)
100
AcDbLine
 10
4754.979637498758
 20
2831.927833188799
 30
0.0
 11
4754.95844330227
 21
3032.961184460884
 31
0.0
1001
AcDbBlockRepETag
1070
     1
1071
      143
1005
A92C
  0
LWPOLYLINE
  5
A92D
330
1F
100
AcDbEntity
  8
Timber Perimeter (00134144)
100
AcDbPolyline
 90
        5
 70
     0
 43
0.0
 10
4754.935710459078
 20
1275.14212682991
 10
4793.879986506095
 20
1333.57260840873
 10
4793.885659432894
 20
1534.622608928327
 10
4754.914516262592
 20
1557.122608928328
 10
4732.031507604697
 20
1522.803723416458
1001
AcDbBlockRepETag
1070
     1
1071
      144
1005
A92D
  0
LWPOLYLINE
  5
A92E
330
1F
100
AcDbEntity
  8
Timber Perimeter (00134144)
100
AcDbPolyline
 90
        3
 70
     0
 43
0.0
 10
4793.885659432894
 20
1534.622608928327
 10
4754.914516262592
 20
1557.122608928327
 10
4732.031507604697
 20
1522.803723416457
1001
AcDbBlockRepETag
1070
     1
1071
      145
1005
A92E
  0
LWPOLYLINE
  5
A92F
330
1F
100
AcDbEntity
  8
Timber Perimeter (00134144)
100
AcDbPolyline
 90
        6
 70
     0
 43
0.0
 10
4732.03151371033
 20
1522.803676240677
 10
4754.914516262592
 20
1557.122608928327
 10
4793.885659432894
 20
1534.622608928327
 10
4793.879986506095
 20
1333.57260840873
 10
4754.935710459078
 20
1275.14212682991
 10
4753.543741109364
 20
1275.945780708672
1001
AcDbBlockRepETag
1070
     1
1071
      146
1005
A92F
  0
LWPOLYLINE
  5
A930
330
1F
100
AcDbEntity
  8
Timber Perimeter (00134144)
100
AcDbPolyline
 90
        5
 70
     0
 43
0.0
 10
4732.031507604697
 20
1522.803723416457
 10
4754.914516262592
 20
1557.122608928327
 10
4793.885659432894
 20
1534.622608928327
 10
4754.914516262592
 20
1476.175478101994
 10
4736.484010244823
 20
1486.816335712654
1001
AcDbBlockRepETag
1070
     1
1071
      147
1005
A930
  0
LINE
  5
A931
330
1F
100
AcDbEntity
  8
Timber Perimeter (00134144)
100
AcDbLine
 10
4754.935710459078
 20
1275.14212682991
 30
0.0
 11
4754.914516262592
 21
1476.175478101996
 31
0.0
1001
AcDbBlockRepETag
1070
     1
1071
      148
1005
A931
  0
LWPOLYLINE
  5
A932
330
1F
100
AcDbEntity
  8
Timber Perimeter (00134144)
100
AcDbPolyline
 90
        4
 70
     0
 43
0.0
 10
4772.823406456772
 20
901.7255928954739
 10
4793.868692246827
 20
933.3011235894392
 10
4793.874365173624
 20
1134.351124109036
 10
4758.368279133338
 20
1154.850572442267
1001
AcDbBlockRepETag
1070
     1
1071
      149
1005
A932
  0
LWPOLYLINE
  5
A933
330
1F
100
AcDbEntity
  8
Timber Perimeter (00134144)
100
AcDbPolyline
 90
        2
 70
     0
 43
0.0
 10
4793.874365173624
 20
1134.351124109037
 10
4758.368279133338
 20
1154.850572442265
1001
AcDbBlockRepETag
1070
     1
1071
      150
1005
A933
  0
LWPOLYLINE
  5
A934
330
1F
100
AcDbEntity
  8
Timber Perimeter (00134144)
100
AcDbPolyline
 90
        4
 70
     0
 43
0.0
 10
4758.368279133338
 20
1154.850572442265
 10
4793.874365173624
 20
1134.351124109036
 10
4793.868692246827
 20
933.3011235894392
 10
4772.823406457802
 20
901.7255928970202
1001
AcDbBlockRepETag
1070
     1
1071
      151
1005
A934
  0
LWPOLYLINE
  5
A935
330
1F
100
AcDbEntity
  8
Timber Perimeter (00134144)
100
AcDbPolyline
 90
        2
 70
     0
 43
0.0
 10
4758.368279133338
 20
1154.850572442265
 10
4793.874365173624
 20
1134.351124109036
1001
AcDbBlockRepETag
1070
     1
1071
      152
1005
A935
  0
LWPOLYLINE
  5
A936
330
1F
100
AcDbEntity
  8
Timber Inner (00134145)
100
AcDbPolyline
 90
        9
 70
     0
 43
0.0
 10
4744.869488345268
 20
3098.777363965207
 10
4743.424820713842
 20
3075.410169709237
 10
4742.691640653421
 20
3061.762350415424
 10
4741.3489540276
 20
3052.256673435006
 10
4741.321861109439
 20
3051.357841810693
 10
4741.709998719654
 20
3046.88945206532
 10
4742.205983232025
 20
3044.642267561902
 10
4743.49993835655
 20
3041.005521384156
 10
4744.556973021337
 20
3038.96647612755
1001
AcDbBlockRepETag
1070
     1
1071
      153
1005
A936
  0
LWPOLYLINE
  5
A937
330
1F
100
AcDbEntity
  8
Timber Inner (00134145)
100
AcDbPolyline
 90
        7
 70
     0
 43
0.0
 10
4730.122888995576
 20
3076.661030340006
 10
4730.001534938923
 20
3061.277104465467
 10
4729.377103319952
 20
3059.308398410884
 10
4728.703585461357
 20
3055.540737559074
 10
4728.613280995711
 20
3053.506591850136
 10
4728.905825993517
 20
3049.85910866791
 10
4729.373428311061
 20
3047.732699753278
1001
AcDbBlockRepETag
1070
     1
1071
      154
1005
A937
  0
LWPOLYLINE
  5
A938
330
1F
100
AcDbEntity
  8
Timber Inner (00134145)
100
AcDbPolyline
 90
       12
 70
     0
 43
0.0
 10
4766.645426913988
 20
3107.16083215298
 10
4762.290491026337
 20
3101.994635846539
 10
4760.68092124217
 20
3074.821339091832
 10
4760.615707233405
 20
3074.691869141064
 10
4759.75264902454
 20
3061.070180872278
 10
4758.87012340864
 20
3056.841010124891
 10
4757.923195479298
 20
3051.592104443221
 10
4757.879950443576
 20
3049.319899753185
 10
4758.478365075296
 20
3045.793565241148
 10
4759.603834887155
 20
3042.520074349818
 10
4759.833676094628
 20
3042.0284963594
 10
4760.3868920328
 20
3041.102522572286
1001
AcDbBlockRepETag
1070
     1
1071
      155
1005
A938
  0
LWPOLYLINE
  5
A939
330
1F
100
AcDbEntity
  8
Timber Inner (00134145)
100
AcDbPolyline
 90
        9
 70
     0
 43
0.0
 10
4779.65234446647
 20
3099.651284802727
 10
4775.807929270672
 20
3094.948658533776
 10
4774.947340667124
 20
3093.566083490982
 10
4774.881645613624
 20
3093.433989011512
 10
4774.170218317927
 20
3091.523695421183
 10
4773.666998327386
 20
3088.989132572999
 10
4773.652291583558
 20
3088.845977310816
 10
4773.652291583558
 20
3084.880595443423
 10
4775.322853382401
 20
3063.502791489275
1001
AcDbBlockRepETag
1070
     1
1071
      156
1005
A939
  0
LWPOLYLINE
  5
A93A
330
1F
100
AcDbEntity
  8
Timber Inner (00134145)
100
AcDbPolyline
 90
        9
 70
     0
 43
0.0
 10
4746.237539634647
 20
2095.910558729353
 10
4744.792872003222
 20
2072.543364473383
 10
4744.059691942799
 20
2058.89554517957
 10
4742.717005316981
 20
2049.389868199152
 10
4742.68991239882
 20
2048.491036574838
 10
4743.078050009033
 20
2044.022646829465
 10
4743.574034521405
 20
2041.775462326048
 10
4744.867989645928
 20
2038.138716148301
 10
4745.925024310716
 20
2036.099670891695
1001
AcDbBlockRepETag
1070
     1
1071
      157
1005
A93A
  0
LWPOLYLINE
  5
A93B
330
1F
100
AcDbEntity
  8
Timber Inner (00134145)
100
AcDbPolyline
 90
        7
 70
     0
 43
0.0
 10
4731.490940284957
 20
2073.794225104151
 10
4731.369586228304
 20
2058.410299229612
 10
4730.745154609334
 20
2056.44159317503
 10
4730.071636750738
 20
2052.67393232322
 10
4729.981332285091
 20
2050.639786614282
 10
4730.273877282896
 20
2046.992303432055
 10
4730.741479600443
 20
2044.865894517423
1001
AcDbBlockRepETag
1070
     1
1071
      158
1005
A93B
  0
LWPOLYLINE
  5
A93C
330
1F
100
AcDbEntity
  8
Timber Inner (00134145)
100
AcDbPolyline
 90
       12
 70
     0
 43
0.0
 10
4768.013478203369
 20
2104.294026917125
 10
4763.658542315718
 20
2099.127830610685
 10
4762.048972531551
 20
2071.954533855978
 10
4761.983758522783
 20
2071.825063905209
 10
4761.120700313919
 20
2058.203375636424
 10
4760.238174698019
 20
2053.974204889037
 10
4759.291246768678
 20
2048.725299207367
 10
4759.248001732954
 20
2046.45309451733
 10
4759.846416364676
 20
2042.926760005293
 10
4760.971886176534
 20
2039.653269113963
 10
4761.201727384007
 20
2039.161691123545
 10
4761.75494332218
 20
2038.235717336431
1001
AcDbBlockRepETag
1070
     1
1071
      159
1005
A93C
  0
LWPOLYLINE
  5
A93D
330
1F
100
AcDbEntity
  8
Timber Inner (00134145)
100
AcDbPolyline
 90
        9
 70
     0
 43
0.0
 10
4781.020395755851
 20
2096.784479566872
 10
4777.17598056005
 20
2092.081853297921
 10
4776.315391956504
 20
2090.699278255128
 10
4776.249696903004
 20
2090.567183775658
 10
4775.538269607308
 20
2088.656890185328
 10
4775.035049616763
 20
2086.122327337145
 10
4775.020342872938
 20
2085.979172074961
 10
4775.020342872938
 20
2082.013790207567
 10
4776.690904671779
 20
2060.635986253419
1001
AcDbBlockRepETag
1070
     1
1071
      160
1005
A93D
  0
LWPOLYLINE
  5
A93E
330
1F
100
AcDbEntity
  8
Timber Inner (00134145)
100
AcDbPolyline
 90
        9
 70
     0
 43
0.0
 10
4744.82556130559
 20
1541.991657606317
 10
4743.380893674166
 20
1518.624463350347
 10
4742.647713613745
 20
1504.976644056534
 10
4741.305026987921
 20
1495.470967076116
 10
4741.277934069762
 20
1494.572135451802
 10
4741.666071679976
 20
1490.103745706429
 10
4742.16205619235
 20
1487.856561203012
 10
4743.456011316872
 20
1484.219815025265
 10
4744.513045981658
 20
1482.180769768659
1001
AcDbBlockRepETag
1070
     1
1071
      161
1005
A93E
  0
LWPOLYLINE
  5
A93F
330
1F
100
AcDbEntity
  8
Timber Inner (00134145)
100
AcDbPolyline
 90
       12
 70
     0
 43
0.0
 10
4766.60149987431
 20
1550.375125794089
 10
4762.24656398666
 20
1545.208929487649
 10
4760.636994202494
 20
1518.035632732942
 10
4760.57178019373
 20
1517.906162782173
 10
4759.708721984863
 20
1504.284474513388
 10
4758.826196368963
 20
1500.055303766001
 10
4757.879268439621
 20
1494.806398084331
 10
4757.836023403897
 20
1492.534193394295
 10
4758.434438035616
 20
1489.007858882257
 10
4759.559907847479
 20
1485.734367990928
 10
4759.789749054953
 20
1485.24279000051
 10
4760.342964993122
 20
1484.316816213395
1001
AcDbBlockRepETag
1070
     1
1071
      162
1005
A93F
  0
LWPOLYLINE
  5
A940
330
1F
100
AcDbEntity
  8
Timber Inner (00134145)
100
AcDbPolyline
 90
        9
 70
     0
 43
0.0
 10
4779.608417426794
 20
1542.865578443836
 10
4775.764002230995
 20
1538.162952174886
 10
4774.903413627447
 20
1536.780377132092
 10
4774.837718573947
 20
1536.648282652622
 10
4774.126291278252
 20
1534.737989062293
 10
4773.623071287708
 20
1532.203426214109
 10
4773.608364543883
 20
1532.060270951926
 10
4773.608364543883
 20
1528.094889084531
 10
4775.278926342724
 20
1506.717085130384
1001
AcDbBlockRepETag
1070
     1
1071
      163
1005
A940
  0
LWPOLYLINE
  5
A941
330
1F
100
AcDbEntity
  8
Timber Inner (00134145)
100
AcDbPolyline
 90
        3
 70
     0
 43
0.0
 10
4766.590205615043
 20
1150.103640974799
 10
4762.235269727391
 20
1144.937444668359
 10
4761.693703543204
 20
1135.794542769984
1001
AcDbBlockRepETag
1070
     1
1071
      164
1005
A941
  0
LWPOLYLINE
  5
A942
330
1F
100
AcDbEntity
  8
Timber Inner (00134145)
100
AcDbPolyline
 90
        9
 70
     0
 43
0.0
 10
4779.597123167523
 20
1142.594093624546
 10
4775.752707971724
 20
1137.891467355596
 10
4774.892119368177
 20
1136.508892312802
 10
4774.826424314677
 20
1136.376797833332
 10
4774.114997018982
 20
1134.466504243003
 10
4773.611777028437
 20
1131.931941394819
 10
4773.597070284611
 20
1131.788786132636
 10
4773.597070284611
 20
1127.823404265241
 10
4775.267632083452
 20
1106.445600311094
1001
AcDbBlockRepETag
1070
     1
1071
      165
1005
A942
  0
LINE
  5
A943
330
1F
100
AcDbEntity
  8
MP Panel Perimeter (00134148)
100
AcDbLine
 10
4763.035741462718
 20
1088.234386943837
 30
0.0
 11
4762.524278941312
 21
861.7660673029464
 31
0.0
1001
AcDbBlockRepETag
1070
     1
1071
      166
1005
A943
  0
LINE
  5
A944
330
1F
100
AcDbEntity
  8
Timber Perimeter (00134144)
100
AcDbLine
 10
4210.259604593717
 20
3428.389199047418
 30
0.0
 11
4210.259604593717
 21
3383.389199047418
 31
0.0
1001
AcDbBlockRepETag
1070
     1
1071
      167
1005
A944
  0
MTEXT
  5
A946
330
1F
100
AcDbEntity
  8
MP Annotation (00134142)
100
AcDbMText
 10
2856.294436775934
 20
602.1542938499814
 30
0.0
 40
80.0
 41
1281.766945222331
 46
0.0
 71
     3
 72
     5
  1
MASONS Base Shoe
  7
2mm
 73
     1
 44
1.0
1001
ACAD_MLEADERVER
1070
     2
  0
LINE
  5
A947
330
1F
100
AcDbEntity
  8
MP Annotation (00134142)
100
AcDbLine
 10
4389.96001889533
 20
561.4721656098722
 30
0.0
 11
2936.294436775934
 21
561.4721656098722
 31
0.0
1001
ACAD_MLEADERVER
1070
     2
  0
LWPOLYLINE
  5
A948
330
1F
100
AcDbEntity
  8
MP Annotation (00134142)
100
AcDbPolyline
 90
        2
 70
     0
 43
0.0
 10
4565.669966207016
 20
734.9779502631633
 10
4389.96001889533
 20
561.4721656098722
1001
ACAD_MLEADERVER
1070
     2
  0
SOLID
  5
A949
330
1F
100
AcDbEntity
  8
MP Annotation (00134142)
100
AcDbTrace
 10
4546.93317410519
 20
753.9527686508072
 30
0.0
 11
4679.518876532879
 21
847.398702874119
 31
0.0
 12
4584.406758308841
 22
716.0031318755196
 32
0.0
 13
4584.406758308841
 23
716.0031318755196
 33
0.0
1001
ACAD_MLEADERVER
1070
     2
  0
MTEXT
  5
A94A
330
1F
100
AcDbEntity
  8
MP Annotation (00134142)
100
AcDbMText
 10
7562.614208545852
 20
3994.453774056239
 30
0.0
 40
80.0
 41
896.2900927822447
 46
0.0
 71
     1
 72
     5
  1
45x45 H3.2 AAC ENVIRO Ties
  7
2mm
 73
     1
 44
1.0
1001
ACAD_MLEADERVER
1070
     2
  0
LINE
  5
A94B
330
1F
100
AcDbEntity
  8
MP Annotation (00134142)
100
AcDbLine
 10
5643.936989308302
 20
3953.77164581613
 30
0.0
 11
7482.614208545853
 21
3953.77164581613
 31
0.0
1001
ACAD_MLEADERVER
1070
     2
  0
LWPOLYLINE
  5
A94C
330
1F
100
AcDbEntity
  8
MP Annotation (00134142)
100
AcDbPolyline
 90
        2
 70
     0
 43
0.0
 10
4874.092269193848
 20
3187.681631596571
 10
5643.936989308302
 20
3953.77164581613
1001
ACAD_MLEADERVER
1070
     2
  0
SOLID
  5
A94D
330
1F
100
AcDbEntity
  8
MP Annotation (00134142)
100
AcDbTrace
 10
4892.902298495087
 20
3168.779411917452
 30
0.0
 11
4760.678951119138
 21
3074.821455789138
 31
0.0
 12
4855.282239892609
 22
3206.583851275689
 32
0.0
 13
4855.282239892609
 23
3206.583851275689
 33
0.0
1001
ACAD_MLEADERVER
1070
     2
  0
MTEXT
  5
A94E
330
1F
100
AcDbEntity
  8
MP Annotation (00134142)
100
AcDbMText
 10
7562.614208545852
 20
2822.994470785893
 30
0.0
 40
80.0
 41
1281.766945222331
 46
0.0
 71
     1
 72
     5
  1
Timber\PFraming
  7
2mm
 73
     1
 44
1.0
1001
ACAD_MLEADERVER
1070
     2
  0
LINE
  5
A94F
330
1F
100
AcDbEntity
  8
MP Annotation (00134142)
100
AcDbLine
 10
7012.189297881294
 20
2771.234579926411
 30
0.0
 11
7482.614208545853
 21
2771.234579926411
 31
0.0
1001
ACAD_MLEADERVER
1070
     2
  0
LWPOLYLINE
  5
A950
330
1F
100
AcDbEntity
  8
MP Annotation (00134142)
100
AcDbPolyline
 90
        2
 70
     0
 43
0.0
 10
6880.856258980904
 20
2902.276028431172
 10
7012.189297881294
 20
2771.234579926411
1001
ACAD_MLEADERVER
1070
     2
  0
SOLID
  5
A951
330
1F
100
AcDbEntity
  8
MP Annotation (00134142)
100
AcDbTrace
 10
6862.021045634127
 20
2883.398903403974
 30
0.0
 11
6767.593508817717
 21
3015.287308511841
 31
0.0
 12
6899.691472327686
 22
2921.15315345837
 32
0.0
 13
6899.691472327686
 23
2921.15315345837
 33
0.0
1001
ACAD_MLEADERVER
1070
     2
  0
MTEXT
  5
A952
330
1F
100
AcDbEntity
  8
MP Annotation (00134142)
100
AcDbMText
 10
7562.614208545852
 20
445.600646573597
 30
0.0
 40
80.0
 41
1281.766945222331
 46
0.0
 71
     1
 72
     5
  1
Masons Dryfix\PDPC under framing
  7
2mm
 73
     1
 44
1.0
1001
ACAD_MLEADERVER
1070
     2
  0
LINE
  5
A953
330
1F
100
AcDbEntity
  8
MP Annotation (00134142)
100
AcDbLine
 10
6878.716778293678
 20
393.8407557141153
 30
0.0
 11
7482.614208545853
 21
393.8407557141153
 31
0.0
1001
ACAD_MLEADERVER
1070
     2
  0
LWPOLYLINE
  5
A954
330
1F
100
AcDbEntity
  8
MP Annotation (00134142)
100
AcDbPolyline
 90
        2
 70
     0
 43
0.0
 10
6575.623749089157
 20
683.3377571106936
 10
6878.716778293678
 20
393.8407557141153
1001
ACAD_MLEADERVER
1070
     2
  0
SOLID
  5
A955
330
1F
100
AcDbEntity
  8
MP Annotation (00134142)
100
AcDbTrace
 10
6557.205040244692
 20
664.0540262576153
 30
0.0
 11
6459.921363970687
 21
793.8500101774798
 31
0.0
 12
6594.042457933621
 22
702.6214879637718
 32
0.0
 13
6594.042457933621
 23
702.6214879637718
 33
0.0
1001
ACAD_MLEADERVER
1070
     2
  0
MTEXT
  5
A956
330
1F
100
AcDbEntity
  8
MP Annotation (00134142)
100
AcDbMText
 10
2856.294436775934
 20
279.1970070607266
 30
0.0
 40
80.0
 41
1281.766945222331
 46
0.0
 71
     3
 72
     5
  1
Concrete Foundation
  7
2mm
 73
     1
 44
1.0
1001
ACAD_MLEADERVER
1070
     2
  0
LINE
  5
A957
330
1F
100
AcDbEntity
  8
MP Annotation (00134142)
100
AcDbLine
 10
4521.076346198879
 20
238.5148788206175
 30
0.0
 11
2936.294436775934
 21
238.5148788206175
 31
0.0
1001
ACAD_MLEADERVER
1070
     2
  0
LWPOLYLINE
  5
A958
330
1F
100
AcDbEntity
  8
MP Annotation (00134142)
100
AcDbPolyline
 90
        2
 70
     0
 43
0.0
 10
4754.596935535634
 20
473.5543907490654
 10
4521.076346198879
 20
238.5148788206175
1001
ACAD_MLEADERVER
1070
     2
  0
SOLID
  5
A959
330
1F
100
AcDbEntity
  8
MP Annotation (00134142)
100
AcDbTrace
 10
4735.679728367705
 20
492.3493470958303
 30
0.0
 11
4867.366673616223
 21
587.0576337566348
 31
0.0
 12
4773.514142703562
 22
454.7594344023004
 32
0.0
 13
4773.514142703562
 23
454.7594344023004
 33
0.0
1001
ACAD_MLEADERVER
1070
     2
  0
MTEXT
  5
A95A
330
1F
100
AcDbEntity
  8
MP Annotation (00134142)
100
AcDbMText
 10
2856.294436775934
 20
2108.23695268042
 30
0.0
 40
80.0
 41
997.5195105278034
 46
0.0
 71
     3
 72
     5
  1
50mm AAC ENVIRO Panel
  7
2mm
 73
     1
 44
1.0
1001
ACAD_MLEADERVER
1070
     2
  0
LINE
  5
A95B
330
1F
100
AcDbEntity
  8
MP Annotation (00134142)
100
AcDbLine
 10
3232.556806194182
 20
2067.554824440311
 30
0.0
 11
2936.294436775934
 21
2067.554824440311
 31
0.0
1001
ACAD_MLEADERVER
1070
     2
  0
LWPOLYLINE
  5
A95C
330
1F
100
AcDbEntity
  8
MP Annotation (00134142)
100
AcDbPolyline
 90
        2
 70
     0
 43
0.0
 10
3420.221681277086
 20
1880.743208947928
 10
3232.556806194182
 20
2067.554824440311
1001
ACAD_MLEADERVER
1070
     2
  0
SOLID
  5
A95D
330
1F
100
AcDbEntity
  8
MP Annotation (00134142)
100
AcDbTrace
 10
3439.034848713589
 20
1899.642305278632
 30
0.0
 11
3533.616259261311
 21
1767.864204328913
 31
0.0
 12
3401.408513840583
 22
1861.844112617224
 32
0.0
 13
3401.408513840583
 23
1861.844112617224
 33
0.0
1001
ACAD_MLEADERVER
1070
     2
  0
MTEXT
  5
A95E
330
1F
100
AcDbEntity
  8
MP Annotation (00134142)
100
AcDbMText
 10
2856.294436775934
 20
2741.939839072799
 30
0.0
 40
80.0
 41
1034.919283117124
 46
0.0
 71
     3
 72
     5
  1
MASONS Barricade Building Wrap
  7
2mm
 73
     1
 44
1.0
1001
ACAD_MLEADERVER
1070
     2
  0
LINE
  5
A95F
330
1F
100
AcDbEntity
  8
MP Annotation (00134142)
100
AcDbLine
 10
4269.202310169101
 20
2690.179948213318
 30
0.0
 11
2936.294436775934
 21
2690.179948213318
 31
0.0
1001
ACAD_MLEADERVER
1070
     2
  0
LWPOLYLINE
  5
A960
330
1F
100
AcDbEntity
  8
MP Annotation (00134142)
100
AcDbPolyline
 90
        2
 70
     0
 43
0.0
 10
4534.801913455495
 20
2426.74614592867
 10
4269.202310169101
 20
2690.179948213318
1001
ACAD_MLEADERVER
1070
     2
  0
SOLID
  5
A961
330
1F
100
AcDbEntity
  8
MP Annotation (00134142)
100
AcDbTrace
 10
4553.580741919328
 20
2445.679363104758
 30
0.0
 11
4648.401216512024
 21
2314.073175145654
 31
0.0
 12
4516.023084991657
 22
2407.812928752581
 32
0.0
 13
4516.023084991657
 23
2407.812928752581
 33
0.0
1001
ACAD_MLEADERVER
1070
     2
  0
MTEXT
  5
A962
330
1F
100
AcDbEntity
  8
MP Annotation (00134142)
100
AcDbMText
 10
2856.294436775934
 20
3771.681520044115
 30
0.0
 40
80.0
 41
0.0
 46
0.0
 71
     3
 72
     5
  1
Soffit framing
  7
2mm
 73
     1
 44
1.0
1001
ACAD_MLEADERVER
1070
     2
  0
LINE
  5
A963
330
1F
100
AcDbEntity
  8
MP Annotation (00134142)
100
AcDbLine
 10
3468.503986749344
 20
3719.921629184634
 30
0.0
 11
2936.294436775934
 21
3719.921629184634
 31
0.0
1001
ACAD_MLEADERVER
1070
     2
  0
LWPOLYLINE
  5
A964
330
1F
100
AcDbEntity
  8
MP Annotation (00134142)
100
AcDbPolyline
 90
        2
 70
     0
 43
0.0
 10
3585.789252103888
 20
3604.958264905608
 10
3468.503986749344
 20
3719.921629184634
1001
ACAD_MLEADERVER
1070
     2
  0
SOLID
  5
A965
330
1F
100
AcDbEntity
  8
MP Annotation (00134142)
100
AcDbTrace
 10
3604.455985798006
 20
3624.002008348114
 30
0.0
 11
3700.051712758926
 21
3492.957862740902
 31
0.0
 12
3567.122518409771
 22
3585.914521463101
 32
0.0
 13
3567.122518409771
 23
3585.914521463101
 33
0.0
1001
ACAD_MLEADERVER
1070
     2
  0
TEXT
  5
A966
330
1F
100
AcDbEntity
  8
MP Annotation (00134142)
100
AcDbText
 10
2388.866661117098
 20
-649.0570873064852
 30
0.0
 40
176.0
  1
GENERAL LAYOUT
100
AcDbText
1001
ACAD_MLEADERVER
1070
     2
1001
AcadAnnotative
1000
AnnotativeData
1002
{
1070
     1
1070
     0
1002
}
  0
TEXT
  5
A967
330
1F
100
AcDbEntity
  8
MP Annotation (00134142)
100
AcDbText
 10
2388.986715687357
 20
-945.3917848962985
 30
0.0
 40
176.0
  1
Concrete Floor Without
100
AcDbText
1001
ACAD_MLEADERVER
1070
     2
1001
AcadAnnotative
1000
AnnotativeData
1002
{
1070
     1
1070
     0
1002
}
  0
TEXT
  5
A968
330
1F
100
AcDbEntity
  8
MP Annotation (00134142)
100
AcDbText
 10
2382.623823463619
 20
-1238.725118229632
 30
0.0
 40
176.0
  1
Rebate
100
AcDbText
1001
ACAD_MLEADERVER
1070
     2
1001
AcadAnnotative
1000
AnnotativeData
1002
{
1070
     1
1070
     0
1002
}
  0
TEXT
  5
A969
330
1F
100
AcDbEntity
  8
MP Annotation (00134142)
100
AcDbText
 10
6283.623557073835
 20
-649.0570873064855
 30
0.0
 40
176.0
  1
Detail 03  NTS
100
AcDbText
1001
ACAD_MLEADERVER
1070
     2
1001
AcadAnnotative
1000
AnnotativeData
1002
{
1070
     1
1070
     0
1002
}
  0
VIEWPORT
  5
16C0
102
{ACAD_XDICTIONARY
360
16C1
102
}
330
16B9
100
AcDbEntity
 67
     1
  8
0
100
AcDbViewport
 10
104.2062500119209
 20
147.7062500119209
 30
0.0
 40
658.3619146608315
 41
314.226
 68
     1
 69
     1
 12
104.2062500119209
 22
147.7062500119209
 13
0.0
 23
0.0
 14
10.0
 24
10.0
 15
10.0
 25
10.0
 16
0.0
 26
0.0
 36
1.0
 17
0.0
 27
0.0
 37
0.0
 42
50.0
 43
0.0
 44
0.0
 45
314.226
 50
0.0
 51
0.0
 72
  1000
 90
   819200
  1

281
     0
 71
     0
 74
     0
110
0.0
120
0.0
130
0.0
111
1.0
121
0.0
131
0.0
112
0.0
122
1.0
132
0.0
 79
     0
146
0.0
170
     0
 61
     5
348
220
292
     1
282
     1
141
0.0
142
0.0
 63
   250
421
  3355443
  0
VIEWPORT
  5
8661
102
{ACAD_XDICTIONARY
360
8662
102
}
330
16B9
100
AcDbEntity
 67
     1
  8
0
100
AcDbViewport
 10
104.2062515318394
 20
147.7062439024448
 30
0.0
 40
208.4104189386481
 41
295.4095336800116
 68
     2
 69
     2
 12
4543.97437827739
 22
1592.825626204305
 13
0.0
 23
0.0
 14
0.5
 24
0.5
 15
0.5
 25
0.5
 16
0.0
 26
0.0
 36
1736.523449255554
 17
575.4799205165253
 27
202.4030064071585
 37
-142.8182665861146
 42
50.0
 43
0.0
 44
0.0
 45
11816.38134720046
 50
0.0
 51
0.0
 72
  1000
 90
   819296
  1

281
     0
 71
     1
 74
     0
110
0.0
120
0.0
130
0.0
111
1.0
121
0.0
131
0.0
112
0.0
122
1.0
132
0.0
 79
     0
146
0.0
170
     0
 61
     5
348
220
292
     1
282
     1
141
0.0
142
0.0
 63
   250
421
  3355443
  0
ENDSEC
  0
SECTION
  2
OBJECTS
  0
DICTIONARY
  5
C
330
0
100
AcDbDictionary
281
     1
  3
ACAD_BACKGROUND
350
83C
  3
ACAD_COLOR
350
EB
  3
ACAD_DWFDEFINITIONS
350
40F3
  3
ACAD_FIELDLIST
350
E70
  3
ACAD_FLATSHOT
350
89C
  3
ACAD_GROUP
350
D
  3
ACAD_IMAGE_DICT
350
E6E
  3
ACAD_IMAGE_VARS
350
E74
  3
ACAD_LAYOUT
350
1A
  3
ACAD_MATERIAL
350
EA
  3
ACAD_MLEADERSTYLE
350
2C3
  3
ACAD_MLINESTYLE
350
17
  3
ACAD_PLOTSETTINGS
350
19
  3
ACAD_PLOTSTYLENAME
350
E
  3
ACAD_SCALELIST
350
2A1
  3
ACAD_TABLESTYLE
350
22B
  3
ACAD_VISUALSTYLE
350
21A
  3
AcAec
350
A21
  3
ACDB_RECOMPOSE_DATA
350
310
  3
AcDbVariableDictionary
350
25B
  3
AEC_DISP_REP_CONFIGURATIONS
350
A0A
  3
AEC_DISP_REP_SETS
350
A01
  3
AEC_DISP_REPS
350
8DB
  3
AEC_DISPLAY_PROPS_DEFAULTS
350
8DF
  3
AEC_LAYERKEY_STYLES
350
A0C
  3
AEC_PROPERTY_SET_DEFS
350
3C2
  3
AEC_VARS
350
8DD
  3
ASE_INDEX_DICTIONARY
350
3E43
  0
DICTIONARY
  5
28F
330
2
100
AcDbDictionary
280
     1
281
     1
  3
ACAD_LAYERFILTERS
360
1BB9
  3
ACAD_LAYERSTATES
360
290
  3
ACLYDICTIONARY
360
1BB8
  0
DICTIONARY
  5
308
330
10
100
AcDbDictionary
280
     1
281
     1
  3
ADSK_XREC_LAYER_RECONCILED
360
4297
  0
DICTIONARY
  5
37E
330
37D
100
AcDbDictionary
280
     1
281
     1
  0
DICTIONARY
  5
40EF
330
40EE
100
AcDbDictionary
280
     1
281
     1
  3
ADSK_XREC_LAYER_RECONCILED
360
4298
  0
DICTIONARY
  5
102E
330
1F
100
AcDbDictionary
280
     1
281
     1
  3
ACAD_SORTENTS
360
A6AB
  0
DICTIONARY
  5
A982
330
7098
100
AcDbDictionary
280
     1
281
     1
  3
ACAD_SORTENTS
360
A983
  0
DICTIONARY
  5
A34F
330
90CD
100
AcDbDictionary
280
     1
281
     1
  3
ACAD_SORTENTS
360
A351
  0
DICTIONARY
  5
A827
330
99C1
100
AcDbDictionary
280
     1
281
     1
  3
ACAD_SORTENTS
360
A829
  0
DICTIONARY
  5
A9DA
330
A97D
100
AcDbDictionary
280
     1
281
     1
  3
ACAD_MTEXT_2008_RT
360
A9DB
  0
DICTIONARY
  5
16C1
330
16C0
100
AcDbDictionary
280
     1
281
     1
  3
ASDK_XREC_ANNOTATION_SCALE_INFO
360
16C2
  0
DICTIONARY
  5
8662
330
8661
100
AcDbDictionary
280
     1
281
     1
  3
ASDK_XREC_ANNOTATION_SCALE_INFO
360
8663
  0
DICTIONARY
  5
83C
102
{ACAD_REACTORS
330
C
102
}
330
C
100
AcDbDictionary
281
     1
  0
DICTIONARY
  5
EB
102
{ACAD_REACTORS
330
C
102
}
330
C
100
AcDbDictionary
281
     1
  0
DICTIONARY
  5
40F3
102
{ACAD_REACTORS
330
C
102
}
330
C
100
AcDbDictionary
281
     1
  0
FIELDLIST
  5
E70
102
{ACAD_REACTORS
330
C
102
}
330
C
100
AcDbIdSet
 90
        0
100
AcDbFieldList
  0
XRECORD
  5
89C
102
{ACAD_REACTORS
330
C
102
}
330
C
100
AcDbXrecord
280
     1
 71
     0
  0
DICTIONARY
  5
D
102
{ACAD_REACTORS
330
C
102
}
330
C
100
AcDbDictionary
281
     1
  0
DICTIONARY
  5
E6E
102
{ACAD_REACTORS
330
C
102
}
330
C
100
AcDbDictionary
281
     1
  0
RASTERVARIABLES
  5
E74
102
{ACAD_REACTORS
330
C
102
}
330
C
100
AcDbRasterVariables
 90
        0
 70
     1
 71
     1
 72
     1
  0
DICTIONARY
  5
1A
102
{ACAD_REACTORS
330
C
102
}
330
C
100
AcDbDictionary
281
     1
  3
1
350
16BA
  3
Model
350
22
  0
DICTIONARY
  5
EA
102
{ACAD_REACTORS
330
C
102
}
330
C
100
AcDbDictionary
281
     1
  3
ByBlock
350
218
  3
ByLayer
350
217
  3
Global
350
219
  0
DICTIONARY
  5
2C3
102
{ACAD_REACTORS
330
C
102
}
330
C
100
AcDbDictionary
281
     1
  3
2mm
350
389
  3
Standard
350
2C4
  0
DICTIONARY
  5
17
102
{ACAD_REACTORS
330
C
102
}
330
C
100
AcDbDictionary
281
     1
  3
mp000096$0$STANDARD
350
A984
  3
Standard
350
18
  0
DICTIONARY
  5
19
102
{ACAD_REACTORS
330
C
102
}
330
C
100
AcDbDictionary
281
     1
  0
ACDBDICTIONARYWDFLT
  5
E
102
{ACAD_REACTORS
330
C
102
}
330
C
100
AcDbDictionary
281
     1
  3
Normal
350
F
100
AcDbDictionaryWithDefault
340
F
  0
DICTIONARY
  5
2A1
102
{ACAD_REACTORS
330
C
102
}
330
C
100
AcDbDictionary
281
     1
  3
*A1
350
13E3
  3
*A10
350
13F5
  3
*A11
350
13E9
  3
*A12
350
13EC
  3
*A13
350
13F6
  3
*A14
350
13E5
  3
*A15
350
13E7
  3
*A16
350
13EE
  3
*A17
350
13E8
  3
*A18
350
6492
  3
*A19
350
13EA
  3
*A2
350
13ED
  3
*A20
350
13F1
  3
*A21
350
13EB
  3
*A3
350
13F4
  3
*A4
350
13E4
  3
*A5
350
13EF
  3
*A6
350
13F0
  3
*A7
350
13F2
  3
*A8
350
13E6
  3
*A9
350
13F3
  3
A0
350
A6E
  3
A1
350
A77
  3
A2
350
A78
  3
A3
350
A79
  3
A4
350
A7A
  3
A5
350
A7B
  3
A6
350
A7C
  3
A7
350
A7D
  3
A8
350
A7E
  3
A9
350
A7F
  3
B0
350
A80
  3
B1
350
A6F
  3
B2
350
A81
  3
B3
350
A82
  3
B4
350
A70
  3
B5
350
A71
  3
B6
350
A72
  3
B7
350
A73
  3
B8
350
A74
  3
B9
350
A75
  3
C0
350
A76
  3
C1
350
2A2
  0
DICTIONARY
  5
22B
102
{ACAD_REACTORS
330
C
102
}
330
C
100
AcDbDictionary
281
     1
  3
mp000096$0$Standard
350
A985
  3
Standard
350
22C
  0
DICTIONARY
  5
21A
102
{ACAD_REACTORS
330
C
102
}
330
C
100
AcDbDictionary
281
     1
  3
2dWireframe
350
220
  3
3D Hidden
350
222
  3
3dWireframe
350
221
  3
Basic
350
21F
  3
Brighten
350
226
  3
ColorChange
350
22A
  3
Conceptual
350
223
  3
Dim
350
225
  3
Facepattern
350
229
  3
Flat
350
21B
  3
FlatWithEdges
350
21C
  3
Gouraud
350
21D
  3
GouraudWithEdges
350
21E
  3
Linepattern
350
228
  3
Realistic
350
224
  3
Thicken
350
227
  0
DICTIONARY
  5
A21
102
{ACAD_REACTORS
330
C
102
}
330
C
100
AcDbDictionary
281
     1
  3
AcAecLayerManager
350
A22
  0
XRECORD
  5
310
102
{ACAD_REACTORS
330
C
102
}
330
C
100
AcDbXrecord
280
     1
 90
        1
330
22C
330
A97D
330
A985
  0
DICTIONARY
  5
25B
102
{ACAD_REACTORS
330
C
102
}
330
C
100
AcDbDictionary
281
     1
  3
ANNOALLVISIBLE
350
6424
  3
CANNOSCALE
350
313
  3
CMLEADERSTYLE
350
311
  3
CTABLESTYLE
350
25C
  3
LAYEREVAL
350
315
  3
LAYERNOTIFY
350
316
  3
LIGHTINGUNITS
350
314
  3
MLEADERSCALE
350
A3E
  3
MSLTSCALE
350
312
  0
DICTIONARY
  5
A0A
102
{ACAD_REACTORS
330
C
102
}
330
C
100
AcDbDictionary
281
     1
  0
DICTIONARY
  5
A01
102
{ACAD_REACTORS
330
C
102
}
330
C
100
AcDbDictionary
281
     1
  0
DICTIONARY
  5
8DB
102
{ACAD_REACTORS
330
C
102
}
330
C
100
AcDbDictionary
281
     1
  0
DICTIONARY
  5
8DF
102
{ACAD_REACTORS
330
C
102
}
330
C
100
AcDbDictionary
281
     1
  0
DICTIONARY
  5
A0C
102
{ACAD_REACTORS
330
C
102
}
330
C
100
AcDbDictionary
281
     1
  0
DICTIONARY
  5
3C2
102
{ACAD_REACTORS
330
C
102
}
330
C
100
AcDbDictionary
281
     1
  0
DICTIONARY
  5
8DD
102
{ACAD_REACTORS
330
C
102
}
330
C
100
AcDbDictionary
281
     1
  0
DICTIONARY
  5
3E43
102
{ACAD_REACTORS
330
C
102
}
330
C
100
AcDbDictionary
281
     1
  3
ASEBlockHierarchyIndexRecord
350
3E44
1001
DCO15
1040
1692121483.687
  0
DICTIONARY
  5
1BB9
102
{ACAD_REACTORS
330
28F
102
}
330
28F
100
AcDbDictionary
281
     1
  0
DICTIONARY
  5
290
102
{ACAD_REACTORS
330
28F
102
}
330
28F
100
AcDbDictionary
281
     1
  3
00000050
350
3D97
  3
00000561
350
3D8B
  3
mp000096$0$00000050
350
A974
  3
mp000096$0$00000561
350
A978
  0
DICTIONARY
  5
1BB8
102
{ACAD_REACTORS
330
28F
102
}
330
28F
100
AcDbDictionary
281
     1
1001
ACAD
1000
<All
  0
XRECORD
  5
4297
102
{ACAD_REACTORS
330
308
102
}
330
308
100
AcDbXrecord
280
     1
290
     1
  0
XRECORD
  5
4298
102
{ACAD_REACTORS
330
40EF
102
}
330
40EF
100
AcDbXrecord
280
     1
290
     1
  0
SORTENTSTABLE
  5
A6AB
102
{ACAD_REACTORS
330
102E
102
}
330
102E
100
AcDbSortentsTable
330
1F
331
87D2
  5
87D5
331
8811
  5
8A52
331
87DA
  5
87E5
331
8E87
  5
8811
331
A918
  5
A909
331
87EA
  5
87F0
331
8A49
  5
8B9D
331
A920
  5
A911
331
A928
  5
A919
331
A95F
  5
A94F
331
A930
  5
A921
331
A967
  5
A948
331
87F2
  5
8806
331
87B3
  5
70A4
331
A938
  5
A929
331
8CB0
  5
8AA7
331
880A
  5
8816
331
87C3
  5
87C5
331
8A71
  5
8C62
331
A901
  5
8E87
331
A940
  5
A931
331
87CB
  5
87CC
331
A948
  5
A968
331
A909
  5
9A34
331
A911
  5
A902
331
87D3
  5
87D6
331
8812
  5
8A67
331
87DB
  5
87E6
331
8B99
  5
8C76
331
8E88
  5
8CAD
331
70A4
  5
4375
331
A919
  5
A90A
331
A950
  5
A960
331
A921
  5
A912
331
87EB
  5
87F1
331
A929
  5
A91A
331
A960
  5
A950
331
A968
  5
A949
331
A931
  5
A922
331
8A52
  5
8BAA
331
87B4
  5
7313
331
87F3
  5
8807
331
9170
  5
8CAF
331
A939
  5
A92A
331
880B
  5
881B
331
8CB1
  5
8AAC
331
A941
  5
A932
331
A902
  5
8E88
331
87CC
  5
87CE
331
A949
  5
A969
331
A90A
  5
9DC2
331
A912
  5
A903
331
87D4
  5
87D7
331
881B
  5
8A78
331
8E89
  5
8CAE
331
A91A
  5
A90B
331
A951
  5
A961
331
8BAA
  5
87EE
331
A922
  5
A913
331
87EC
  5
87F2
331
8C62
  5
87EA
331
A92A
  5
A91B
331
A961
  5
A951
331
A932
  5
A923
331
A969
  5
A946
331
87F4
  5
8808
331
A93A
  5
A92B
331
8CB2
  5
8B01
331
87C5
  5
87C6
331
880C
  5
881D
331
A903
  5
8E89
331
A942
  5
A933
331
A94A
  5
A962
331
A90B
  5
A8FC
331
A913
  5
A904
331
87D5
  5
87D8
331
8B9B
  5
87B9
331
A91B
  5
A90C
331
A952
  5
A95A
331
87E5
  5
87EB
331
8BAB
  5
87EF
331
9A31
  5
A936
331
A923
  5
A914
331
A95A
  5
A952
331
87ED
  5
87F3
331
A92B
  5
A91C
331
A962
  5
A94A
331
A933
  5
A924
331
87F5
  5
880A
331
8805
  5
880C
331
8CAB
  5
8A8E
331
A93B
  5
A92C
331
A8FC
  5
8CB1
331
880D
  5
8A38
331
87C6
  5
87C7
331
8CB3
  5
8B96
331
A943
  5
A934
331
A904
  5
9170
331
87CE
  5
87D3
331
A94B
  5
A963
331
A90C
  5
A8FD
331
A914
  5
A905
331
87D6
  5
87D9
331
8B9C
  5
87BA
331
87DE
  5
87E7
331
881D
  5
8A89
331
A91C
  5
A90D
331
A953
  5
A95B
331
87E6
  5
87EC
331
9A32
  5
A937
331
A924
  5
A915
331
A95B
  5
A953
331
87EE
  5
87F4
331
A92C
  5
A91D
331
A963
  5
A94B
331
A934
  5
A925
331
87F6
  5
880B
331
87B7
  5
87B3
331
8C74
  5
8C77
331
9DC2
  5
A93A
331
8806
  5
880D
331
8CB4
  5
8B99
331
87C7
  5
87C8
331
880E
  5
8A49
331
A8FD
  5
8CB2
331
A93C
  5
A92D
331
87CF
  5
87D4
331
A905
  5
9A20
331
A944
  5
A935
331
A94C
  5
A964
331
A90D
  5
A8FE
331
A915
  5
A906
331
87D7
  5
87DA
331
8816
  5
8A71
331
8B9D
  5
87C1
331
87E7
  5
87ED
331
9A33
  5
A938
331
A91D
  5
A90E
331
A954
  5
A95C
331
87EF
  5
87F5
331
A925
  5
A916
331
A95C
  5
A954
331
A92D
  5
A91E
331
A964
  5
A94C
331
A935
  5
A926
331
8C75
  5
87CF
331
87B8
  5
87B4
331
8807
  5
880E
331
8CAD
  5
8A93
331
A93D
  5
A92E
331
8CB5
  5
8B9B
331
87C8
  5
87CA
331
A8FE
  5
8CB3
331
A906
  5
9A31
331
A90E
  5
A8FF
331
A94D
  5
A965
331
A916
  5
A907
331
87D8
  5
87DB
331
8B96
  5
8C75
331
9A34
  5
A939
331
A91E
  5
A90F
331
A955
  5
A95D
331
A926
  5
A917
331
A95D
  5
A955
331
A92E
  5
A91F
331
A965
  5
A94D
331
A936
  5
A927
331
87F0
  5
87F6
331
8C76
  5
87D2
331
87B9
  5
87B7
331
8CAE
  5
8A9D
331
8808
  5
8812
331
87C1
  5
87C2
331
8A67
  5
8BAB
331
A8FF
  5
8CB4
331
A93E
  5
A92F
331
A907
  5
9A32
331
A946
  5
A966
331
A94E
  5
A95E
331
A90F
  5
A900
331
A917
  5
A908
331
87D9
  5
87DE
331
8A38
  5
8B9C
331
A91F
  5
A910
331
A927
  5
A918
331
A95E
  5
A94E
331
A92F
  5
A920
331
A966
  5
A947
331
A937
  5
A928
331
87F1
  5
8805
331
8C77
  5
8CAB
331
87BA
  5
87B8
331
8CAF
  5
8AA2
331
87C2
  5
87C3
331
A93F
  5
A930
331
87CA
  5
87CB
331
8A78
  5
8C74
331
A900
  5
8CB5
331
A947
  5
A967
331
A908
  5
9A33
331
A910
  5
A901
331
A94F
  5
A95F
  0
SORTENTSTABLE
  5
A983
102
{ACAD_REACTORS
330
A982
102
}
330
A982
100
AcDbSortentsTable
330
7098
331
A980
  5
A981
331
A981
  5
A980
  0
SORTENTSTABLE
  5
A351
102
{ACAD_REACTORS
330
A34F
102
}
330
A34F
100
AcDbSortentsTable
330
90CD
  0
SORTENTSTABLE
  5
A829
102
{ACAD_REACTORS
330
A827
102
}
330
A827
100
AcDbSortentsTable
330
99C1
  0
XRECORD
  5
A9DB
102
{ACAD_REACTORS
330
A9DA
102
}
330
A9DA
100
AcDbXrecord
280
     1
 40
14753640.0
  1
\pxqc;The information provided is for guide only and must be used along side professional architectural/structural design. Professional architectural/structural design takes preference with any conflicting areas of the building design.\PAll documents
  1
 or data downloaded from www.mpb.co.nz or emailed from MASONS Plastabrick Limited is the intellectual property of MASONS Plastabrick Limited. MASONS Plastabrick Limited takes no responsibility for any of the documents or data being used for any other
  1
 purpose than for professional architectural/structural design.
  0
XRECORD
  5
16C2
102
{ACAD_REACTORS
330
16C1
102
}
330
16C1
100
AcDbXrecord
280
     1
 90
        1
340
2A2
  0
XRECORD
  5
8663
102
{ACAD_REACTORS
330
8662
102
}
330
8662
100
AcDbXrecord
280
     1
 90
        1
340
A7B
  0
LAYOUT
  5
16BA
102
{ACAD_XDICTIONARY
360
170C
102
}
102
{ACAD_REACTORS
330
1A
102
}
330
1A
100
AcDbPlotSettings
  1

  2
DWF6 ePlot.pc3
  4
ISO_full_bleed_A4_(210.00_x_297.00_MM)
  6

 40
0.7937499880790711
 41
0.7937499880790711
 42
0.7937469482421875
 43
0.79376220703125
 44
210.0
 45
297.0
 46
0.0
 47
0.0
 48
0.0
 49
0.0
140
0.0
141
0.0
142
1.0
143
1.0
 70
   672
 72
     1
 73
     0
 74
     5
  7

 75
    16
147
25.4
 76
     0
 77
     2
 78
   300
148
0.0
149
0.0
100
AcDbLayout
  1
1
 70
     1
 71
     1
 10
-0.7937499880790711
 20
-0.7937499880790711
 11
209.2062500119209
 21
296.2062500119209
 12
0.0
 22
0.0
 32
0.0
 14
-0.009737454839069
 24
0.0009282361654073
 34
-0.0015258207003583
 15
295.4222388616949
 25
295.4110107424506
 35
0.0000000349246037
146
0.0
 13
0.0
 23
0.0
 33
0.0
 16
1.0
 26
0.0
 36
0.0
 17
0.0
 27
1.0
 37
0.0
 76
     0
330
16B9
331
16C0
1001
ACAD_PSEXT
1000
DWF6 ePlot.pc3
1000
DWF6 ePlot
1000
File
1000

1070
     0
  0
LAYOUT
  5
22
102
{ACAD_XDICTIONARY
360
4377
102
}
102
{ACAD_REACTORS
330
1A
102
}
330
1A
100
AcDbPlotSettings
  1

  2
none_device
  4
Letter_(8.50_x_11.00_Inches)
  6

 40
6.4
 41
6.4
 42
6.4
 43
6.4
 44
215.8999938964844
 45
279.3999938964844
 46
21.082
 47
0.0
 48
0.0
 49
0.0
140
0.0
141
0.0
142
1.0
143
1.55897424456234
 70
 11924
 72
     0
 73
     1
 74
     0
  7

 75
     0
147
0.6414474154964215
 76
     0
 77
     2
 78
   300
148
42.66874504805538
149
1.074921630094032
100
AcDbLayout
  1
Model
 70
     1
 71
     0
 10
0.0
 20
0.0
 11
12.0
 21
9.0
 12
0.0
 22
0.0
 32
0.0
 14
0.0
 24
0.0
 34
0.0
 15
0.0
 25
0.0
 35
0.0
146
0.0
 13
0.0
 23
0.0
 33
0.0
 16
1.0
 26
0.0
 36
0.0
 17
0.0
 27
1.0
 37
0.0
 76
     0
330
1F
331
215
  0
MATERIAL
  5
218
102
{ACAD_REACTORS
330
EA
102
}
330
EA
100
AcDbMaterial
  1
ByBlock
 73
     1
 78
     1
172
     1
176
     1
270
     1
274
     1
 94
       63
  0
MATERIAL
  5
217
102
{ACAD_REACTORS
330
EA
102
}
330
EA
100
AcDbMaterial
  1
ByLayer
 73
     1
 78
     1
172
     1
176
     1
270
     1
274
     1
 94
       63
  0
MATERIAL
  5
219
102
{ACAD_REACTORS
330
EA
102
}
330
EA
100
AcDbMaterial
  1
Global
 73
     1
 78
     1
172
     1
176
     1
270
     1
274
     1
 94
       63
  0
MLEADERSTYLE
  5
389
102
{ACAD_REACTORS
330
2C3
102
}
330
2C3
100
AcDbMLeaderStyle
170
     2
171
     1
172
     0
 90
        2
 40
0.0
 41
0.0
173
     1
 91
-1073741824
340
15
 92
       -1
290
     1
 42
2.0
291
     0
 43
0.0
  3
Standard
 44
4.0
300

342
380
174
     1
178
     1
175
     1
176
     0
 93
-1073741824
 45
2.0
292
     0
297
     0
 46
4.0
343
356
 94
-1056964608
 47
1.0
 49
1.0
140
1.0
293
     1
141
0.0
294
     1
177
     0
142
0.0
295
     0
296
     1
143
0.0
1001
ACAD_MLEADERVER
1070
     2
  0
MLEADERSTYLE
  5
2C4
102
{ACAD_REACTORS
330
2C3
102
}
330
2C3
100
AcDbMLeaderStyle
170
     2
171
     1
172
     0
 90
        2
 40
0.0
 41
0.0
173
     1
 91
-1056964608
340
14
 92
       -2
290
     1
 42
0.09
291
     1
 43
0.36
  3
Standard
 44
0.18
300

342
11
174
     1
178
     6
175
     1
176
     0
 93
-1056964608
 45
0.18
292
     0
297
     0
 46
0.18
 94
-1056964608
 47
1.0
 49
1.0
140
1.0
293
     1
141
0.0
294
     1
177
     0
142
1.0
295
     0
296
     0
143
0.125
1001
ACAD_MLEADERVER
1070
     2
  0
MLINESTYLE
  5
A984
102
{ACAD_REACTORS
330
17
102
}
330
17
100
AcDbMlineStyle
  2
MP000096$0$STANDARD
 70
     0
  3

 62
   256
 51
90.0
 52
90.0
 71
     2
 49
0.5
 62
   256
  6
BYLAYER
 49
-0.5
 62
   256
  6
BYLAYER
  0
MLINESTYLE
  5
18
102
{ACAD_REACTORS
330
17
102
}
330
17
100
AcDbMlineStyle
  2
STANDARD
 70
     0
  3

 62
   256
 51
90.0
 52
90.0
 71
     2
 49
0.5
 62
   256
  6
BYLAYER
 49
-0.5
 62
   256
  6
BYLAYER
  0
ACDBPLACEHOLDER
  5
F
102
{ACAD_REACTORS
330
E
102
}
330
E
  0
SCALE
  5
13E3
102
{ACAD_REACTORS
330
2A1
102
}
330
2A1
100
AcDbScale
 70
     0
300
1:2_XREF
140
1.0
141
2.0
290
     0
  0
SCALE
  5
13F5
102
{ACAD_REACTORS
330
2A1
102
}
330
2A1
100
AcDbScale
 70
     0
300
1:2500_XREF
140
1.0
141
2500.0
290
     0
  0
SCALE
  5
13E9
102
{ACAD_REACTORS
330
2A1
102
}
330
2A1
100
AcDbScale
 70
     0
300
1:25_XREF
140
1.0
141
25.0
290
     0
  0
SCALE
  5
13EC
102
{ACAD_REACTORS
330
2A1
102
}
330
2A1
100
AcDbScale
 70
     0
300
1:100_XREF
140
1.0
141
100.0
290
     0
  0
SCALE
  5
13F6
102
{ACAD_REACTORS
330
2A1
102
}
330
2A1
100
AcDbScale
 70
     0
300
1:5000_XREF
140
1.0
141
5000.0
290
     0
  0
SCALE
  5
13E5
102
{ACAD_REACTORS
330
2A1
102
}
330
2A1
100
AcDbScale
 70
     0
300
1:5_XREF
140
1.0
141
5.0
290
     0
  0
SCALE
  5
13E7
102
{ACAD_REACTORS
330
2A1
102
}
330
2A1
100
AcDbScale
 70
     0
300
1:10_XREF
140
1.0
141
10.0
290
     0
  0
SCALE
  5
13EE
102
{ACAD_REACTORS
330
2A1
102
}
330
2A1
100
AcDbScale
 70
     0
300
1:200_XREF
140
1.0
141
200.0
290
     0
  0
SCALE
  5
13E8
102
{ACAD_REACTORS
330
2A1
102
}
330
2A1
100
AcDbScale
 70
     0
300
1:20_XREF
140
1.0
141
20.0
290
     0
  0
SCALE
  5
6492
102
{ACAD_REACTORS
330
2A1
102
}
330
2A1
100
AcDbScale
 70
     0
300
*1:0.5
140
1.0
141
0.5
290
     0
  0
SCALE
  5
13EA
102
{ACAD_REACTORS
330
2A1
102
}
330
2A1
100
AcDbScale
 70
     0
300
1:50_XREF
140
1.0
141
50.0
290
     0
  0
SCALE
  5
13ED
102
{ACAD_REACTORS
330
2A1
102
}
330
2A1
100
AcDbScale
 70
     0
300
1:150_XREF
140
1.0
141
150.0
290
     0
  0
SCALE
  5
13F1
102
{ACAD_REACTORS
330
2A1
102
}
330
2A1
100
AcDbScale
 70
     0
300
1:750_XREF
140
1.0
141
750.0
290
     0
  0
SCALE
  5
13EB
102
{ACAD_REACTORS
330
2A1
102
}
330
2A1
100
AcDbScale
 70
     0
300
1:75_XREF
140
1.0
141
75.0
290
     0
  0
SCALE
  5
13F4
102
{ACAD_REACTORS
330
2A1
102
}
330
2A1
100
AcDbScale
 70
     0
300
1:2000_XREF
140
1.0
141
2000.0
290
     0
  0
SCALE
  5
13E4
102
{ACAD_REACTORS
330
2A1
102
}
330
2A1
100
AcDbScale
 70
     0
300
1:2.5_XREF
140
1.0
141
2.5
290
     0
  0
SCALE
  5
13EF
102
{ACAD_REACTORS
330
2A1
102
}
330
2A1
100
AcDbScale
 70
     0
300
1:250_XREF
140
1.0
141
250.0
290
     0
  0
SCALE
  5
13F0
102
{ACAD_REACTORS
330
2A1
102
}
330
2A1
100
AcDbScale
 70
     0
300
1:500_XREF
140
1.0
141
500.0
290
     0
  0
SCALE
  5
13F2
102
{ACAD_REACTORS
330
2A1
102
}
330
2A1
100
AcDbScale
 70
     0
300
1:1000_XREF
140
1.0
141
1000.0
290
     0
  0
SCALE
  5
13E6
102
{ACAD_REACTORS
330
2A1
102
}
330
2A1
100
AcDbScale
 70
     0
300
1:7.5_XREF
140
1.0
141
7.5
290
     0
  0
SCALE
  5
13F3
102
{ACAD_REACTORS
330
2A1
102
}
330
2A1
100
AcDbScale
 70
     0
300
1:1250_XREF
140
1.0
141
1250.0
290
     0
  0
SCALE
  5
A6E
102
{ACAD_REACTORS
330
2A1
102
}
330
2A1
100
AcDbScale
 70
     0
300
*1:1
140
1.0
141
1.0
290
     0
  0
SCALE
  5
A77
102
{ACAD_REACTORS
330
2A1
102
}
330
2A1
100
AcDbScale
 70
     0
300
*1:2.5
140
1.0
141
2.5
290
     0
  0
SCALE
  5
A78
102
{ACAD_REACTORS
330
2A1
102
}
330
2A1
100
AcDbScale
 70
     0
300
*1:25
140
1.0
141
25.0
290
     0
  0
SCALE
  5
A79
102
{ACAD_REACTORS
330
2A1
102
}
330
2A1
100
AcDbScale
 70
     0
300
*1:250
140
1.0
141
250.0
290
     0
  0
SCALE
  5
A7A
102
{ACAD_REACTORS
330
2A1
102
}
330
2A1
100
AcDbScale
 70
     0
300
*1:2500
140
1.0
141
2500.0
290
     0
  0
SCALE
  5
A7B
102
{ACAD_REACTORS
330
2A1
102
}
330
2A1
100
AcDbScale
 70
     0
300
*1:40
140
1.0
141
40.0
290
     0
  0
SCALE
  5
A7C
102
{ACAD_REACTORS
330
2A1
102
}
330
2A1
100
AcDbScale
 70
     0
300
*1:400
140
1.0
141
400.0
290
     0
  0
SCALE
  5
A7D
102
{ACAD_REACTORS
330
2A1
102
}
330
2A1
100
AcDbScale
 70
     0
300
*1:5
140
1.0
141
5.0
290
     0
  0
SCALE
  5
A7E
102
{ACAD_REACTORS
330
2A1
102
}
330
2A1
100
AcDbScale
 70
     0
300
*1:50
140
1.0
141
50.0
290
     0
  0
SCALE
  5
A7F
102
{ACAD_REACTORS
330
2A1
102
}
330
2A1
100
AcDbScale
 70
     0
300
*1:500
140
1.0
141
500.0
290
     0
  0
SCALE
  5
A80
102
{ACAD_REACTORS
330
2A1
102
}
330
2A1
100
AcDbScale
 70
     0
300
*1:5000
140
1.0
141
5000.0
290
     0
  0
SCALE
  5
A6F
102
{ACAD_REACTORS
330
2A1
102
}
330
2A1
100
AcDbScale
 70
     0
300
*1:10
140
1.0
141
10.0
290
     0
  0
SCALE
  5
A81
102
{ACAD_REACTORS
330
2A1
102
}
330
2A1
100
AcDbScale
 70
     0
300
*1:750
140
1.0
141
750.0
290
     0
  0
SCALE
  5
A82
102
{ACAD_REACTORS
330
2A1
102
}
330
2A1
100
AcDbScale
 70
     0
300
*1:8
140
1.0
141
8.0
290
     0
  0
SCALE
  5
A70
102
{ACAD_REACTORS
330
2A1
102
}
330
2A1
100
AcDbScale
 70
     0
300
*1:15
140
1.0
141
15.0
290
     0
  0
SCALE
  5
A71
102
{ACAD_REACTORS
330
2A1
102
}
330
2A1
100
AcDbScale
 70
     0
300
*1:100
140
1.0
141
100.0
290
     0
  0
SCALE
  5
A72
102
{ACAD_REACTORS
330
2A1
102
}
330
2A1
100
AcDbScale
 70
     0
300
*1:1000
140
1.0
141
1000.0
290
     0
  0
SCALE
  5
A73
102
{ACAD_REACTORS
330
2A1
102
}
330
2A1
100
AcDbScale
 70
     0
300
*1:2
140
1.0
141
2.0
290
     0
  0
SCALE
  5
A74
102
{ACAD_REACTORS
330
2A1
102
}
330
2A1
100
AcDbScale
 70
     0
300
*1:20
140
1.0
141
20.0
290
     0
  0
SCALE
  5
A75
102
{ACAD_REACTORS
330
2A1
102
}
330
2A1
100
AcDbScale
 70
     0
300
*1:200
140
1.0
141
200.0
290
     0
  0
SCALE
  5
A76
102
{ACAD_REACTORS
330
2A1
102
}
330
2A1
100
AcDbScale
 70
     0
300
*1:2000
140
1.0
141
2000.0
290
     0
  0
SCALE
  5
2A2
102
{ACAD_REACTORS
330
2A1
102
}
330
2A1
100
AcDbScale
 70
     0
300
1:1
140
1.0
141
1.0
290
     1
  0
TABLESTYLE
  5
A985
102
{ACAD_XDICTIONARY
360
A986
102
}
102
{ACAD_REACTORS
330
22B
102
}
330
22B
100
AcDbTableStyle
  3
Standard
 70
     0
 71
     0
 40
0.06
 41
0.06
280
     0
281
     0
  7
mp000096$0$Standard
140
0.18
170
     2
 62
     0
 63
     7
283
     0
 90
      512
 91
        0
  1

274
    -2
284
     1
 64
     0
275
    -2
285
     1
 65
     0
276
    -2
286
     1
 66
     0
277
    -2
287
     1
 67
     0
278
    -2
288
     1
 68
     0
279
    -2
289
     1
 69
     0
  7
mp000096$0$Standard
140
0.25
170
     5
 62
     0
 63
     7
283
     0
 90
      512
 91
        0
  1

274
    -2
284
     1
 64
     0
275
    -2
285
     1
 65
     0
276
    -2
286
     1
 66
     0
277
    -2
287
     1
 67
     0
278
    -2
288
     1
 68
     0
279
    -2
289
     1
 69
     0
  7
mp000096$0$Standard
140
0.18
170
     5
 62
     0
 63
     7
283
     0
 90
      512
 91
        0
  1

274
    -2
284
     1
 64
     0
275
    -2
285
     1
 65
     0
276
    -2
286
     1
 66
     0
277
    -2
287
     1
 67
     0
278
    -2
288
     1
 68
     0
279
    -2
289
     1
 69
     0
  0
TABLESTYLE
  5
22C
102
{ACAD_XDICTIONARY
360
30E
102
}
102
{ACAD_REACTORS
330
22B
102
}
330
22B
100
AcDbTableStyle
  3
Standard
 70
     0
 71
     0
 40
0.06
 41
0.06
280
     0
281
     0
  7
Standard
140
0.18
170
     2
 62
     0
 63
     7
283
     0
 90
      512
 91
        0
  1

274
    -2
284
     1
 64
     0
275
    -2
285
     1
 65
     0
276
    -2
286
     1
 66
     0
277
    -2
287
     1
 67
     0
278
    -2
288
     1
 68
     0
279
    -2
289
     1
 69
     0
  7
Standard
140
0.25
170
     5
 62
     0
 63
     7
283
     0
 90
      512
 91
        0
  1

274
    -2
284
     1
 64
     0
275
    -2
285
     1
 65
     0
276
    -2
286
     1
 66
     0
277
    -2
287
     1
 67
     0
278
    -2
288
     1
 68
     0
279
    -2
289
     1
 69
     0
  7
Standard
140
0.18
170
     5
 62
     0
 63
     7
283
     0
 90
      512
 91
        0
  1

274
    -2
284
     1
 64
     0
275
    -2
285
     1
 65
     0
276
    -2
286
     1
 66
     0
277
    -2
287
     1
 67
     0
278
    -2
288
     1
 68
     0
279
    -2
289
     1
 69
     0
  0
VISUALSTYLE
  5
220
102
{ACAD_REACTORS
330
21A
102
}
330
21A
100
AcDbVisualStyle
  2
2dWireframe
 70
     4
 71
     0
 72
     2
 73
     1
 90
        0
 40
-0.6
 41
-30.0
 62
     5
 63
     7
421
 16777215
 74
     1
 91
        4
 64
     7
 65
   257
 75
     1
175
     1
 42
1.0
 92
        0
 66
   257
 43
1.0
 76
     1
 77
     6
 78
     2
 67
     7
 79
     5
170
     0
171
     0
290
     0
174
     0
 93
        1
 44
0.0
173
     0
291
     0
 45
0.0
  0
VISUALSTYLE
  5
222
102
{ACAD_REACTORS
330
21A
102
}
330
21A
100
AcDbVisualStyle
  2
3D Hidden
 70
     6
 71
     1
 72
     2
 73
     2
 90
        0
 40
-0.6
 41
-30.0
 62
     5
 63
     7
421
 16777215
 74
     2
 91
       10
 64
     7
 65
   257
 75
     2
175
     2
 42
40.0
 92
        0
 66
   257
 43
1.0
 76
     1
 77
     6
 78
     2
 67
     7
 79
     3
170
     0
171
     0
290
     0
174
     0
 93
        1
 44
0.0
173
     0
291
     0
 45
0.0
  0
VISUALSTYLE
  5
221
102
{ACAD_REACTORS
330
21A
102
}
330
21A
100
AcDbVisualStyle
  2
3dWireframe
 70
     5
 71
     0
 72
     2
 73
     1
 90
        0
 40
-0.6
 41
-30.0
 62
     5
 63
     7
421
 16777215
 74
     1
 91
        4
 64
     7
 65
   257
 75
     1
175
     1
 42
1.0
 92
        0
 66
   257
 43
1.0
 76
     1
 77
     6
 78
     2
 67
     7
 79
     5
170
     0
171
     0
290
     0
174
     0
 93
        1
 44
0.0
173
     0
291
     0
 45
0.0
  0
VISUALSTYLE
  5
21F
102
{ACAD_REACTORS
330
21A
102
}
330
21A
100
AcDbVisualStyle
  2
Basic
 70
     7
 71
     1
 72
     0
 73
     1
 90
        0
 40
-0.6
 41
-30.0
 62
     5
 63
     7
421
 16777215
 74
     0
 91
        4
 64
     7
 65
   257
 75
     1
175
     1
 42
1.0
 92
        8
 66
     7
 43
1.0
 76
     1
 77
     6
 78
     2
 67
     7
 79
     5
170
     0
171
     0
290
     0
174
     0
 93
        1
 44
0.0
173
     0
291
     1
 45
0.0
  0
VISUALSTYLE
  5
226
102
{ACAD_REACTORS
330
21A
102
}
330
21A
100
AcDbVisualStyle
  2
Brighten
 70
    12
 71
     2
 72
     2
 73
     1
 90
        0
 40
-0.6
 41
-30.0
 62
     5
 63
     7
421
 16777215
 74
     1
 91
        4
 64
     7
 65
   257
 75
     1
175
     1
 42
1.0
 92
        8
 66
     7
 43
1.0
 76
     1
 77
     6
 78
     2
 67
     7
 79
     5
170
     0
171
     0
290
     0
174
     0
 93
        1
 44
50.0
173
     0
291
     1
 45
0.0
  0
VISUALSTYLE
  5
22A
102
{ACAD_REACTORS
330
21A
102
}
330
21A
100
AcDbVisualStyle
  2
ColorChange
 70
    16
 71
     2
 72
     2
 73
     3
 90
        0
 40
-0.6
 41
-30.0
 62
     5
 63
     8
421
  8421504
 74
     1
 91
        4
 64
     7
 65
   257
 75
     1
175
     1
 42
1.0
 92
        8
 66
     8
424
  8421504
 43
1.0
 76
     1
 77
     6
 78
     2
 67
     7
 79
     5
170
     0
171
     0
290
     0
174
     0
 93
        1
 44
0.0
173
     0
291
     1
 45
0.0
  0
VISUALSTYLE
  5
223
102
{ACAD_XDICTIONARY
360
811
102
}
102
{ACAD_REACTORS
330
21A
102
}
330
21A
100
AcDbVisualStyle
  2
Conceptual
 70
     9
 71
     2
 72
     2
 73
     1
 90
        0
 40
-0.6
 41
-30.0
 62
     5
 63
     7
421
 16777215
 74
     0
 91
        0
 64
     7
 65
   257
 75
     1
175
     1
 42
40.0
 92
        8
 66
     7
 43
1.0
 76
     1
 77
     6
 78
     2
 67
     7
 79
     5
170
     0
171
     0
290
     0
174
     0
 93
       12
 44
0.0
173
     0
291
     0
 45
0.0
  0
VISUALSTYLE
  5
225
102
{ACAD_REACTORS
330
21A
102
}
330
21A
100
AcDbVisualStyle
  2
Dim
 70
    11
 71
     2
 72
     2
 73
     1
 90
        0
 40
-0.6
 41
-30.0
 62
     5
 63
     7
421
 16777215
 74
     1
 91
        4
 64
     7
 65
   257
 75
     1
175
     1
 42
1.0
 92
        8
 66
     7
 43
1.0
 76
     1
 77
     6
 78
     2
 67
     7
 79
     5
170
     0
171
     0
290
     0
174
     0
 93
        1
 44
-50.0
173
     0
291
     1
 45
0.0
  0
VISUALSTYLE
  5
229
102
{ACAD_REACTORS
330
21A
102
}
330
21A
100
AcDbVisualStyle
  2
Facepattern
 70
    15
 71
     2
 72
     2
 73
     1
 90
        0
 40
-0.6
 41
-30.0
 62
     5
 63
     7
421
 16777215
 74
     1
 91
        4
 64
     7
 65
   257
 75
     1
175
     1
 42
1.0
 92
        8
 66
     7
 43
1.0
 76
     1
 77
     6
 78
     2
 67
     7
 79
     5
170
     0
171
     0
290
     0
174
     0
 93
        1
 44
0.0
173
     0
291
     1
 45
0.0
  0
VISUALSTYLE
  5
21B
102
{ACAD_REACTORS
330
21A
102
}
330
21A
100
AcDbVisualStyle
  2
Flat
 70
     0
 71
     2
 72
     1
 73
     1
 90
        2
 40
-0.6
 41
30.0
 62
     5
 63
     7
421
 16777215
 74
     0
 91
        4
 64
     7
 65
   257
 75
     1
175
     1
 42
1.0
 92
        8
 66
     7
 43
1.0
 76
     1
 77
     6
 78
     2
 67
     7
 79
     5
170
     0
171
     0
290
     0
174
     0
 93
        1
 44
0.0
173
     0
291
     1
 45
0.0
  0
VISUALSTYLE
  5
21C
102
{ACAD_REACTORS
330
21A
102
}
330
21A
100
AcDbVisualStyle
  2
FlatWithEdges
 70
     1
 71
     2
 72
     1
 73
     1
 90
        2
 40
-0.6
 41
30.0
 62
     5
 63
     7
421
 16777215
 74
     1
 91
        4
 64
     7
 65
   257
 75
     1
175
     1
 42
1.0
 92
        0
 66
   257
 43
1.0
 76
     1
 77
     6
 78
     2
 67
     7
 79
     5
170
     0
171
     0
290
     0
174
     0
 93
        1
 44
0.0
173
     0
291
     1
 45
0.0
  0
VISUALSTYLE
  5
21D
102
{ACAD_REACTORS
330
21A
102
}
330
21A
100
AcDbVisualStyle
  2
Gouraud
 70
     2
 71
     2
 72
     2
 73
     1
 90
        2
 40
-0.6
 41
30.0
 62
     5
 63
     7
421
 16777215
 74
     0
 91
        4
 64
     7
 65
   257
 75
     1
175
     1
 42
1.0
 92
        0
 66
     7
 43
1.0
 76
     1
 77
     6
 78
     2
 67
     7
 79
     5
170
     0
171
     0
290
     0
174
     0
 93
        1
 44
0.0
173
     0
291
     1
 45
0.0
  0
VISUALSTYLE
  5
21E
102
{ACAD_REACTORS
330
21A
102
}
330
21A
100
AcDbVisualStyle
  2
GouraudWithEdges
 70
     3
 71
     2
 72
     2
 73
     1
 90
        2
 40
-0.6
 41
30.0
 62
     5
 63
     7
421
 16777215
 74
     1
 91
        4
 64
     7
 65
   257
 75
     1
175
     1
 42
1.0
 92
        0
 66
   257
 43
1.0
 76
     1
 77
     6
 78
     2
 67
     7
 79
     5
170
     0
171
     0
290
     0
174
     0
 93
        1
 44
0.0
173
     0
291
     1
 45
0.0
  0
VISUALSTYLE
  5
228
102
{ACAD_REACTORS
330
21A
102
}
330
21A
100
AcDbVisualStyle
  2
Linepattern
 70
    14
 71
     2
 72
     2
 73
     1
 90
        0
 40
-0.6
 41
-30.0
 62
     5
 63
     7
421
 16777215
 74
     1
 91
        4
 64
     7
 65
   257
 75
     7
175
     7
 42
1.0
 92
        8
 66
     7
 43
1.0
 76
     1
 77
     6
 78
     2
 67
     7
 79
     5
170
     0
171
     0
290
     0
174
     0
 93
        1
 44
0.0
173
     0
291
     1
 45
0.0
  0
VISUALSTYLE
  5
224
102
{ACAD_REACTORS
330
21A
102
}
330
21A
100
AcDbVisualStyle
  2
Realistic
 70
     8
 71
     2
 72
     2
 73
     1
 90
        0
 40
-0.6
 41
-30.0
 62
     5
 63
     7
421
 16777215
 74
     1
 91
        0
 64
     7
 65
   257
 75
     1
175
     1
 42
1.0
 92
        8
 66
     7
 43
1.0
 76
     1
 77
     6
 78
     2
 67
     7
 79
     5
170
     0
171
     0
290
     0
174
     0
 93
       13
 44
0.0
173
     0
291
     0
 45
0.0
  0
VISUALSTYLE
  5
227
102
{ACAD_REACTORS
330
21A
102
}
330
21A
100
AcDbVisualStyle
  2
Thicken
 70
    13
 71
     2
 72
     2
 73
     1
 90
        0
 40
-0.6
 41
-30.0
 62
     5
 63
     7
421
 16777215
 74
     1
 91
        4
 64
     7
 65
   257
 75
     1
175
     1
 42
1.0
 92
       12
 66
     7
 43
1.0
 76
     1
 77
     6
 78
     2
 67
     7
 79
     5
170
     0
171
     0
290
     0
174
     0
 93
        1
 44
0.0
173
     0
291
     1
 45
0.0
  0
DICTIONARY
  5
A22
102
{ACAD_REACTORS
330
A21
102
}
330
A21
100
AcDbDictionary
280
     1
281
     1
  3
DefaultStandard
360
A38
  3
Standards
360
A23
  0
DICTIONARYVAR
  5
6424
102
{ACAD_REACTORS
330
25B
102
}
330
25B
100
DictionaryVariables
280
     0
  1
1
  0
DICTIONARYVAR
  5
313
102
{ACAD_REACTORS
330
25B
102
}
330
25B
100
DictionaryVariables
280
     0
  1
*1:2
  0
DICTIONARYVAR
  5
311
102
{ACAD_REACTORS
330
25B
102
}
330
25B
100
DictionaryVariables
280
     0
  1
2mm
  0
DICTIONARYVAR
  5
25C
102
{ACAD_REACTORS
330
25B
102
}
330
25B
100
DictionaryVariables
280
     0
  1
STANDARD
  0
DICTIONARYVAR
  5
315
102
{ACAD_REACTORS
330
25B
102
}
330
25B
100
DictionaryVariables
280
     0
  1
1
  0
DICTIONARYVAR
  5
316
102
{ACAD_REACTORS
330
25B
102
}
330
25B
100
DictionaryVariables
280
     0
  1
15
  0
DICTIONARYVAR
  5
314
102
{ACAD_REACTORS
330
25B
102
}
330
25B
100
DictionaryVariables
280
     0
  1
0
  0
DICTIONARYVAR
  5
A3E
102
{ACAD_REACTORS
330
25B
102
}
330
25B
100
DictionaryVariables
280
     0
  1
0.000000
  0
DICTIONARYVAR
  5
312
102
{ACAD_REACTORS
330
25B
102
}
330
25B
100
DictionaryVariables
280
     0
  1
0
  0
XRECORD
  5
3E44
102
{ACAD_REACTORS
330
3E43
102
}
330
3E43
100
AcDbXrecord
280
     1
330
0
330
0
330
0
  0
XRECORD
  5
3D97
102
{ACAD_XDICTIONARY
360
3D98
102
}
102
{ACAD_REACTORS
330
290
102
}
330
290
100
AcDbXrecord
280
     1
 91
      514
301

290
     0
302
0
330
0
 90
        8
 62
     7
370
    -3
331
16
  1
Color_7
330
0
 90
        8
 62
     7
370
    -3
331
16
  1
Color_7
330
0
 90
        8
 62
     7
370
    -3
331
16
  1
Color_7
330
0
 90
        0
 62
    30
370
    -3
331
16
  1
Color_30
330
0
 90
        8
 62
   252
370
    -3
331
16
  1
Color_252
330
0
 90
        8
 62
     3
370
    30
331
16
  1
Color_3
330
0
 90
        8
 62
   253
370
    -3
331
16
  1
Color_253
330
0
 90
        8
 62
     1
370
    -3
331
16
  1
Color_1
330
0
 90
        0
 62
     5
370
    -3
331
16
  1
Color_5
330
0
 90
        8
 62
     2
370
    -3
331
16
  1
Color_2
330
0
 90
        0
 62
   178
370
    -3
331
16
  1
Color_178
 92
-1039794079
330
0
 90
        8
 62
     7
370
    -3
331
16
  1
Color_7
330
0
 90
        8
 62
     7
370
    -3
331
16
  1
Color_7
330
0
 90
        8
 62
     7
370
    -3
331
16
  1
Color_7
330
0
 90
        8
 62
     7
370
    -3
331
16
  1
Color_7
330
0
 90
        8
 62
     7
370
    -3
331
16
  1
Color_7
330
0
 90
        0
 62
     4
370
    -3
331
16
  1
Color_4
330
0
 90
        0
 62
     7
370
    -3
331
16
  1
Color_7
330
37D
 90
        0
 62
     7
370
    -3
331
16
  1
Color_7
330
10
 90
        8
 62
     7
370
    -3
331
16
  1
Color_7
330
0
 90
       10
 62
     7
370
    -3
331
16
  1
Color_7
330
0
 90
       10
 62
     7
370
    -3
331
16
  1
Color_7
330
0
 90
       10
 62
     7
370
    -3
331
16
  1
Color_7
330
0
 90
       10
 62
     7
370
    -3
331
16
  1
Color_7
330
0
 90
       10
 62
     7
370
    -3
331
16
  1
Color_7
330
0
 90
       10
 62
     7
370
    -3
331
16
  1
Color_7
330
0
 90
       10
 62
     7
370
    -3
331
16
  1
Color_7
330
0
 90
       10
 62
     7
370
    -3
331
16
  1
Color_7
330
0
 90
       10
 62
     7
370
    -3
331
16
  1
Color_7
330
0
 90
       10
 62
     7
370
    -3
331
16
  1
Color_7
330
0
 90
       10
 62
     7
370
    -3
331
16
  1
Color_7
330
0
 90
       10
 62
     7
370
    -3
331
16
  1
Color_7
330
0
 90
       10
 62
     7
370
    -3
331
16
  1
Color_7
330
0
 90
       10
 62
     7
370
    -3
331
16
  1
Color_7
330
0
 90
       10
 62
     7
370
    -3
331
16
  1
Color_7
330
0
 90
       10
 62
     7
370
    -3
331
16
  1
Color_7
330
0
 90
       10
 62
     7
370
    -3
331
16
  1
Color_7
330
0
 90
       10
 62
     7
370
    -3
331
16
  1
Color_7
330
0
 90
       10
 62
     7
370
    -3
331
16
  1
Color_7
330
0
 90
       10
 62
     7
370
    -3
331
16
  1
Color_7
330
0
 90
       10
 62
     7
370
    -3
331
16
  1
Color_7
330
0
 90
       10
 62
     7
370
    -3
331
16
  1
Color_7
330
0
 90
       10
 62
     7
370
    -3
331
16
  1
Color_7
330
0
 90
       10
 62
     7
370
    -3
331
16
  1
Color_7
330
0
 90
       10
 62
     7
370
    -3
331
16
  1
Color_7
330
0
 90
       10
 62
     7
370
    -3
331
16
  1
Color_7
330
0
 90
       10
 62
     7
370
    -3
331
16
  1
Color_7
330
0
 90
       10
 62
     7
370
    -3
331
16
  1
Color_7
330
0
 90
       10
 62
     7
370
    -3
331
16
  1
Color_7
330
0
 90
       10
 62
     7
370
    -3
331
16
  1
Color_7
330
0
 90
       10
 62
     7
370
    -3
331
16
  1
Color_7
330
0
 90
       10
 62
     7
370
    -3
331
16
  1
Color_7
330
0
 90
       10
 62
     7
370
    -3
331
16
  1
Color_7
330
0
 90
       10
 62
     7
370
    -3
331
16
  1
Color_7
330
0
 90
       10
 62
     7
370
    -3
331
16
  1
Color_7
330
0
 90
       10
 62
     7
370
    -3
331
16
  1
Color_7
330
0
 90
       10
 62
     7
370
    -3
331
16
  1
Color_7
330
0
 90
       10
 62
     7
370
    -3
331
16
  1
Color_7
330
0
 90
       10
 62
     7
370
    -3
331
16
  1
Color_7
330
0
 90
       10
 62
     7
370
    -3
331
16
  1
Color_7
330
0
 90
       10
 62
     7
370
    -3
331
16
  1
Color_7
330
0
 90
       10
 62
     7
370
    -3
331
16
  1
Color_7
330
0
 90
       10
 62
     7
370
    -3
331
16
  1
Color_7
330
0
 90
       10
 62
     7
370
    -3
331
16
  1
Color_7
330
0
 90
       10
 62
     7
370
    -3
331
16
  1
Color_7
330
0
 90
       10
 62
     7
370
    -3
331
16
  1
Color_7
330
0
 90
       10
 62
     7
370
    -3
331
16
  1
Color_7
330
0
 90
       10
 62
     7
370
    -3
331
16
  1
Color_7
330
0
 90
       10
 62
     7
370
    -3
331
16
  1
Color_7
330
0
 90
       10
 62
     7
370
    -3
331
16
  1
Color_7
330
0
 90
       10
 62
     7
370
    -3
331
16
  1
Color_7
330
0
 90
       10
 62
     7
370
    -3
331
16
  1
Color_7
330
0
 90
       10
 62
     7
370
    -3
331
16
  1
Color_7
330
0
 90
       10
 62
     7
370
    -3
331
16
  1
Color_7
330
0
 90
       10
 62
     7
370
    -3
331
16
  1
Color_7
330
0
 90
       10
 62
     7
370
    -3
331
16
  1
Color_7
330
0
 90
       10
 62
     7
370
    -3
331
16
  1
Color_7
330
0
 90
       10
 62
     7
370
    -3
331
16
  1
Color_7
330
0
 90
       10
 62
     7
370
    -3
331
16
  1
Color_7
330
0
 90
       10
 62
     7
370
    -3
331
16
  1
Color_7
330
0
 90
       10
 62
     7
370
    -3
331
16
  1
Color_7
330
0
 90
       10
 62
     7
370
    -3
331
16
  1
Color_7
330
0
 90
       10
 62
     7
370
    -3
331
16
  1
Color_7
330
0
 90
       10
 62
     7
370
    -3
331
16
  1
Color_7
330
0
 90
       10
 62
     7
370
    -3
331
16
  1
Color_7
330
0
 90
       10
 62
     7
370
    -3
331
16
  1
Color_7
330
0
 90
       10
 62
     7
370
    -3
331
16
  1
Color_7
330
0
 90
       10
 62
     7
370
    -3
331
16
  1
Color_7
330
0
 90
       10
 62
     7
370
    -3
331
16
  1
Color_7
330
0
 90
       10
 62
     7
370
    -3
331
16
  1
Color_7
330
0
 90
       10
 62
     7
370
    -3
331
16
  1
Color_7
330
0
 90
       10
 62
     7
370
    -3
331
16
  1
Color_7
330
0
 90
       10
 62
     7
370
    -3
331
16
  1
Color_7
330
0
 90
       10
 62
     7
370
    -3
331
16
  1
Color_7
330
0
 90
       10
 62
     7
370
    -3
331
16
  1
Color_7
330
0
 90
       10
 62
     7
370
    -3
331
16
  1
Color_7
330
0
 90
       10
 62
     7
370
    -3
331
16
  1
Color_7
330
0
 90
       10
 62
     7
370
    -3
331
16
  1
Color_7
330
0
 90
       10
 62
     7
370
    -3
331
16
  1
Color_7
330
0
 90
        2
 62
     7
370
    -3
331
16
  1
Color_7
330
0
 90
       10
 62
     7
370
    -3
331
16
  1
Color_7
330
0
 90
        2
 62
     7
370
    -3
331
16
  1
Color_7
330
0
 90
       10
 62
     7
370
    -3
331
16
  1
Color_7
330
0
 90
        2
 62
     7
370
    -3
331
16
  1
Color_7
330
0
 90
       10
 62
     7
370
    -3
331
16
  1
Color_7
330
0
 90
        2
 62
     7
370
    -3
331
16
  1
Color_7
330
0
 90
       10
 62
     7
370
    -3
331
16
  1
Color_7
330
0
 90
        2
 62
     7
370
    -3
331
16
  1
Color_7
330
0
 90
       10
 62
     7
370
    -3
331
16
  1
Color_7
330
0
 90
        2
 62
     7
370
    -3
331
16
  1
Color_7
330
0
 90
       10
 62
     7
370
    -3
331
16
  1
Color_7
330
0
 90
        2
 62
     7
370
    -3
331
16
  1
Color_7
330
0
 90
       10
 62
     7
370
    -3
331
16
  1
Color_7
330
0
 90
        2
 62
     7
370
    -3
331
16
  1
Color_7
330
0
 90
       10
 62
     7
370
    -3
331
16
  1
Color_7
330
0
 90
        2
 62
     7
370
    -3
331
16
  1
Color_7
330
0
 90
       10
 62
     7
370
    -3
331
16
  1
Color_7
330
0
 90
        2
 62
     7
370
    -3
331
16
  1
Color_7
330
0
 90
       10
 62
     7
370
    -3
331
16
  1
Color_7
330
0
 90
        2
 62
     7
370
    -3
331
16
  1
Color_7
330
0
 90
       10
 62
     7
370
    -3
331
16
  1
Color_7
330
0
 90
        2
 62
     7
370
    -3
331
16
  1
Color_7
330
0
 90
       10
 62
     7
370
    -3
331
16
  1
Color_7
330
0
 90
        2
 62
     7
370
    -3
331
16
  1
Color_7
330
0
 90
       10
 62
     7
370
    -3
331
16
  1
Color_7
330
0
 90
        2
 62
     7
370
    -3
331
16
  1
Color_7
330
0
 90
       10
 62
     7
370
    -3
331
16
  1
Color_7
330
0
 90
        2
 62
     7
370
    -3
331
16
  1
Color_7
330
0
 90
       10
 62
     7
370
    -3
331
16
  1
Color_7
330
0
 90
        2
 62
     7
370
    -3
331
16
  1
Color_7
330
0
 90
       10
 62
     7
370
    -3
331
16
  1
Color_7
330
0
 90
        2
 62
     7
370
    -3
331
16
  1
Color_7
330
0
 90
       10
 62
     7
370
    -3
331
16
  1
Color_7
330
0
 90
        2
 62
     7
370
    -3
331
16
  1
Color_7
330
0
 90
       10
 62
     7
370
    -3
331
16
  1
Color_7
330
0
 90
        2
 62
     7
370
    -3
331
16
  1
Color_7
330
0
 90
       10
 62
     7
370
    -3
331
16
  1
Color_7
330
0
 90
        2
 62
     7
370
    -3
331
16
  1
Color_7
330
0
 90
       10
 62
     7
370
    -3
331
16
  1
Color_7
330
0
 90
        2
 62
     7
370
    -3
331
16
  1
Color_7
330
0
 90
       10
 62
     7
370
    -3
331
16
  1
Color_7
330
0
 90
        2
 62
     7
370
    -3
331
16
  1
Color_7
330
0
 90
       10
 62
     7
370
    -3
331
16
  1
Color_7
330
0
 90
        2
 62
     7
370
    -3
331
16
  1
Color_7
330
0
 90
       10
 62
     7
370
    -3
331
16
  1
Color_7
330
0
 90
        2
 62
     7
370
    -3
331
16
  1
Color_7
330
0
 90
       10
 62
     7
370
    -3
331
16
  1
Color_7
330
0
 90
        2
 62
     7
370
    -3
331
16
  1
Color_7
330
0
 90
       10
 62
     7
370
    -3
331
16
  1
Color_7
330
0
 90
        2
 62
     7
370
    -3
331
16
  1
Color_7
330
0
 90
       10
 62
     7
370
    -3
331
16
  1
Color_7
330
0
 90
        2
 62
     7
370
    -3
331
16
  1
Color_7
330
0
 90
       10
 62
     7
370
    -3
331
16
  1
Color_7
330
0
 90
        2
 62
     7
370
    -3
331
16
  1
Color_7
330
0
 90
       10
 62
     7
370
    -3
331
16
  1
Color_7
330
0
 90
        2
 62
     7
370
    -3
331
16
  1
Color_7
330
0
 90
       10
 62
     7
370
    -3
331
16
  1
Color_7
330
0
 90
        2
 62
     7
370
    -3
331
16
  1
Color_7
  0
XRECORD
  5
3D8B
102
{ACAD_XDICTIONARY
360
3D8C
102
}
102
{ACAD_REACTORS
330
290
102
}
330
290
100
AcDbXrecord
280
     1
 91
      514
301

290
     0
302
0
330
0
 90
       10
 62
     7
370
    -3
331
16
  1
Color_7
330
0
 90
       10
 62
     7
370
    -3
331
16
  1
Color_7
330
0
 90
       10
 62
     7
370
    -3
331
16
  1
Color_7
330
0
 90
        2
 62
    30
370
    -3
331
16
  1
Color_30
330
0
 90
       10
 62
   252
370
    -3
331
16
  1
Color_252
330
0
 90
       10
 62
     3
370
    30
331
16
  1
Color_3
330
0
 90
       10
 62
   253
370
    -3
331
16
  1
Color_253
330
0
 90
       10
 62
     1
370
    -3
331
16
  1
Color_1
330
0
 90
        2
 62
     5
370
    -3
331
16
  1
Color_5
330
0
 90
       10
 62
     2
370
    -3
331
16
  1
Color_2
330
0
 90
        2
 62
   178
370
    -3
331
16
  1
Color_178
 92
-1039794079
330
0
 90
       10
 62
     7
370
    -3
331
16
  1
Color_7
330
0
 90
       10
 62
     7
370
    -3
331
16
  1
Color_7
330
0
 90
       10
 62
     7
370
    -3
331
16
  1
Color_7
330
0
 90
       10
 62
     7
370
    -3
331
16
  1
Color_7
330
0
 90
       10
 62
     7
370
    -3
331
16
  1
Color_7
330
0
 90
        2
 62
     4
370
    -3
331
16
  1
Color_4
330
0
 90
        2
 62
     7
370
    -3
331
16
  1
Color_7
330
10
 90
        8
 62
     7
370
    -3
331
16
  1
Color_7
330
37D
 90
        0
 62
     7
370
    -3
331
16
  1
Color_7
330
0
 90
       10
 62
     7
370
    -3
331
16
  1
Color_7
330
0
 90
       10
 62
     7
370
    -3
331
16
  1
Color_7
330
0
 90
       10
 62
     7
370
    -3
331
16
  1
Color_7
330
0
 90
       10
 62
     7
370
    -3
331
16
  1
Color_7
330
0
 90
       10
 62
     7
370
    -3
331
16
  1
Color_7
330
0
 90
       10
 62
     7
370
    -3
331
16
  1
Color_7
330
0
 90
       10
 62
     7
370
    -3
331
16
  1
Color_7
330
0
 90
       10
 62
     7
370
    -3
331
16
  1
Color_7
330
0
 90
       10
 62
     7
370
    -3
331
16
  1
Color_7
330
0
 90
       10
 62
     7
370
    -3
331
16
  1
Color_7
330
0
 90
       10
 62
     7
370
    -3
331
16
  1
Color_7
330
0
 90
       10
 62
     7
370
    -3
331
16
  1
Color_7
330
0
 90
       10
 62
     7
370
    -3
331
16
  1
Color_7
330
0
 90
       10
 62
     7
370
    -3
331
16
  1
Color_7
330
0
 90
       10
 62
     7
370
    -3
331
16
  1
Color_7
330
0
 90
       10
 62
     7
370
    -3
331
16
  1
Color_7
330
0
 90
       10
 62
     7
370
    -3
331
16
  1
Color_7
330
0
 90
       10
 62
     7
370
    -3
331
16
  1
Color_7
330
0
 90
       10
 62
     7
370
    -3
331
16
  1
Color_7
330
0
 90
       10
 62
     7
370
    -3
331
16
  1
Color_7
330
0
 90
       10
 62
     7
370
    -3
331
16
  1
Color_7
330
0
 90
       10
 62
     7
370
    -3
331
16
  1
Color_7
330
0
 90
       10
 62
     7
370
    -3
331
16
  1
Color_7
330
0
 90
       10
 62
     7
370
    -3
331
16
  1
Color_7
330
0
 90
       10
 62
     7
370
    -3
331
16
  1
Color_7
330
0
 90
       10
 62
     7
370
    -3
331
16
  1
Color_7
330
0
 90
       10
 62
     7
370
    -3
331
16
  1
Color_7
330
0
 90
       10
 62
     7
370
    -3
331
16
  1
Color_7
330
0
 90
       10
 62
     7
370
    -3
331
16
  1
Color_7
330
0
 90
       10
 62
     7
370
    -3
331
16
  1
Color_7
330
0
 90
       10
 62
     7
370
    -3
331
16
  1
Color_7
330
0
 90
       10
 62
     7
370
    -3
331
16
  1
Color_7
330
0
 90
       10
 62
     7
370
    -3
331
16
  1
Color_7
330
0
 90
       10
 62
     7
370
    -3
331
16
  1
Color_7
330
0
 90
       10
 62
     7
370
    -3
331
16
  1
Color_7
330
0
 90
       10
 62
     7
370
    -3
331
16
  1
Color_7
330
0
 90
       10
 62
     7
370
    -3
331
16
  1
Color_7
330
0
 90
       10
 62
     7
370
    -3
331
16
  1
Color_7
330
0
 90
       10
 62
     7
370
    -3
331
16
  1
Color_7
330
0
 90
       10
 62
     7
370
    -3
331
16
  1
Color_7
330
0
 90
       10
 62
     7
370
    -3
331
16
  1
Color_7
330
0
 90
       10
 62
     7
370
    -3
331
16
  1
Color_7
330
0
 90
       10
 62
     7
370
    -3
331
16
  1
Color_7
330
0
 90
       10
 62
     7
370
    -3
331
16
  1
Color_7
330
0
 90
       10
 62
     7
370
    -3
331
16
  1
Color_7
330
0
 90
       10
 62
     7
370
    -3
331
16
  1
Color_7
330
0
 90
       10
 62
     7
370
    -3
331
16
  1
Color_7
330
0
 90
       10
 62
     7
370
    -3
331
16
  1
Color_7
330
0
 90
       10
 62
     7
370
    -3
331
16
  1
Color_7
330
0
 90
       10
 62
     7
370
    -3
331
16
  1
Color_7
330
0
 90
       10
 62
     7
370
    -3
331
16
  1
Color_7
330
0
 90
       10
 62
     7
370
    -3
331
16
  1
Color_7
330
0
 90
       10
 62
     7
370
    -3
331
16
  1
Color_7
330
0
 90
       10
 62
     7
370
    -3
331
16
  1
Color_7
330
0
 90
       10
 62
     7
370
    -3
331
16
  1
Color_7
330
0
 90
       10
 62
     7
370
    -3
331
16
  1
Color_7
330
0
 90
       10
 62
     7
370
    -3
331
16
  1
Color_7
330
0
 90
       10
 62
     7
370
    -3
331
16
  1
Color_7
330
0
 90
       10
 62
     7
370
    -3
331
16
  1
Color_7
330
0
 90
       10
 62
     7
370
    -3
331
16
  1
Color_7
330
0
 90
       10
 62
     7
370
    -3
331
16
  1
Color_7
330
0
 90
       10
 62
     7
370
    -3
331
16
  1
Color_7
330
0
 90
       10
 62
     7
370
    -3
331
16
  1
Color_7
330
0
 90
       10
 62
     7
370
    -3
331
16
  1
Color_7
330
0
 90
       10
 62
     7
370
    -3
331
16
  1
Color_7
330
0
 90
       10
 62
     7
370
    -3
331
16
  1
Color_7
330
0
 90
       10
 62
     7
370
    -3
331
16
  1
Color_7
330
0
 90
       10
 62
     7
370
    -3
331
16
  1
Color_7
330
0
 90
       10
 62
     7
370
    -3
331
16
  1
Color_7
330
0
 90
       10
 62
     7
370
    -3
331
16
  1
Color_7
330
0
 90
       10
 62
     7
370
    -3
331
16
  1
Color_7
330
0
 90
       10
 62
     7
370
    -3
331
16
  1
Color_7
330
0
 90
       10
 62
     7
370
    -3
331
16
  1
Color_7
330
0
 90
       10
 62
     7
370
    -3
331
16
  1
Color_7
330
0
 90
       10
 62
     7
370
    -3
331
16
  1
Color_7
330
0
 90
       10
 62
     7
370
    -3
331
16
  1
Color_7
330
0
 90
       10
 62
     7
370
    -3
331
16
  1
Color_7
330
0
 90
       10
 62
     7
370
    -3
331
16
  1
Color_7
330
0
 90
       10
 62
     7
370
    -3
331
16
  1
Color_7
330
0
 90
        2
 62
     7
370
    -3
331
16
  1
Color_7
330
0
 90
       10
 62
     7
370
    -3
331
16
  1
Color_7
330
0
 90
        2
 62
     7
370
    -3
331
16
  1
Color_7
330
0
 90
       10
 62
     7
370
    -3
331
16
  1
Color_7
330
0
 90
        2
 62
     7
370
    -3
331
16
  1
Color_7
330
0
 90
       10
 62
     7
370
    -3
331
16
  1
Color_7
330
0
 90
        2
 62
     7
370
    -3
331
16
  1
Color_7
330
0
 90
       10
 62
     7
370
    -3
331
16
  1
Color_7
330
0
 90
        2
 62
     7
370
    -3
331
16
  1
Color_7
330
0
 90
       10
 62
     7
370
    -3
331
16
  1
Color_7
330
0
 90
        2
 62
     7
370
    -3
331
16
  1
Color_7
330
0
 90
       10
 62
     7
370
    -3
331
16
  1
Color_7
330
0
 90
        2
 62
     7
370
    -3
331
16
  1
Color_7
330
0
 90
       10
 62
     7
370
    -3
331
16
  1
Color_7
330
0
 90
        2
 62
     7
370
    -3
331
16
  1
Color_7
330
0
 90
       10
 62
     7
370
    -3
331
16
  1
Color_7
330
0
 90
        2
 62
     7
370
    -3
331
16
  1
Color_7
330
0
 90
       10
 62
     7
370
    -3
331
16
  1
Color_7
330
0
 90
        2
 62
     7
370
    -3
331
16
  1
Color_7
330
0
 90
       10
 62
     7
370
    -3
331
16
  1
Color_7
330
0
 90
        2
 62
     7
370
    -3
331
16
  1
Color_7
330
0
 90
       10
 62
     7
370
    -3
331
16
  1
Color_7
330
0
 90
        2
 62
     7
370
    -3
331
16
  1
Color_7
330
0
 90
       10
 62
     7
370
    -3
331
16
  1
Color_7
330
0
 90
        2
 62
     7
370
    -3
331
16
  1
Color_7
330
0
 90
       10
 62
     7
370
    -3
331
16
  1
Color_7
330
0
 90
        2
 62
     7
370
    -3
331
16
  1
Color_7
330
0
 90
       10
 62
     7
370
    -3
331
16
  1
Color_7
330
0
 90
        2
 62
     7
370
    -3
331
16
  1
Color_7
330
0
 90
       10
 62
     7
370
    -3
331
16
  1
Color_7
330
0
 90
        2
 62
     7
370
    -3
331
16
  1
Color_7
330
0
 90
       10
 62
     7
370
    -3
331
16
  1
Color_7
330
0
 90
        2
 62
     7
370
    -3
331
16
  1
Color_7
330
0
 90
       10
 62
     7
370
    -3
331
16
  1
Color_7
330
0
 90
        2
 62
     7
370
    -3
331
16
  1
Color_7
330
0
 90
       10
 62
     7
370
    -3
331
16
  1
Color_7
330
0
 90
        2
 62
     7
370
    -3
331
16
  1
Color_7
330
0
 90
       10
 62
     7
370
    -3
331
16
  1
Color_7
330
0
 90
        2
 62
     7
370
    -3
331
16
  1
Color_7
330
0
 90
       10
 62
     7
370
    -3
331
16
  1
Color_7
330
0
 90
        2
 62
     7
370
    -3
331
16
  1
Color_7
330
0
 90
       10
 62
     7
370
    -3
331
16
  1
Color_7
330
0
 90
        2
 62
     7
370
    -3
331
16
  1
Color_7
330
0
 90
       10
 62
     7
370
    -3
331
16
  1
Color_7
330
0
 90
        2
 62
     7
370
    -3
331
16
  1
Color_7
330
0
 90
       10
 62
     7
370
    -3
331
16
  1
Color_7
330
0
 90
        2
 62
     7
370
    -3
331
16
  1
Color_7
330
0
 90
       10
 62
     7
370
    -3
331
16
  1
Color_7
330
0
 90
        2
 62
     7
370
    -3
331
16
  1
Color_7
330
0
 90
       10
 62
     7
370
    -3
331
16
  1
Color_7
330
0
 90
        2
 62
     7
370
    -3
331
16
  1
Color_7
330
0
 90
       10
 62
     7
370
    -3
331
16
  1
Color_7
330
0
 90
        2
 62
     7
370
    -3
331
16
  1
Color_7
330
0
 90
       10
 62
     7
370
    -3
331
16
  1
Color_7
330
0
 90
        2
 62
     7
370
    -3
331
16
  1
Color_7
330
0
 90
       10
 62
     7
370
    -3
331
16
  1
Color_7
330
0
 90
        2
 62
     7
370
    -3
331
16
  1
Color_7
330
0
 90
       10
 62
     7
370
    -3
331
16
  1
Color_7
330
0
 90
        2
 62
     7
370
    -3
331
16
  1
Color_7
  0
XRECORD
  5
A974
102
{ACAD_XDICTIONARY
360
A975
102
}
102
{ACAD_REACTORS
330
290
102
}
330
290
100
AcDbXrecord
280
     1
 91
      514
301

290
     0
302
0
330
0
 90
        8
 62
     7
370
    -3
  6
Continuous
  1
Color_7
330
0
 90
        8
 62
     7
370
    -3
  6
Continuous
  1
Color_7
330
0
 90
        8
 62
     7
370
    -3
  6
Continuous
  1
Color_7
330
0
 90
        0
 62
    30
370
    -3
  6
Continuous
  1
Color_30
330
0
 90
        8
 62
   252
370
    -3
  6
Continuous
  1
Color_252
330
0
 90
        8
 62
     3
370
    30
  6
Continuous
  1
Color_3
330
0
 90
        8
 62
   253
370
    -3
  6
Continuous
  1
Color_253
330
0
 90
        8
 62
     1
370
    -3
  6
Continuous
  1
Color_1
330
0
 90
        0
 62
     5
370
    -3
  6
Continuous
  1
Color_5
330
0
 90
        8
 62
     2
370
    -3
  6
Continuous
  1
Color_2
330
0
 90
        0
 62
   178
370
    -3
  6
Continuous
  1
Color_178
 92
-1039794079
330
0
 90
        8
 62
     7
370
    -3
  6
Continuous
  1
Color_7
330
0
 90
        8
 62
     7
370
    -3
  6
Continuous
  1
Color_7
330
0
 90
        8
 62
     7
370
    -3
  6
Continuous
  1
Color_7
330
0
 90
        8
 62
     7
370
    -3
  6
Continuous
  1
Color_7
330
0
 90
        8
 62
     7
370
    -3
  6
Continuous
  1
Color_7
330
0
 90
        0
 62
     4
370
    -3
  6
Continuous
  1
Color_4
330
0
 90
        0
 62
     7
370
    -3
  6
Continuous
  1
Color_7
  8
defpoints
 90
        0
 62
     7
370
    -3
  6
Continuous
  1
Color_7
  8
0
 90
        8
 62
     7
370
    -3
  6
Continuous
  1
Color_7
330
0
 90
       10
 62
     7
370
    -3
  6
Continuous
  1
Color_7
330
0
 90
       10
 62
     7
370
    -3
  6
Continuous
  1
Color_7
330
0
 90
       10
 62
     7
370
    -3
  6
Continuous
  1
Color_7
330
0
 90
       10
 62
     7
370
    -3
  6
Continuous
  1
Color_7
330
0
 90
       10
 62
     7
370
    -3
  6
Continuous
  1
Color_7
330
0
 90
       10
 62
     7
370
    -3
  6
Continuous
  1
Color_7
330
0
 90
       10
 62
     7
370
    -3
  6
Continuous
  1
Color_7
330
0
 90
       10
 62
     7
370
    -3
  6
Continuous
  1
Color_7
330
0
 90
       10
 62
     7
370
    -3
  6
Continuous
  1
Color_7
330
0
 90
       10
 62
     7
370
    -3
  6
Continuous
  1
Color_7
330
0
 90
        2
 62
     7
370
    -3
  6
Continuous
  1
Color_7
330
0
 90
       10
 62
     7
370
    -3
  6
Continuous
  1
Color_7
330
0
 90
        2
 62
     7
370
    -3
  6
Continuous
  1
Color_7
330
0
 90
       10
 62
     7
370
    -3
  6
Continuous
  1
Color_7
330
0
 90
        2
 62
     7
370
    -3
  6
Continuous
  1
Color_7
330
0
 90
       10
 62
     7
370
    -3
  6
Continuous
  1
Color_7
330
0
 90
        2
 62
     7
370
    -3
  6
Continuous
  1
Color_7
330
0
 90
       10
 62
     7
370
    -3
  6
Continuous
  1
Color_7
330
0
 90
        2
 62
     7
370
    -3
  6
Continuous
  1
Color_7
330
0
 90
       10
 62
     7
370
    -3
  6
Continuous
  1
Color_7
330
0
 90
        2
 62
     7
370
    -3
  6
Continuous
  1
Color_7
330
0
 90
       10
 62
     7
370
    -3
  6
Continuous
  1
Color_7
330
0
 90
        2
 62
     7
370
    -3
  6
Continuous
  1
Color_7
  0
XRECORD
  5
A978
102
{ACAD_XDICTIONARY
360
A979
102
}
102
{ACAD_REACTORS
330
290
102
}
330
290
100
AcDbXrecord
280
     1
 91
      514
301

290
     0
302
0
330
0
 90
       10
 62
     7
370
    -3
  6
Continuous
  1
Color_7
330
0
 90
       10
 62
     7
370
    -3
  6
Continuous
  1
Color_7
330
0
 90
       10
 62
     7
370
    -3
  6
Continuous
  1
Color_7
330
0
 90
        2
 62
    30
370
    -3
  6
Continuous
  1
Color_30
330
0
 90
       10
 62
   252
370
    -3
  6
Continuous
  1
Color_252
330
0
 90
       10
 62
     3
370
    30
  6
Continuous
  1
Color_3
330
0
 90
       10
 62
   253
370
    -3
  6
Continuous
  1
Color_253
330
0
 90
       10
 62
     1
370
    -3
  6
Continuous
  1
Color_1
330
0
 90
        2
 62
     5
370
    -3
  6
Continuous
  1
Color_5
330
0
 90
       10
 62
     2
370
    -3
  6
Continuous
  1
Color_2
330
0
 90
        2
 62
   178
370
    -3
  6
Continuous
  1
Color_178
 92
-1039794079
330
0
 90
       10
 62
     7
370
    -3
  6
Continuous
  1
Color_7
330
0
 90
       10
 62
     7
370
    -3
  6
Continuous
  1
Color_7
330
0
 90
       10
 62
     7
370
    -3
  6
Continuous
  1
Color_7
330
0
 90
       10
 62
     7
370
    -3
  6
Continuous
  1
Color_7
330
0
 90
       10
 62
     7
370
    -3
  6
Continuous
  1
Color_7
330
0
 90
        2
 62
     4
370
    -3
  6
Continuous
  1
Color_4
330
0
 90
        2
 62
     7
370
    -3
  6
Continuous
  1
Color_7
  8
0
 90
        8
 62
     7
370
    -3
  6
Continuous
  1
Color_7
  8
defpoints
 90
        0
 62
     7
370
    -3
  6
Continuous
  1
Color_7
330
0
 90
       10
 62
     7
370
    -3
  6
Continuous
  1
Color_7
330
0
 90
       10
 62
     7
370
    -3
  6
Continuous
  1
Color_7
330
0
 90
       10
 62
     7
370
    -3
  6
Continuous
  1
Color_7
330
0
 90
       10
 62
     7
370
    -3
  6
Continuous
  1
Color_7
330
0
 90
       10
 62
     7
370
    -3
  6
Continuous
  1
Color_7
330
0
 90
       10
 62
     7
370
    -3
  6
Continuous
  1
Color_7
330
0
 90
       10
 62
     7
370
    -3
  6
Continuous
  1
Color_7
330
0
 90
       10
 62
     7
370
    -3
  6
Continuous
  1
Color_7
330
0
 90
       10
 62
     7
370
    -3
  6
Continuous
  1
Color_7
330
0
 90
       10
 62
     7
370
    -3
  6
Continuous
  1
Color_7
330
0
 90
        2
 62
     7
370
    -3
  6
Continuous
  1
Color_7
330
0
 90
       10
 62
     7
370
    -3
  6
Continuous
  1
Color_7
330
0
 90
        2
 62
     7
370
    -3
  6
Continuous
  1
Color_7
330
0
 90
       10
 62
     7
370
    -3
  6
Continuous
  1
Color_7
330
0
 90
        2
 62
     7
370
    -3
  6
Continuous
  1
Color_7
330
0
 90
       10
 62
     7
370
    -3
  6
Continuous
  1
Color_7
330
0
 90
        2
 62
     7
370
    -3
  6
Continuous
  1
Color_7
330
0
 90
       10
 62
     7
370
    -3
  6
Continuous
  1
Color_7
330
0
 90
        2
 62
     7
370
    -3
  6
Continuous
  1
Color_7
330
0
 90
       10
 62
     7
370
    -3
  6
Continuous
  1
Color_7
330
0
 90
        2
 62
     7
370
    -3
  6
Continuous
  1
Color_7
330
0
 90
       10
 62
     7
370
    -3
  6
Continuous
  1
Color_7
330
0
 90
        2
 62
     7
370
    -3
  6
Continuous
  1
Color_7
  0
DICTIONARY
  5
170C
330
16BA
100
AcDbDictionary
280
     1
281
     1
  0
DICTIONARY
  5
4377
330
22
100
AcDbDictionary
280
     1
281
     1
  0
DICTIONARY
  5
A986
330
A985
100
AcDbDictionary
280
     1
281
     1
  3
ACAD_ROUNDTRIP_2008_TABLESTYLE_CELLSTYLEMAP
360
A9DC
  0
DICTIONARY
  5
30E
330
22C
100
AcDbDictionary
280
     1
281
     1
  3
ACAD_ROUNDTRIP_2008_TABLESTYLE_CELLSTYLEMAP
360
A9D9
  0
DICTIONARY
  5
811
330
223
100
AcDbDictionary
280
     1
281
     1
  3
LightingQuality
360
812
  0
XRECORD
  5
A38
102
{ACAD_REACTORS
330
A22
102
}
330
A22
100
AcDbXrecord
280
     1
1000
AIA Version 3
  0
BINRECORD
  5
A23
102
{ACAD_REACTORS
330
A22
102
}
330
A22
100
AcAecBinRecord
 90
        0
 91
    19403
 70
     0
310
0100FFFEFF0D4100490041002000560065007200730069006F006E00200033000500FFFF01001C004163416563556B4C6179657244657363726970746976654669656C64FFFEFF154400690073006300690070006C0069006E0065002000440065007300690067006E00610074006F0072000102000000007B333637354541
310
46100100002100000070BA406CD0EA76040B00FFFEFF001500FFFEFF01440002000000FFFEFF07500072006F0063006500730073000E00FFFEFF01440002000000FFFEFF12500072006F0063006500730073002000440065006D006F006C006900740069006F006E00000000000000FFFEFF01560002000000FFFEFF0E5000
310
72006F0063006500730073002000560061006300750075006D00000000000000FFFEFF01450002000000FFFEFF12500072006F006300650073007300200045006C0065006300740072006900630061006C00000000000000FFFEFF01570002000000FFFEFF0E500072006F0063006500730073002000570061007400650072
310
007300000000000000FFFEFF01580002000000FFFEFF0F500072006F00630065007300730020004500780068006100750073007400000000000000FFFEFF01470002000000FFFEFF0D500072006F006300650073007300200047006100730065007300000000000000FFFEFF014F0002000000FFFEFF0B500072006F006300
310
65007300730020004F0069006C00000000000000FFFEFF01500002000000FFFEFF0E500072006F006300650073007300200050006900700069006E006700000000000000FFFEFF01510002000000FFFEFF11500072006F0063006500730073002000450071007500690070006D0065006E007400000000000000FFFEFF0152
310
0002000000FFFEFF19500072006F006300650073007300200044007200610069006E0073002000260020005200650063006C00610069006D007300000000000000FFFEFF01410002000000FFFEFF0C500072006F00630065007300730020004100690072007300000000000000FFFEFF01530002000000FFFEFF0C50007200
310
6F00630065007300730020005300690074006500000000000000FFFEFF01540002000000FFFEFF18500072006F006300650073007300200045006E0074007200610069006E0065006400200053006F006C00690064007300000000000000FFFEFF01430002000000FFFEFF11500072006F0063006500730073002000430068
310
0065006D006900630061006C00730000000000000000000000FFFEFF01560002000000FFFEFF1053007500720076006500790020002F0020004D0061007000700069006E0067000500FFFEFF01460002000000FFFEFF0C4600690065006C0064002000530075007200760065007900000000000000FFFEFF01490002000000
310
FFFEFF0E4400690067006900740061006C002000530075007200760065007900000000000000FFFEFF014A0002000000FFFEFF1F53007500720076006500790020002F0020004D0061007000700069006E006700200028005500730065007200200044006500660069006E00650064002900000000000000FFFEFF014B0002
310
000000FFFEFF1F53007500720076006500790020002F0020004D0061007000700069006E006700200028005500730065007200200044006500660069006E00650064002900000000000000FFFEFF01410002000000FFFEFF0D410065007200690061006C00200053007500720076006500790000000000000000000000FFFE
310
FF01450002000000FFFEFF0A45006C0065006300740072006900630061006C000900FFFEFF01440002000000FFFEFF1545006C0065006300740072006900630061006C002000440065006D006F006C006900740069006F006E00000000000000FFFEFF01590002000000FFFEFF1C45006C0065006300740072006900630061
310
006C00200041007500780069006C0069006100720079002000530079007300740065006D007300000000000000FFFEFF01490002000000FFFEFF1A45006C0065006300740072006900630061006C00200049006E0073007400720075006D0065006E0074006100740069006F006E00000000000000FFFEFF014A0002000000
310
FFFEFF1945006C0065006300740072006900630061006C00200028005500730065007200200044006500660069006E00650064002900000000000000FFFEFF014B0002000000FFFEFF1945006C0065006300740072006900630061006C00200028005500730065007200200044006500660069006E00650064002900000000
310
000000FFFEFF014C0002000000FFFEFF1345006C0065006300740072006900630061006C0020004C00690067006800740069006E006700000000000000FFFEFF01500002000000FFFEFF1045006C0065006300740072006900630061006C00200050006F00770065007200000000000000FFFEFF01530002000000FFFEFF0F
310
45006C0065006300740072006900630061006C0020005300690074006500000000000000FFFEFF01540002000000FFFEFF1D45006C0065006300740072006900630061006C002000540065006C00650063006F006D006D0075006E00690063006100740069006F006E00730000000000000000000000FFFEFF015700020000
310
00FFFEFF0B43006900760069006C00200057006F0072006B0073000200FFFEFF014A0002000000FFFEFF1A43006900760069006C00200057006F0072006B007300200028005500730065007200200044006500660069006E00650064002900000000000000FFFEFF014B0002000000FFFEFF1A43006900760069006C002000
310
57006F0072006B007300200028005500730065007200200044006500660069006E0065006400290000000000000000000000FFFEFF01460002000000FFFEFF0F46006900720065002000500072006F00740065006300740069006F006E000400FFFEFF014A0002000000FFFEFF134600690072006500200028005500730065
310
007200200044006500660069006E00650064002900000000000000FFFEFF014B0002000000FFFEFF134600690072006500200028005500730065007200200044006500660069006E00650064002900000000000000FFFEFF01410002000000FFFEFF184600690072006500200044006500740065006300740069006F006E00
310
200061006E006400200041006C00610072006D00000000000000FFFEFF01530002000000FFFEFF10460069007200650020005300750070007000720065007300730069006F006E0000000000000000000000FFFEFF01470002000000FFFEFF07470065006E006500720061006C000500FFFEFF01490002000000FFFEFF1347
310
0065006E006500720061006C00200049006E0066006F0072006D006100740069006F006E00000000000000FFFEFF014A0002000000FFFEFF16470065006E006500720061006C00200028005500730065007200200044006500660069006E00650064002900000000000000FFFEFF014B0002000000FFFEFF16470065006E00
310
6500720061006C00200028005500730065007200200044006500660069006E00650064002900000000000000FFFEFF01520002000000FFFEFF10470065006E006500720061006C0020005200650073006F007500720063006500000000000000FFFEFF01430002000000FFFEFF13470065006E006500720061006C00200043
310
006F006E0074007200610063007400750061006C0000000000000000000000FFFEFF01580002000000FFFEFF114F00740068006500720020004400690073006300690070006C0069006E00650073000200FFFEFF014A0002000000FFFEFF204F00740068006500720020004400690073006300690070006C0069006E006500
310
7300200028005500730065007200200044006500660069006E00650064002900000000000000FFFEFF014B0002000000FFFEFF204F00740068006500720020004400690073006300690070006C0069006E0065007300200028005500730065007200200044006500660069006E0065006400290000000000000000000000FF
310
FEFF01480002000000FFFEFF13480061007A006100720064006F007500730020004D006100740065007200690061006C0073000700FFFEFF014A0002000000FFFEFF22480061007A006100720064006F007500730020004D006100740065007200690061006C00730020002800550073006500720020004400650066006900
310
6E00650064002900000000000000FFFEFF014B0002000000FFFEFF22480061007A006100720064006F007500730020004D006100740065007200690061006C007300200028005500730065007200200044006500660069006E00650064002900000000000000FFFEFF014C0002000000FFFEFF044C00650061006400000000
310
000000FFFEFF01500002000000FFFEFF03500043004200000000000000FFFEFF01520002000000FFFEFF0C5200650066007200690067006500720061006E0074007300000000000000FFFEFF01410002000000FFFEFF084100730062006500730074006F007300000000000000FFFEFF01430002000000FFFEFF0943006800
310
65006D006900630061006C00730000000000000000000000FFFEFF01490002000000FFFEFF0949006E0074006500720069006F00720073000600FFFEFF01440002000000FFFEFF1349006E0074006500720069006F0072002000440065006D006F006C006900740069006F006E00000000000000FFFEFF01460002000000FF
310
FEFF1149006E0074006500720069006F0072002000460069006E0069007300680065007300000000000000FFFEFF01470002000000FFFEFF1249006E0074006500720069006F0072007300200047007200610070006800690063007300000000000000FFFEFF014A0002000000FFFEFF1849006E0074006500720069006F00
310
72007300200028005500730065007200200044006500660069006E00650064002900000000000000FFFEFF014B0002000000FFFEFF1849006E0074006500720069006F0072007300200028005500730065007200200044006500660069006E00650064002900000000000000FFFEFF014E0002000000FFFEFF0F49006E0074
310
006500720069006F0072002000440065007300690067006E0000000000000000000000FFFEFF015A0002000000FFFEFF1A43006F006E00740072006100630074006F00720020002F002000530068006F0070002000440072006100770069006E00670073000200FFFEFF014A0002000000FFFEFF2943006F006E0074007200
310
6100630074006F00720020002F002000530068006F0070002000440072006100770069006E0067007300200028005500730065007200200044006500660069006E00650064002900000000000000FFFEFF014B0002000000FFFEFF2943006F006E00740072006100630074006F00720020002F002000530068006F00700020
310
00440072006100770069006E0067007300200028005500730065007200200044006500660069006E0065006400290000000000000000000000FFFEFF014C0002000000FFFEFF094C0061006E006400730063006100700065000500FFFEFF01440002000000FFFEFF144C0061006E0064007300630061007000650020004400
310
65006D006F006C006900740069006F006E00000000000000FFFEFF01490002000000FFFEFF144C0061006E006400730063006100700065002000490072007200690067006100740069006F006E00000000000000FFFEFF014A0002000000FFFEFF184C0061006E006400730063006100700065002000280055007300650072
310
00200044006500660069006E00650064002900000000000000FFFEFF014B0002000000FFFEFF184C0061006E00640073006300610070006500200028005500730065007200200044006500660069006E00650064002900000000000000FFFEFF01500002000000FFFEFF124C0061006E006400730063006100700065002000
310
50006C0061006E00740069006E00670000000000000000000000FFFEFF014D0002000000FFFEFF0A4D0065006300680061006E006900630061006C000700FFFEFF01440002000000FFFEFF154D0065006300680061006E006900630061006C002000440065006D006F006C006900740069006F006E00000000000000FFFEFF
310
01480002000000FFFEFF0F4D0065006300680061006E006900630061006C0020004800560041004300000000000000FFFEFF01490002000000FFFEFF1A4D0065006300680061006E006900630061006C00200049006E0073007400720075006D0065006E0074006100740069006F006E00000000000000FFFEFF014A000200
310
0000FFFEFF194D0065006300680061006E006900630061006C00200028005500730065007200200044006500660069006E00650064002900000000000000FFFEFF014B0002000000FFFEFF194D0065006300680061006E006900630061006C00200028005500730065007200200044006500660069006E0065006400290000
310
0000000000FFFEFF01500002000000FFFEFF114D0065006300680061006E006900630061006C00200050006900700069006E006700000000000000FFFEFF01530002000000FFFEFF0F4D0065006300680061006E006900630061006C002000530069007400650000000000000000000000FFFEFF014F0002000000FFFEFF0A
310
4F007000650072006100740069006F006E0073000200FFFEFF014A0002000000FFFEFF194F007000650072006100740069006F006E007300200028005500730065007200200044006500660069006E00650064002900000000000000FFFEFF014B0002000000FFFEFF194F007000650072006100740069006F006E00730020
310
0028005500730065007200200044006500660069006E0065006400290000000000000000000000FFFEFF01500002000000FFFEFF0850006C0075006D00620069006E0067000600FFFEFF01440002000000FFFEFF1350006C0075006D00620069006E0067002000440065006D006F006C006900740069006F006E0000000000
310
0000FFFEFF014A0002000000FFFEFF1750006C0075006D00620069006E006700200028005500730065007200200044006500660069006E00650064002900000000000000FFFEFF014B0002000000FFFEFF1750006C0075006D00620069006E006700200028005500730065007200200044006500660069006E006500640029
310
00000000000000FFFEFF01500002000000FFFEFF0F50006C0075006D00620069006E006700200050006900700069006E006700000000000000FFFEFF01510002000000FFFEFF1250006C0075006D00620069006E0067002000450071007500690070006D0065006E007400000000000000FFFEFF01530002000000FFFEFF0D
310
50006C0075006D00620069006E0067002000530069007400650000000000000000000000FFFEFF01510002000000FFFEFF09450071007500690070006D0065006E0074001100FFFEFF01440002000000FFFEFF1344006500740065006E00740069006F006E002000450071007500690070006D0065006E0074000000000000
310
00FFFEFF01560002000000FFFEFF1C56006900640065006F002F00500068006F0074006F0067007200610070006800690063002000450071007500690070006D0065006E007400000000000000FFFEFF01450002000000FFFEFF1545006400750063006100740069006F006E0061006C002000450071007500690070006D00
310
65006E007400000000000000FFFEFF01460002000000FFFEFF1646006F006F006400200053006500720076006900630065002000450071007500690070006D0065006E007400000000000000FFFEFF01590002000000FFFEFF12530065006300750072006900740079002000450071007500690070006D0065006E00740000
310
0000000000FFFEFF01480002000000FFFEFF1248006F00730070006900740061006C002000450071007500690070006D0065006E007400000000000000FFFEFF014A0002000000FFFEFF18450071007500690070006D0065006E007400200028005500730065007200200044006500660069006E0065006400290000000000
310
0000FFFEFF014B0002000000FFFEFF18450071007500690070006D0065006E007400200028005500730065007200200044006500660069006E00650064002900000000000000FFFEFF014C0002000000FFFEFF144C00610062006F007200610074006F00720079002000450071007500690070006D0065006E007400000000
310
000000FFFEFF014D0002000000FFFEFF154D00610069006E00740065006E0061006E00630065002000450071007500690070006D0065006E007400000000000000FFFEFF01500002000000FFFEFF155000610072006B0069006E00670020004C006F0074002000450071007500690070006D0065006E007400000000000000
310
FFFEFF01520002000000FFFEFF10520065007400610069006C002000450071007500690070006D0065006E007400000000000000FFFEFF01410002000000FFFEFF124100740068006C0065007400690063002000450071007500690070006D0065006E007400000000000000FFFEFF01530002000000FFFEFF0E5300690074
310
0065002000450071007500690070006D0065006E007400000000000000FFFEFF01420002000000FFFEFF0E420061006E006B002000450071007500690070006D0065006E007400000000000000FFFEFF01540002000000FFFEFF145400680065006100740072006900630061006C002000450071007500690070006D006500
310
6E007400000000000000FFFEFF01430002000000FFFEFF16440072007900200043006C00650061006E0069006E0067002000450071007500690070006D0065006E00740000000000000000000000FFFEFF01410002000000FFFEFF0D4100720063006800690074006500630074007500720061006C000A00FFFEFF01440002
310
000000FFFEFF184100720063006800690074006500630074007500720061006C002000440065006D006F006C006900740069006F006E00000000000000FFFEFF01450002000000FFFEFF164100720063006800690074006500630074007500720061006C00200045006C0065006D0065006E0074007300000000000000FFFE
310
FF01460002000000FFFEFF164100720063006800690074006500630074007500720061006C002000460069006E0069007300680065007300000000000000FFFEFF01470002000000FFFEFF164100720063006800690074006500630074007500720061006C00200047007200610070006800690063007300000000000000FF
310
FEFF01490002000000FFFEFF164100720063006800690074006500630074007500720061006C00200049006E0074006500720069006F007200000000000000FFFEFF014A0002000000FFFEFF1C4100720063006800690074006500630074007500720061006C00200028005500730065007200200044006500660069006E00
310
650064002900000000000000FFFEFF014B0002000000FFFEFF1C4100720063006800690074006500630074007500720061006C00200028005500730065007200200044006500660069006E00650064002900000000000000FFFEFF01500002000000FFFEFF144100720063006800690074006500630074007500720061006C
310
00200050006100760069006E006700000000000000FFFEFF01530002000000FFFEFF124100720063006800690074006500630074007500720061006C0020005300690074006500000000000000FFFEFF01540002000000FFFEFF1C4100720063006800690074006500630074007500720061006C0020005400720061006E00
310
730070006F00720074006100740069006F006E0000000000000001000000FFFEFF01520002000000FFFEFF085200650073006F0075007200630065000700FFFEFF01450002000000FFFEFF135200650073006F007500720063006500200045006C0065006300740072006900630061006C00000000000000FFFEFF014A0002
310
000000FFFEFF175200650073006F007500720063006500200028005500730065007200200044006500660069006E00650064002900000000000000FFFEFF014B0002000000FFFEFF175200650073006F007500720063006500200028005500730065007200200044006500660069006E00650064002900000000000000FFFE
310
FF014D0002000000FFFEFF135200650073006F00750072006300650020004D0065006300680061006E006900630061006C00000000000000FFFEFF01410002000000FFFEFF165200650073006F00750072006300650020004100720063006800690074006500630074007500720061006C00000000000000FFFEFF01530002
310
000000FFFEFF135200650073006F00750072006300650020005300740072007500630074007500720061006C00000000000000FFFEFF01430002000000FFFEFF0E5200650073006F007500720063006500200043006900760069006C0000000000000000000000FFFEFF01420002000000FFFEFF0C470065006F0074006500
310
630068006E006900630061006C000200FFFEFF014A0002000000FFFEFF1B470065006F0074006500630068006E006900630061006C00200028005500730065007200200044006500660069006E00650064002900000000000000FFFEFF014B0002000000FFFEFF1B470065006F0074006500630068006E006900630061006C
310
00200028005500730065007200200044006500660069006E0065006400290000000000000000000000FFFEFF01530002000000FFFEFF0A5300740072007500630074007500720061006C000600FFFEFF01440002000000FFFEFF155300740072007500630074007500720061006C002000440065006D006F006C0069007400
310
69006F006E00000000000000FFFEFF01460002000000FFFEFF125300740072007500630074007500720061006C0020004600720061006D0069006E006700000000000000FFFEFF014A0002000000FFFEFF195300740072007500630074007500720061006C00200028005500730065007200200044006500660069006E0065
310
0064002900000000000000FFFEFF014B0002000000FFFEFF195300740072007500630074007500720061006C00200028005500730065007200200044006500660069006E00650064002900000000000000FFFEFF01530002000000FFFEFF0F5300740072007500630074007500720061006C00200053006900740065000000
310
00000000FFFEFF01420002000000FFFEFF175300740072007500630074007500720061006C00200053007500620073007400720075006300740075007200650000000000000000000000FFFEFF01430002000000FFFEFF0543006900760069006C000900FFFEFF01440002000000FFFEFF1043006900760069006C00200044
310
0065006D006F006C006900740069006F006E00000000000000FFFEFF01550002000000FFFEFF0F43006900760069006C0020005500740069006C0069007400690065007300000000000000FFFEFF01470002000000FFFEFF0D43006900760069006C002000470072006100640069006E006700000000000000FFFEFF014900
310
02000000FFFEFF1243006900760069006C00200049006D00700072006F00760065006D0065006E0074007300000000000000FFFEFF014A0002000000FFFEFF1443006900760069006C00200028005500730065007200200044006500660069006E00650064002900000000000000FFFEFF014B0002000000FFFEFF14430069
310
00760069006C00200028005500730065007200200044006500660069006E00650064002900000000000000FFFEFF01500002000000FFFEFF0C43006900760069006C00200050006100760069006E006700000000000000FFFEFF01530002000000FFFEFF0A43006900760069006C0020005300690074006500000000000000
310
FFFEFF01540002000000FFFEFF1443006900760069006C0020005400720061006E00730070006F00720074006100740069006F006E0000000000000000000000FFFEFF01540002000000FFFEFF12540065006C00650063006F006D006D0075006E00690063006100740069006F006E0073000900FFFEFF01590002000000FF
310
FEFF0853006500630075007200690074007900000000000000FFFEFF01490002000000FFFEFF0849006E0074006500720063006F006D00000000000000FFFEFF014A0002000000FFFEFF21540065006C00650063006F006D006D0075006E00690063006100740069006F006E00730020002800550073006500720020004400
310
6500660069006E00650064002900000000000000FFFEFF014B0002000000FFFEFF21540065006C00650063006F006D006D0075006E00690063006100740069006F006E007300200028005500730065007200200044006500660069006E00650064002900000000000000FFFEFF014D0002000000FFFEFF0A4D006F006E0069
310
0074006F00720069006E006700000000000000FFFEFF014E0002000000FFFEFF0D440061007400610020004E006500740077006F0072006B007300000000000000FFFEFF01410002000000FFFEFF0E41007500640069006F0020002F002000560069007300750061006C00000000000000FFFEFF01540002000000FFFEFF09
310
540065006C006500700068006F006E006500000000000000FFFEFF01430002000000FFFEFF1143006C006F0063006B00200061006E0064002000500072006F006700720061006D00000000000000000000000180FFFEFF054D0061006A006F0072000300000000000000000000000000000000000000000000000000000000
310
000000FFFEFF002300FFFEFF052D0046006C006F00720002000000FFFEFF0546006C006F006F007200000000000000FFFEFF052D004500710070006D0002000000FFFEFF09450071007500690070006D0065006E007400000000000000FFFEFF052D00530069007400650002000000FFFEFF09530069007400650020007000
310
6C0061006E00000000000000FFFEFF052D0050006C0061006E0002000000FFFEFF154B0065007900200070006C0061006E002000280066006C006F006F007200200070006C0061006E002900000000000000FFFEFF052D004400650074006C0002000000FFFEFF06440065007400610069006C00000000000000FFFEFF052D
310
0054006F0070006F0002000000FFFEFF0A54006F0070006F00670072006100700068007900000000000000FFFEFF052D004300740072006C0002000000FFFEFF0E43006F006E00740072006F006C00200050006F0069006E0074007300000000000000FFFEFF052D004600750072006E0002000000FFFEFF0B460075007200
310
6E0069007300680069006E0067007300000000000000FFFEFF052D0053006C006100620002000000FFFEFF0553006C00610062007300000000000000FFFEFF052D0050006F006C00790002000000FFFEFF0850006F006C00790067006F006E007300000000000000FFFEFF052D0043006F006D006D0002000000FFFEFF1254
310
0065006C00650063006F006D006D0075006E00690063006100740069006F006E007300000000000000FFFEFF052D00570061006C006C0002000000FFFEFF05570061006C006C007300000000000000FFFEFF052D0047006C0061007A0002000000FFFEFF0747006C0061007A0069006E006700000000000000FFFEFF052D00
310
410072006500610002000000FFFEFF044100720065006100000000000000FFFEFF052D0043006F006400650002000000FFFEFF1443006F0064006500200063006F006D0070006C00690061006E0063006500200070006C0061006E00000000000000FFFEFF052D005300740072006D0002000000FFFEFF0844007200610069
310
006E00610067006500000000000000FFFEFF052D0044006F006F00720002000000FFFEFF0544006F006F0072007300000000000000FFFEFF052D0041006E006E006F0002000000FFFEFF0A41006E006E006F0074006100740069006F006E00000000000000FFFEFF052D004200650061006D0002000000FFFEFF0542006500
310
61006D007300000000000000FFFEFF052D004C0069007400650002000000FFFEFF114C00690067006800740069006E006700200066006900780074007500720065007300000000000000FFFEFF052D00480056004100430002000000FFFEFF044800560041004300000000000000FFFEFF052D004100630063007300020000
310
00FFFEFF0B410063006300650073007300200070006C0061006E00000000000000FFFEFF052D0043006F006C00730002000000FFFEFF0743006F006C0075006D006E007300000000000000FFFEFF052D0043006C006E00670002000000FFFEFF074300650069006C0069006E006700000000000000FFFEFF052D0045007600
310
6100630002000000FFFEFF0F450076006100630075006100740069006F006E00200070006C0061006E00000000000000FFFEFF052D0043006F006E00760002000000FFFEFF1143006F006E0076006500790069006E0067002000730079007300740065006D007300000000000000FFFEFF052D005300650063007400020000
310
00FFFEFF07530065006300740069006F006E00000000000000FFFEFF052D00500072006F00700002000000FFFEFF08500072006F0070006500720074007900000000000000FFFEFF052D0052006F006F00660002000000FFFEFF0452006F006F006600000000000000FFFEFF052D0045006C006500630002000000FFFEFF0A
310
45006C0065006300740072006900630061006C00000000000000FFFEFF052D00470072006900640002000000FFFEFF0A470072006900640020006C0069006E0065007300000000000000FFFEFF052D00540069006E006E0002000000FFFEFF1E54007200690061006E00670075006C00610074006500640020006900720072
310
006500670075006C006100720020006E006500740077006F0072006B00000000000000FFFEFF052D00500072006F00740002000000FFFEFF1646006900720065002000700072006F00740065006300740069006F006E002000730079007300740065006D00000000000000FFFEFF052D00460069007200650002000000FFFE
310
FF1446006900720065002000700072006F00740065006300740069006F006E00200070006C0061006E00000000000000FFFEFF052D0045006C006500760002000000FFFEFF0945006C00650076006100740069006F006E000000000000000180FFFEFF074D0069006E006F00720020003100040000000000000000F00E7704
310
00000000000000000000000000000000F00000FFFEFF006A00FFFEFF052D00410062006F00760002000000FFFEFF0E45006C0065006D0065006E00740073002000610062006F0076006500000000000000FFFEFF052D005400610062006C0002000000FFFEFF0B440061007400610020007400610062006C00650073000000
310
00000000FFFEFF052D00420064007200790002000000FFFEFF0842006F0075006E006400610072007900000000000000FFFEFF052D004500710070006D0002000000FFFEFF09450071007500690070006D0065006E007400000000000000FFFEFF052D0043006E007400720002000000FFFEFF0A430065006E007400650072
310
006C0069006E006500000000000000FFFEFF052D0057006B007300660002000000FFFEFF1E530079007300740065006D00200077006F0072006B0020007300750072006600610063006500200063006F006D0070006F006E0065006E0074007300000000000000FFFEFF052D00420072006E00670002000000FFFEFF1A4200
310
65006100720069006E0067007300200026002000640069007300740061006E006300650020006C006100620065006C007300000000000000FFFEFF052D00530077006300680002000000FFFEFF0853007700690074006300680065007300000000000000FFFEFF052D005400680069006E0002000000FFFEFF195400680069
310
006E0020007700650069006700680074002000670072006100700068006900630020006C0069006E0065007300000000000000FFFEFF052D00520061006900730002000000FFFEFF06520061006900730065006400000000000000FFFEFF052D004F00700065006E0002000000FFFEFF084F00700065006E0069006E006700
310
7300000000000000FFFEFF052D004E0070006C00740002000000FFFEFF204E006F006E002D0070006C006F007400740069006E00670020006700720061007000680069006300200069006E0066006F0072006D006100740069006F006E00000000000000FFFEFF052D00500072006F00660002000000FFFEFF08500072006F
310
00660069006C0065007300000000000000FFFEFF052D005200650066006C0002000000FFFEFF0E5200650066006C0065006300740065006400200050006C0061006E00000000000000FFFEFF052D00460069006E00650002000000FFFEFF19460069006E006500200077006500690067006800740020006700720061007000
310
68006900630020006C0069006E0065007300000000000000FFFEFF052D004100700070006C0002000000FFFEFF0A4100700070006C00690061006E00630065007300000000000000FFFEFF052D00440069006D00730002000000FFFEFF0A440069006D0065006E00730069006F006E007300000000000000FFFEFF052D0050
310
006F007700720002000000FFFEFF0550006F00770065007200000000000000FFFEFF052D0053006C006100620002000000FFFEFF0553006C00610062007300000000000000FFFEFF052D0043006F006E006E0002000000FFFEFF0B43006F006E006E0065006300740069006F006E007300000000000000FFFEFF052D005700
310
61006C006C0002000000FFFEFF05570061006C006C007300000000000000FFFEFF052D004100730073006D0002000000FFFEFF0A41007300730065006D0062006C00690065007300000000000000FFFEFF052D005600680063006C0002000000FFFEFF08560065006800690063006C0065007300000000000000FFFEFF052D
310
0043006F006D006D0002000000FFFEFF1A540065006C006500700068006F006E0065002C00200063006F006D006D0075006E00690063006100740069006F006E0073002000000000000000FFFEFF052D00460072006500650002000000FFFEFF0C46007200650065007300740061006E00640069006E006700000000000000
310
FFFEFF052D00530079006D00620002000000FFFEFF07530079006D0062006F006C007300000000000000FFFEFF052D00520064006D00650002000000FFFEFF1B52006500610064002D006D00650020006C006100790065007200200028006E006F007400200070006C006F0074007400650064002900000000000000FFFEFF
310
052D0053006C006300650002000000FFFEFF0653006C006900630065007300000000000000FFFEFF052D00460061007300630002000000FFFEFF074600610073006300690061007300000000000000FFFEFF052D00460069006C00650002000000FFFEFF0D460069006C006500200063006100620069006E00650074007300
310
000000000000FFFEFF052D004D00610073006B0002000000FFFEFF1241004400540020004D00610073006B0069006E00670020004F0062006A00650063007400000000000000FFFEFF052D004A0061006D00620002000000FFFEFF1544006F006F007200200061006E0064002000770069006E0064006F00770020006A0061
310
006D0062007300000000000000FFFEFF052D005300690067006E0002000000FFFEFF055300690067006E007300000000000000FFFEFF052D0046006E007300680002000000FFFEFF08460069006E0069007300680065007300000000000000FFFEFF052D00530063006800640002000000FFFEFF0953006300680065006400
310
75006C0065007300000000000000FFFEFF052D00500072006800740002000000FFFEFF0E5000610072007400690061006C002000680065006900670068007400000000000000FFFEFF052D00470072007000730002000000FFFEFF06470072006F00750070007300000000000000FFFEFF052D00540068006C006400020000
310
00FFFEFF0A5400680072006500730068006F006C0064007300000000000000FFFEFF052D005300630072006E0002000000FFFEFF14530063007200650065006E006500640020004200610063006B00670072006F0075006E0064007300000000000000FFFEFF052D0043006F006D00700002000000FFFEFF1349006E007400
310
650072006E0061006C00200063006F006D0070006F006E0065006E0074007300000000000000FFFEFF052D005400690074006C0002000000FFFEFF18440072006100770069006E00670020006F0072002000640065007400610069006C0020007400690074006C0065007300000000000000FFFEFF052D0054006500780074
310
0002000000FFFEFF045400650078007400000000000000FFFEFF052D004D00610072006B0002000000FFFEFF1D4D00610072006B006500720073002C00200062007200650061006B0020006D00610072006B0073002C0020006C00650061006400650072007300000000000000FFFEFF052D00460075006C006C0002000000
310
FFFEFF0B460075006C006C002D00680065006900670068007400000000000000FFFEFF052D00450076007400720002000000FFFEFF1B45006C0065007600610074006F00720020006300610072007300200061006E0064002000650071007500690070006D0065006E007400000000000000FFFEFF052D0053007000630065
310
0002000000FFFEFF0553007000610063006500000000000000FFFEFF052D00530075007300700002000000FFFEFF12530075007300700065006E00640065006400200065006C0065006D0065006E0074007300000000000000FFFEFF052D00540065006500730002000000FFFEFF094D00610069006E002000740065006500
310
7300000000000000FFFEFF052D00460069007800740002000000FFFEFF1170006C0075006D00620069006E006700200066006900780074007500720065007300000000000000FFFEFF052D00520065006600720002000000FFFEFF195200650066006500720065006E00630065002C002000650078007400650072006E0061
310
006C002000660069006C0065007300000000000000FFFEFF052D004C00610062006C0002000000FFFEFF064C006100620065006C007300000000000000FFFEFF052D004C0069007400650002000000FFFEFF084C00690067006800740069006E006700000000000000FFFEFF052D00480065007600790002000000FFFEFF1A
310
4800650061007600790020007700650069006700680074002000670072006100700068006900630020006C0069006E0065007300000000000000FFFEFF052D00480065006100640002000000FFFEFF1744006F006F007200200061006E0064002000770069006E0064006F0077002000680065006100640065007200730000
310
0000000000FFFEFF052D004C00650067006E0002000000FFFEFF144C006500670065006E00640073002C002000530079006D0062006F006C0020006B00650079007300000000000000FFFEFF052D004B00650079006E0002000000FFFEFF084B00650079006E006F00740065007300000000000000FFFEFF052D0046006900
310
7800640002000000FFFEFF0F460069007800650064002000650071007500690070006D0065006E007400000000000000FFFEFF052D004C00650076006C0002000000FFFEFF274C006500760065006C0020006300680061006E006700650073002C002000720061006D00700073002C00200070006900740073002C00200064
310
0065007000720065007300730069006F006E007300000000000000FFFEFF052D004D00650064006D0002000000FFFEFF1B4D0065006400690075006D0020007700650069006700680074002000670072006100700068006900630020006C0069006E0065007300000000000000FFFEFF052D0042006C006F00770002000000
310
FFFEFF0E45006C0065006D0065006E00740073002000620065006C006F007700000000000000FFFEFF052D00410063006300730002000000FFFEFF06410063006300650073007300000000000000FFFEFF052D004F0063006300700002000000FFFEFF1A4F00630063007500700061006E00740020006F007200200065006D
310
0070006C006F0079006500650020006E0061006D0065007300000000000000FFFEFF052D00430061007300650002000000FFFEFF08430061007300650077006F0072006B00000000000000FFFEFF052D00520065007600730002000000FFFEFF095200650076006900730069006F006E007300000000000000FFFEFF052D00
310
420072006300650002000000FFFEFF06420072006100630065007300000000000000FFFEFF052D00480069006400650002000000FFFEFF0E480069006400640065006E0020006F0062006A006500630074007300000000000000FFFEFF052D0043006C006E00670002000000FFFEFF074300650069006C0069006E00670000
310
0000000000FFFEFF052D005500740069006C0002000000FFFEFF095500740069006C0069007400690065007300000000000000FFFEFF052D00500061007400740002000000FFFEFF19540065007800740075007200650020006F00720020006800610074006300680020007000610074007400650072006E00730000000000
310
0000FFFEFF052D00430061007600690002000000FFFEFF06430061007600690074007900000000000000FFFEFF052D0050006C006E00740002000000FFFEFF0650006C0061006E0074007300000000000000FFFEFF052D00530074007200730002000000FFFEFF215300740061006900720020007400720065006100640073
310
002C00200065007300630061006C00610074006F00720073002C0020006C00610064006400650072007300000000000000FFFEFF052D00520065007600630002000000FFFEFF0F5200650076006900730069006F006E00200063006C006F00750064007300000000000000FFFEFF052D004D006F007600650002000000FFFE
310
FF124D006F0076006500610062006C0065002000650071007500690070006D0065006E007400000000000000FFFEFF052D005000650070006C0002000000FFFEFF06500065006F0070006C006500000000000000FFFEFF052D00440065006D006F0002000000FFFEFF0A440065006D006F006C006900740069006F006E0000
310
0000000000FFFEFF052D00430075007200740002000000FFFEFF0C4300750072007400610069006E002000570061006C006C00000000000000FFFEFF052D005700640077006B0002000000FFFEFF164100720063006800690074006500630074007500720061006C00200077006F006F00640077006F0072006B0000000000
310
0000FFFEFF052D004E006F007400650002000000FFFEFF054E006F00740065007300000000000000FFFEFF052D004F0076006800640002000000FFFEFF084F007600650072006800650061006400000000000000FFFEFF052D00530075006200740002000000FFFEFF14530075006200740072006100630074006900760065
310
00200065006C0065006D0065006E0074007300000000000000FFFEFF052D00530044004600460002000000FFFEFF1053007500700070006C0079002000640069006600660075007300650072007300000000000000FFFEFF052D00530074006F00720002000000FFFEFF19530079007300740065006D002000730074006F00
310
7200610067006500200063006F006D0070006F006E0065006E0074007300000000000000FFFEFF052D004900640065006E0002000000FFFEFF134900640065006E00740069006600690063006100740069006F006E0020005400610067007300000000000000FFFEFF052D004800720061006C0002000000FFFEFF16480061
310
006E0064007200610069006C0073002C0020006700750061007200640020007200610069006C007300000000000000FFFEFF052D00570069006400650002000000FFFEFF19570069006400650020007700650069006700680074002000670072006100700068006900630020006C0069006E0065007300000000000000FFFE
310
FF052D004D0061007300730002000000FFFEFF104D0061007300730069006E006700200045006C0065006D0065006E0074007300000000000000FFFEFF052D004C0069006E00650002000000FFFEFF0D44006500660069006E0069006E00670020004C0069006E006500000000000000FFFEFF052D00560069006500770002
310
000000FFFEFF13560069006500770070006F0072007400200044006500660069006E006900740069006F006E00000000000000FFFEFF052D0050006B006E00670002000000FFFEFF075000610072006B0069006E006700000000000000FFFEFF052D00520044004600460002000000FFFEFF14520065007400750072006E00
310
20006100690072002000640069006600660075007300650072007300000000000000FFFEFF052D00530065006100740002000000FFFEFF07530065006100740069006E006700000000000000FFFEFF052D0050006E006C00730002000000FFFEFF0D530079007300740065006D002000700061006E0065006C007300000000
310
000000FFFEFF052D004D0061007400630002000000FFFEFF0B4D00610074006300680020006C0069006E0065007300000000000000FFFEFF052D00410064007400760002000000FFFEFF1141006400640069007400690076006500200065006C0065006D0065006E0074007300000000000000FFFEFF052D00430068006100
310
730002000000FFFEFF0543006800610073006500000000000000FFFEFF052D005300700063006C0002000000FFFEFF0B5300700065006300690061006C007400690065007300000000000000FFFEFF052D00470072006900640002000000FFFEFF044700720069006400000000000000FFFEFF052D004E00690063006E0002
310
000000FFFEFF0F4E006F007400200069006E00200063006F006E0074007200610063007400000000000000FFFEFF052D004D0063007500740002000000FFFEFF164D00610069006E00200063007500740020006C0069006E006500200065006C0065006D0065006E0074007300000000000000FFFEFF052D00460069007200
310
650002000000FFFEFF0A46006900720065002000770061006C006C007300000000000000FFFEFF052D00530069006C006C0002000000FFFEFF0C570069006E0064006F0077002000730069006C006C007300000000000000FFFEFF052D005400700074006E0002000000FFFEFF1154006F0069006C00650074002000700061
310
00720074006900740069006F006E007300000000000000FFFEFF052D00520069007300720002000000FFFEFF0C530074006100690072002000720069007300650072007300000000000000FFFEFF052D004F0074006C006E0002000000FFFEFF074F00750074006C0069006E006500000000000000FFFEFF052D0054007400
310
6C00620002000000FFFEFF1642006F007200640065007200200061006E00640020007400690074006C006500200062006C006F0063006B000000000000000180FFFEFF074D0069006E006F0072002000320005000000004164642062656C6F77207468652073656C6563746564206974656DFFFEFF001600FFFEFF052D0041
310
0062006F00760002000000FFFEFF0E45006C0065006D0065006E00740073002000610062006F0076006500000000000000FFFEFF052D00420064007200790002000000FFFEFF0D4500640067006500200062006F0075006E006400610072007900000000000000FFFEFF052D005400680069006E0002000000FFFEFF0E4D00
310
69006E006F00720020006C0069006E00650077006F0072006B00000000000000FFFEFF052D004E0070006C00740002000000FFFEFF154E006F006E002D0070006C006F007400740069006E006700200065006C0065006D0065006E0074007300000000000000FFFEFF052D005200650066006C0002000000FFFEFF0F520065
310
0066006C0065006300740065006400200050006C0061006E007300000000000000FFFEFF052D00440069006D00730002000000FFFEFF0A440069006D0065006E00730069006F006E007300000000000000FFFEFF052D005300630061006C0002000000FFFEFF10470072006100700068006900630061006C00200053006300
310
61006C0065007300000000000000FFFEFF052D0053006C006300650002000000FFFEFF0653006C006900630065007300000000000000FFFEFF052D0047006C0061007A0002000000FFFEFF0747006C0061007A0069006E006700000000000000FFFEFF052D00460061007300630002000000FFFEFF06460061007300630069
310
006100000000000000FFFEFF052D00470072007000730002000000FFFEFF06470072006F00750070007300000000000000FFFEFF052D005400690074006C0002000000FFFEFF065400690074006C0065007300000000000000FFFEFF052D00530066006900740002000000FFFEFF0653006F00660066006900740000000000
310
0000FFFEFF052D00500061007400740002000000FFFEFF0E4800610074006300680020007000610074007400650072006E007300000000000000FFFEFF052D00480069006400650002000000FFFEFF0F480069006400640065006E00200065006C0065006D0065006E0074007300000000000000FFFEFF052D004E006F0074
310
00650002000000FFFEFF16470065006E006500720061006C0020005400650078007400200061006E00640020004E006F00740065007300000000000000FFFEFF052D0055006E006900740002000000FFFEFF0455006E0069007400000000000000FFFEFF052D004900640065006E0002000000FFFEFF0A4900640065006E00
310
740069006600690065007200000000000000FFFEFF052D004C0069006E00650002000000FFFEFF10470065006E006500720061006C0020006C0069006E00650077006F0072006B00000000000000FFFEFF052D00530069006C006C0002000000FFFEFF05530069006C006C007300000000000000FFFEFF052D005200690073
310
00720002000000FFFEFF06520069007300650072007300000000000000FFFEFF052D004F0074006C006E0002000000FFFEFF074F00750074006C0069006E0065000000000000000180FFFEFF06530074006100740075007300060000000000000000A434770470040000B10000005073770400000000050000FFFEFF000F00
310
FFFEFF022D00310002000000FFFEFF075000680061007300650020003100000000000000FFFEFF022D00320002000000FFFEFF075000680061007300650020003200000000000000FFFEFF022D00540002000000FFFEFF0E540065006D0070006F007200610072007900200077006F0072006B00000000000000FFFEFF022D
310
00330002000000FFFEFF075000680061007300650020003300000000000000FFFEFF022D00440002000000FFFEFF144500780069007300740069006E006700200074006F002000640065006D006F006C00690073006800000000000000FFFEFF022D00340002000000FFFEFF07500068006100730065002000340000000000
310
0000FFFEFF022D00450002000000FFFEFF124500780069007300740069006E006700200074006F002000720065006D00610069006E00000000000000FFFEFF022D00350002000000FFFEFF075000680061007300650020003500000000000000FFFEFF022D00460002000000FFFEFF0B460075007400750072006500200077
310
006F0072006B00000000000000FFFEFF022D00360002000000FFFEFF075000680061007300650020003600000000000000FFFEFF022D00370002000000FFFEFF075000680061007300650020003700000000000000FFFEFF022D00380002000000FFFEFF075000680061007300650020003800000000000000FFFEFF022D00
310
390002000000FFFEFF075000680061007300650020003900000000000000FFFEFF022D004D0002000000FFFEFF114900740065006D007300200074006F0020006200650020006D006F00760065006400000000000000FFFEFF022D004E0002000000FFFEFF084E0065007700200077006F0072006B000000000000000600FF
310
FF04001A004163416563556B4C61796572436F6D706F6E656E744669656C64FFFEFF174400690073006300690070006C0069006E0065002000440065007300690067006E00610074006F0072002000310001000000FFFEFF0440002C0040004000000000000100000000FFFEFF014100000000000780FFFEFF174400690073
310
006300690070006C0069006E0065002000440065007300690067006E00610074006F0072002000320001000000FFFEFF0440002C0040004000010000000100000000FFFEFF014400000000000780FFFEFF054D0061006A006F00720005000000FFFEFF052D00400040004000400000000000010000002DFFFEFF052D005700
310
61006C006C00000000000780FFFEFF064D0069006E006F007200310005000000FFFEFF022D002A0001000000010000002DFFFEFF052D004900640065006E00000000000780FFFEFF064D0069006E006F007200320005000000FFFEFF022D002A0001000000010000002DFFFEFF052D005400650078007400000000000780FF
310
FEFF0653007400610074007500730002000000FFFEFF022D002A0001000000010000002DFFFEFF022D004E0000000000050000010203040500FFFEFF00FFFEFF0320002D002000FFFEFF022C002000FFFEFF012000FFFEFF0320002D002000FFFEFF00
  0
DICTIONARY
  5
3D98
330
3D97
100
AcDbDictionary
280
     1
281
     1
  3
AcadLayerStateAnnoScale
360
3D99
  0
DICTIONARY
  5
3D8C
330
3D8B
100
AcDbDictionary
280
     1
281
     1
  3
AcadLayerStateAnnoScale
360
3D8D
  0
DICTIONARY
  5
A975
330
A974
100
AcDbDictionary
280
     1
281
     1
  3
AcadLayerStateAnnoScale
360
A976
  0
DICTIONARY
  5
A979
330
A978
100
AcDbDictionary
280
     1
281
     1
  3
AcadLayerStateAnnoScale
360
A97A
  0
CELLSTYLEMAP
  5
A9DC
102
{ACAD_REACTORS
330
A986
102
}
330
A986
100
AcDbCellStyleMap
 90
        3
300
CELLSTYLE
  1
TABLEFORMAT_BEGIN
 90
        5
170
     1
 91
        0
 92
    32768
 62
   257
 93
        1
300
CONTENTFORMAT
  1
CONTENTFORMAT_BEGIN
 90
        0
 91
        0
 92
      512
 93
        0
300

 40
0.0
140
1.0
 94
        5
 62
     0
340
A987
144
0.25
309
CONTENTFORMAT_END
171
     1
301
MARGIN
  1
CELLMARGIN_BEGIN
 40
0.06
 40
0.06
 40
0.06
 40
0.06
 40
0.18
 40
0.18
309
CELLMARGIN_END
 94
        6
 95
        1
302
GRIDFORMAT
  1
GRIDFORMAT_BEGIN
 90
        0
 91
        1
 62
     0
 92
       -2
340
0
 93
        0
 40
0.045
309
GRIDFORMAT_END
 95
        2
302
GRIDFORMAT
  1
GRIDFORMAT_BEGIN
 90
        0
 91
        1
 62
     0
 92
       -2
340
0
 93
        0
 40
0.045
309
GRIDFORMAT_END
 95
        4
302
GRIDFORMAT
  1
GRIDFORMAT_BEGIN
 90
        0
 91
        1
 62
     0
 92
       -2
340
0
 93
        0
 40
0.045
309
GRIDFORMAT_END
 95
        8
302
GRIDFORMAT
  1
GRIDFORMAT_BEGIN
 90
        0
 91
        1
 62
     0
 92
       -2
340
0
 93
        0
 40
0.045
309
GRIDFORMAT_END
 95
       16
302
GRIDFORMAT
  1
GRIDFORMAT_BEGIN
 90
        0
 91
        1
 62
     0
 92
       -2
340
0
 93
        0
 40
0.045
309
GRIDFORMAT_END
 95
       32
302
GRIDFORMAT
  1
GRIDFORMAT_BEGIN
 90
        0
 91
        1
 62
     0
 92
       -2
340
0
 93
        0
 40
0.045
309
GRIDFORMAT_END
309
TABLEFORMAT_END
  1
CELLSTYLE_BEGIN
 90
        1
 91
        1
300
_TITLE
309
CELLSTYLE_END
300
CELLSTYLE
  1
TABLEFORMAT_BEGIN
 90
        5
170
     1
 91
        0
 92
        0
 62
   257
 93
        1
300
CONTENTFORMAT
  1
CONTENTFORMAT_BEGIN
 90
        0
 91
        0
 92
      512
 93
        0
300

 40
0.0
140
1.0
 94
        5
 62
     0
340
A987
144
0.18
309
CONTENTFORMAT_END
171
     1
301
MARGIN
  1
CELLMARGIN_BEGIN
 40
0.06
 40
0.06
 40
0.06
 40
0.06
 40
0.18
 40
0.18
309
CELLMARGIN_END
 94
        6
 95
        1
302
GRIDFORMAT
  1
GRIDFORMAT_BEGIN
 90
        0
 91
        1
 62
     0
 92
       -2
340
0
 93
        0
 40
0.045
309
GRIDFORMAT_END
 95
        2
302
GRIDFORMAT
  1
GRIDFORMAT_BEGIN
 90
        0
 91
        1
 62
     0
 92
       -2
340
0
 93
        0
 40
0.045
309
GRIDFORMAT_END
 95
        4
302
GRIDFORMAT
  1
GRIDFORMAT_BEGIN
 90
        0
 91
        1
 62
     0
 92
       -2
340
0
 93
        0
 40
0.045
309
GRIDFORMAT_END
 95
        8
302
GRIDFORMAT
  1
GRIDFORMAT_BEGIN
 90
        0
 91
        1
 62
     0
 92
       -2
340
0
 93
        0
 40
0.045
309
GRIDFORMAT_END
 95
       16
302
GRIDFORMAT
  1
GRIDFORMAT_BEGIN
 90
        0
 91
        1
 62
     0
 92
       -2
340
0
 93
        0
 40
0.045
309
GRIDFORMAT_END
 95
       32
302
GRIDFORMAT
  1
GRIDFORMAT_BEGIN
 90
        0
 91
        1
 62
     0
 92
       -2
340
0
 93
        0
 40
0.045
309
GRIDFORMAT_END
309
TABLEFORMAT_END
  1
CELLSTYLE_BEGIN
 90
        2
 91
        1
300
_HEADER
309
CELLSTYLE_END
300
CELLSTYLE
  1
TABLEFORMAT_BEGIN
 90
        5
170
     1
 91
        0
 92
        0
 62
   257
 93
        1
300
CONTENTFORMAT
  1
CONTENTFORMAT_BEGIN
 90
        0
 91
        0
 92
      512
 93
        0
300

 40
0.0
140
1.0
 94
        2
 62
     0
340
A987
144
0.18
309
CONTENTFORMAT_END
171
     1
301
MARGIN
  1
CELLMARGIN_BEGIN
 40
0.06
 40
0.06
 40
0.06
 40
0.06
 40
0.18
 40
0.18
309
CELLMARGIN_END
 94
        6
 95
        1
302
GRIDFORMAT
  1
GRIDFORMAT_BEGIN
 90
        0
 91
        1
 62
     0
 92
       -2
340
0
 93
        0
 40
0.045
309
GRIDFORMAT_END
 95
        2
302
GRIDFORMAT
  1
GRIDFORMAT_BEGIN
 90
        0
 91
        1
 62
     0
 92
       -2
340
0
 93
        0
 40
0.045
309
GRIDFORMAT_END
 95
        4
302
GRIDFORMAT
  1
GRIDFORMAT_BEGIN
 90
        0
 91
        1
 62
     0
 92
       -2
340
0
 93
        0
 40
0.045
309
GRIDFORMAT_END
 95
        8
302
GRIDFORMAT
  1
GRIDFORMAT_BEGIN
 90
        0
 91
        1
 62
     0
 92
       -2
340
0
 93
        0
 40
0.045
309
GRIDFORMAT_END
 95
       16
302
GRIDFORMAT
  1
GRIDFORMAT_BEGIN
 90
        0
 91
        1
 62
     0
 92
       -2
340
0
 93
        0
 40
0.045
309
GRIDFORMAT_END
 95
       32
302
GRIDFORMAT
  1
GRIDFORMAT_BEGIN
 90
        0
 91
        1
 62
     0
 92
       -2
340
0
 93
        0
 40
0.045
309
GRIDFORMAT_END
309
TABLEFORMAT_END
  1
CELLSTYLE_BEGIN
 90
        3
 91
        2
300
_DATA
309
CELLSTYLE_END
  0
CELLSTYLEMAP
  5
A9D9
102
{ACAD_REACTORS
330
30E
102
}
330
30E
100
AcDbCellStyleMap
 90
        3
300
CELLSTYLE
  1
TABLEFORMAT_BEGIN
 90
        5
170
     1
 91
        0
 92
    32768
 62
   257
 93
        1
300
CONTENTFORMAT
  1
CONTENTFORMAT_BEGIN
 90
        0
 91
        0
 92
      512
 93
        0
300

 40
0.0
140
1.0
 94
        5
 62
     0
340
11
144
0.25
309
CONTENTFORMAT_END
171
     1
301
MARGIN
  1
CELLMARGIN_BEGIN
 40
0.06
 40
0.06
 40
0.06
 40
0.06
 40
0.18
 40
0.18
309
CELLMARGIN_END
 94
        6
 95
        1
302
GRIDFORMAT
  1
GRIDFORMAT_BEGIN
 90
        0
 91
        1
 62
     0
 92
       -2
340
0
 93
        0
 40
0.045
309
GRIDFORMAT_END
 95
        2
302
GRIDFORMAT
  1
GRIDFORMAT_BEGIN
 90
        0
 91
        1
 62
     0
 92
       -2
340
0
 93
        0
 40
0.045
309
GRIDFORMAT_END
 95
        4
302
GRIDFORMAT
  1
GRIDFORMAT_BEGIN
 90
        0
 91
        1
 62
     0
 92
       -2
340
0
 93
        0
 40
0.045
309
GRIDFORMAT_END
 95
        8
302
GRIDFORMAT
  1
GRIDFORMAT_BEGIN
 90
        0
 91
        1
 62
     0
 92
       -2
340
0
 93
        0
 40
0.045
309
GRIDFORMAT_END
 95
       16
302
GRIDFORMAT
  1
GRIDFORMAT_BEGIN
 90
        0
 91
        1
 62
     0
 92
       -2
340
0
 93
        0
 40
0.045
309
GRIDFORMAT_END
 95
       32
302
GRIDFORMAT
  1
GRIDFORMAT_BEGIN
 90
        0
 91
        1
 62
     0
 92
       -2
340
0
 93
        0
 40
0.045
309
GRIDFORMAT_END
309
TABLEFORMAT_END
  1
CELLSTYLE_BEGIN
 90
        1
 91
        1
300
_TITLE
309
CELLSTYLE_END
300
CELLSTYLE
  1
TABLEFORMAT_BEGIN
 90
        5
170
     1
 91
        0
 92
        0
 62
   257
 93
        1
300
CONTENTFORMAT
  1
CONTENTFORMAT_BEGIN
 90
        0
 91
        0
 92
      512
 93
        0
300

 40
0.0
140
1.0
 94
        5
 62
     0
340
11
144
0.18
309
CONTENTFORMAT_END
171
     1
301
MARGIN
  1
CELLMARGIN_BEGIN
 40
0.06
 40
0.06
 40
0.06
 40
0.06
 40
0.18
 40
0.18
309
CELLMARGIN_END
 94
        6
 95
        1
302
GRIDFORMAT
  1
GRIDFORMAT_BEGIN
 90
        0
 91
        1
 62
     0
 92
       -2
340
0
 93
        0
 40
0.045
309
GRIDFORMAT_END
 95
        2
302
GRIDFORMAT
  1
GRIDFORMAT_BEGIN
 90
        0
 91
        1
 62
     0
 92
       -2
340
0
 93
        0
 40
0.045
309
GRIDFORMAT_END
 95
        4
302
GRIDFORMAT
  1
GRIDFORMAT_BEGIN
 90
        0
 91
        1
 62
     0
 92
       -2
340
0
 93
        0
 40
0.045
309
GRIDFORMAT_END
 95
        8
302
GRIDFORMAT
  1
GRIDFORMAT_BEGIN
 90
        0
 91
        1
 62
     0
 92
       -2
340
0
 93
        0
 40
0.045
309
GRIDFORMAT_END
 95
       16
302
GRIDFORMAT
  1
GRIDFORMAT_BEGIN
 90
        0
 91
        1
 62
     0
 92
       -2
340
0
 93
        0
 40
0.045
309
GRIDFORMAT_END
 95
       32
302
GRIDFORMAT
  1
GRIDFORMAT_BEGIN
 90
        0
 91
        1
 62
     0
 92
       -2
340
0
 93
        0
 40
0.045
309
GRIDFORMAT_END
309
TABLEFORMAT_END
  1
CELLSTYLE_BEGIN
 90
        2
 91
        1
300
_HEADER
309
CELLSTYLE_END
300
CELLSTYLE
  1
TABLEFORMAT_BEGIN
 90
        5
170
     1
 91
        0
 92
        0
 62
   257
 93
        1
300
CONTENTFORMAT
  1
CONTENTFORMAT_BEGIN
 90
        0
 91
        0
 92
      512
 93
        0
300

 40
0.0
140
1.0
 94
        2
 62
     0
340
11
144
0.18
309
CONTENTFORMAT_END
171
     1
301
MARGIN
  1
CELLMARGIN_BEGIN
 40
0.06
 40
0.06
 40
0.06
 40
0.06
 40
0.18
 40
0.18
309
CELLMARGIN_END
 94
        6
 95
        1
302
GRIDFORMAT
  1
GRIDFORMAT_BEGIN
 90
        0
 91
        1
 62
     0
 92
       -2
340
0
 93
        0
 40
0.045
309
GRIDFORMAT_END
 95
        2
302
GRIDFORMAT
  1
GRIDFORMAT_BEGIN
 90
        0
 91
        1
 62
     0
 92
       -2
340
0
 93
        0
 40
0.045
309
GRIDFORMAT_END
 95
        4
302
GRIDFORMAT
  1
GRIDFORMAT_BEGIN
 90
        0
 91
        1
 62
     0
 92
       -2
340
0
 93
        0
 40
0.045
309
GRIDFORMAT_END
 95
        8
302
GRIDFORMAT
  1
GRIDFORMAT_BEGIN
 90
        0
 91
        1
 62
     0
 92
       -2
340
0
 93
        0
 40
0.045
309
GRIDFORMAT_END
 95
       16
302
GRIDFORMAT
  1
GRIDFORMAT_BEGIN
 90
        0
 91
        1
 62
     0
 92
       -2
340
0
 93
        0
 40
0.045
309
GRIDFORMAT_END
 95
       32
302
GRIDFORMAT
  1
GRIDFORMAT_BEGIN
 90
        0
 91
        1
 62
     0
 92
       -2
340
0
 93
        0
 40
0.045
309
GRIDFORMAT_END
309
TABLEFORMAT_END
  1
CELLSTYLE_BEGIN
 90
        3
 91
        2
300
_DATA
309
CELLSTYLE_END
  0
XRECORD
  5
812
102
{ACAD_REACTORS
330
811
102
}
330
811
100
AcDbXrecord
280
     1
 90
        2
  0
XRECORD
  5
3D99
102
{ACAD_REACTORS
330
3D98
102
}
330
3D98
100
AcDbXrecord
280
     1
330
2A2
  0
XRECORD
  5
3D8D
102
{ACAD_REACTORS
330
3D8C
102
}
330
3D8C
100
AcDbXrecord
280
     1
330
2A2
  0
XRECORD
  5
A976
102
{ACAD_REACTORS
330
A975
102
}
330
A975
100
AcDbXrecord
280
     1
330
2A2
  0
XRECORD
  5
A97A
102
{ACAD_REACTORS
330
A979
102
}
330
A979
100
AcDbXrecord
280
     1
330
2A2
  0
ENDSEC
  0
EOF
