  0
SECTION
  2
HEADER
  9
$ACADVER
  1
AC1009
  9
$INSBASE
 10
0.0
 20
0.0
 30
0.0
  9
$EXTMIN
 10
-144.162574842758
 20
-219.37243754171561
 30
0.0
  9
$EXTMAX
 10
185.21216979193011
 20
131.73227846046231
 30
0.0
  9
$LIMMIN
 10
0.0
 20
0.0
  9
$LIMMAX
 10
420.0
 20
297.0
  9
$ORTHOMODE
 70
     0
  9
$REGENMODE
 70
     1
  9
$FILLMODE
 70
     1
  9
$QTEXTMODE
 70
     0
  9
$MIRRTEXT
 70
     0
  9
$DRAGMODE
 70
     2
  9
$LTSCALE
 40
1.0
  9
$OSMODE
 70
     0
  9
$ATTMODE
 70
     1
  9
$TEXTSIZE
 40
35.0
  9
$TRACEWID
 40
1.0
  9
$TEXTSTYLE
  7
SPECI
  9
$CLAYER
  8
0
  9
$CELTYPE
  6
CONTINUOUS
  9
$CECOLOR
 62
   256
  9
$DIMSCALE
 40
2.0
  9
$DIMASZ
 40
2.5
  9
$DIMEXO
 40
1.8
  9
$DIMDLI
 40
5.0
  9
$DIMRND
 40
0.0
  9
$DIMDLE
 40
1.8
  9
$DIMEXE
 40
1.8
  9
$DIMTP
 40
0.0
  9
$DIMTM
 40
0.0
  9
$DIMTXT
 40
2.2000000000000002
  9
$DIMCEN
 40
1.8
  9
$DIMTSZ
 40
0.0
  9
$DIMTOL
 70
     0
  9
$DIMLIM
 70
     0
  9
$DIMTIH
 70
     0
  9
$DIMTOH
 70
     0
  9
$DIMSE1
 70
     0
  9
$DIMSE2
 70
     0
  9
$DIMTAD
 70
     1
  9
$DIMZIN
 70
     0
  9
$DIMBLK
  1
SPECI_TICK
  9
$DIMASO
 70
     1
  9
$DIMSHO
 70
     1
  9
$DIMPOST
  1

  9
$DIMAPOST
  1

  9
$DIMALT
 70
     0
  9
$DIMALTD
 70
     2
  9
$DIMALTF
 40
0.0394
  9
$DIMLFAC
 40
1.0
  9
$DIMTOFL
 70
     0
  9
$DIMTVP
 40
0.0
  9
$DIMTIX
 70
     0
  9
$DIMSOXD
 70
     0
  9
$DIMSAH
 70
     0
  9
$DIMBLK1
  1

  9
$DIMBLK2
  1

  9
$DIMSTYLE
  2
1_TO_2
  9
$DIMCLRD
 70
   256
  9
$DIMCLRE
 70
   256
  9
$DIMCLRT
 70
   256
  9
$DIMTFAC
 40
1.0
  9
$DIMGAP
 40
1.0
  9
$LUNITS
 70
     2
  9
$LUPREC
 70
     4
  9
$SKETCHINC
 40
1.0
  9
$FILLETRAD
 40
0.0
  9
$AUNITS
 70
     0
  9
$AUPREC
 70
     0
  9
$MENU
  1
.
  9
$ELEVATION
 40
0.0
  9
$PELEVATION
 40
0.0
  9
$THICKNESS
 40
0.0
  9
$LIMCHECK
 70
     0
  9
$BLIPMODE
 70
     0
  9
$CHAMFERA
 40
0.0
  9
$CHAMFERB
 40
0.0
  9
$SKPOLY
 70
     0
  9
$TDCREATE
 40
2455476.4658664241
  9
$TDUPDATE
 40
2455623.5749028479
  9
$TDINDWG
 40
0.6591209259
  9
$TDUSRTIMER
 40
0.6591203819
  9
$USRTIMER
 70
     1
  9
$ANGBASE
 50
0.0
  9
$ANGDIR
 70
     0
  9
$PDMODE
 70
     0
  9
$PDSIZE
 40
0.0
  9
$PLINEWID
 40
0.0
  9
$COORDS
 70
     2
  9
$SPLFRAME
 70
     0
  9
$SPLINETYPE
 70
     6
  9
$SPLINESEGS
 70
     8
  9
$ATTDIA
 70
     0
  9
$ATTREQ
 70
     0
  9
$HANDLING
 70
     1
  9
$HANDSEED
  5
43BD
  9
$SURFTAB1
 70
     6
  9
$SURFTAB2
 70
     6
  9
$SURFTYPE
 70
     6
  9
$SURFU
 70
     6
  9
$SURFV
 70
     6
  9
$UCSNAME
  2

  9
$UCSORG
 10
0.0
 20
0.0
 30
0.0
  9
$UCSXDIR
 10
1.0
 20
0.0
 30
0.0
  9
$UCSYDIR
 10
0.0
 20
1.0
 30
0.0
  9
$PUCSNAME
  2

  9
$PUCSORG
 10
0.0
 20
0.0
 30
0.0
  9
$PUCSXDIR
 10
1.0
 20
0.0
 30
0.0
  9
$PUCSYDIR
 10
0.0
 20
1.0
 30
0.0
  9
$USERI1
 70
     0
  9
$USERI2
 70
     0
  9
$USERI3
 70
     0
  9
$USERI4
 70
     0
  9
$USERI5
 70
     0
  9
$USERR1
 40
0.0
  9
$USERR2
 40
0.0
  9
$USERR3
 40
0.0
  9
$USERR4
 40
0.0
  9
$USERR5
 40
0.0
  9
$WORLDVIEW
 70
     1
  9
$SHADEDGE
 70
     3
  9
$SHADEDIF
 70
    70
  9
$TILEMODE
 70
     1
  9
$MAXACTVP
 70
    64
  9
$PLIMCHECK
 70
     0
  9
$PEXTMIN
 10
28.687182617187489
 20
19.99191756248473
 30
0.0
  9
$PEXTMAX
 10
258.18464355468751
 20
179.92725806236271
 30
0.0
  9
$PLIMMIN
 10
-5.027069091796875
 20
-5.027082920074462
  9
$PLIMMAX
 10
291.89892578125
 20
204.94624471664429
  9
$UNITMODE
 70
     0
  9
$VISRETAIN
 70
     1
  9
$PLINEGEN
 70
     0
  9
$PSLTSCALE
 70
     1
  0
ENDSEC
  0
SECTION
  2
TABLES
  0
TABLE
  2
VPORT
 70
     1
  0
VPORT
  2
*ACTIVE
 70
     0
 10
0.0
 20
0.0
 11
1.0
 21
1.0
 12
137.91010479765609
 22
38.492999857005998
 13
0.0
 23
0.0
 14
10.0
 24
10.0
 15
10.0
 25
10.0
 16
0.0
 26
0.0
 36
1.0
 17
0.0
 27
0.0
 37
0.0
 40
519.98250172303665
 41
1.451149425287356
 42
50.0
 43
0.0
 44
0.0
 50
0.0
 51
0.0
 71
     0
 72
  1000
 73
     1
 74
     3
 75
     0
 76
     0
 77
     0
 78
     0
  0
ENDTAB
  0
TABLE
  2
LTYPE
 70
     2
  0
LTYPE
  2
CONTINUOUS
 70
     0
  3
Solid line
 72
    65
 73
     0
 40
0.0
  0
ENDTAB
  0
TABLE
  2
LAYER
 70
    16
  0
LAYER
  2
0
 70
     0
 62
     7
  6
CONTINUOUS
  0
LAYER
  2
DEFPOINTS
 70
     0
 62
     7
  6
CONTINUOUS
  0
LAYER
  2
_ANNOTATE_COL
 70
     0
 62
     7
  6
CONTINUOUS
  0
ENDTAB
  0
TABLE
  2
STYLE
 70
     5
  0
STYLE
  2
STANDARD
 70
     0
 40
0.0
 41
1.0
 50
0.0
 71
     0
 42
2.5
  3
txt
  4

  0
STYLE
  2
SPECI
 70
     0
 40
0.0
 41
1.0
 50
0.0
 71
     0
 42
35.0
  3
txt
  4

  0
ENDTAB
  0
TABLE
  2
VIEW
 70
     1
  0
ENDTAB
  0
TABLE
  2
UCS
 70
     0
  0
ENDTAB
  0
TABLE
  2
APPID
 70
    29
  0
APPID
  2
ACAD
 70
     0
  0
APPID
  2
ACAD_PSEXT
 70
     0
  0
APPID
  2
ACADANNOPO
 70
     0
  0
APPID
  2
ACADANNOTATIVE
 70
     0
  0
APPID
  2
ACAD_DSTYLE_DIMJAG
 70
     0
  0
APPID
  2
ACAD_DSTYLE_DIMTALN
 70
     0
  0
APPID
  2
ACAD_MLEADERVER
 70
     0
  0
APPID
  2
ACAD_EXEMPT_FROM_CAD_STANDARDS
 70
     0
  0
APPID
  2
ACAUTHENVIRON
 70
     0
  0
APPID
  2
ACDBDYNAMICBLOCKTRUENAME
 70
     0
  0
APPID
  2
ACDBDYNAMICBLOCKGUID
 70
     0
  0
APPID
  2
ACAD_DSTYLE_DIMEXT_ENABLED
 70
     0
  0
APPID
  2
ACAD_DSTYLE_DIMEXT_LENGTH
 70
     0
  0
APPID
  2
PE_URL
 70
     0
  0
APPID
  2
ACAECLAYERSTANDARD
 70
     0
  0
APPID
  2
DCO15
 70
     0
  0
APPID
  2
ACADANNOAV
 70
     0
  0
APPID
  2
URBANX
 70
     0
  0
APPID
  2
ACAD_DSTYLE_DIMTEXT_FILL
 70
     0
  0
APPID
  2
ACAD_DSTYLE_DIM_LINETYPE
 70
     0
  0
APPID
  2
ACAD_DSTYLE_DIM_EXT1_LINETYPE
 70
     0
  0
APPID
  2
ACAD_DSTYLE_DIM_EXT2_LINETYPE
 70
     0
  0
APPID
  2
ACAD_DSTYLE_DIMJOGGED_JOGA
 70
     0
  0
APPID
  2
ACAD_DSTYLE_DIMARC_LENGTH_
 70
     0
  0
APPID
  2
ACDBATTR
 70
     0
  0
APPID
  2
GRADIENTCOLOR1ACI
 70
     0
  0
APPID
  2
GRADIENTCOLOR2ACI
 70
     0
  0
APPID
  2
ACCMTRANSPARENCY
 70
     0
  0
APPID
  2
ACAD_NAV_VCDISPLAY
 70
     0
  0
ENDTAB
  0
TABLE
  2
DIMSTYLE
 70
     3
  0
DIMSTYLE
  2
1_TO_2_LEADER
 70
     0
  3

  4

  5
SPECI_TICK
  6

  7

 40
2.0
 41
3.5
 42
1.8
 43
5.0
 44
1.8
 45
0.0
 46
1.8
 47
0.0
 48
0.0
140
2.2000000000000002
141
1.8
142
0.0
143
0.0394
144
1.0
145
0.0
146
1.0
147
1.0
 71
     0
 72
     0
 73
     0
 74
     0
 75
     0
 76
     0
 77
     0
 78
     0
170
     0
171
     2
172
     1
173
     0
174
     1
175
     0
176
     0
177
     0
178
     0
  0
DIMSTYLE
  2
ISO-25
 70
     0
  3

  4

  5

  6

  7

 40
1.0
 41
2.5
 42
0.625
 43
3.75
 44
1.25
 45
0.0
 46
0.0
 47
0.0
 48
0.0
140
2.5
141
2.5
142
0.0
143
0.03937007874016
144
1.0
145
0.0
146
1.0
147
0.625
 71
     0
 72
     0
 73
     0
 74
     0
 75
     0
 76
     0
 77
     1
 78
     8
170
     0
171
     3
172
     1
173
     0
174
     0
175
     0
176
     0
177
     0
178
     0
  0
DIMSTYLE
  2
1_TO_2
 70
     0
  3

  4

  5
SPECI_TICK
  6

  7

 40
2.0
 41
2.5
 42
1.8
 43
5.0
 44
1.8
 45
0.0
 46
1.8
 47
0.0
 48
0.0
140
2.2000000000000002
141
1.8
142
0.0
143
0.0394
144
1.0
145
0.0
146
1.0
147
1.0
 71
     0
 72
     0
 73
     0
 74
     0
 75
     0
 76
     0
 77
     1
 78
     0
170
     0
171
     2
172
     0
173
     0
174
     0
175
     0
176
   256
177
   256
178
   256
  0
ENDTAB
  0
ENDSEC
  0
SECTION
  2
BLOCKS
  0
BLOCK
  8
0
  2
$MODEL_SPACE
 70
     0
 10
0.0
 20
0.0
 30
0.0
  3
$MODEL_SPACE
  1

  0
ENDBLK
  5
21
  8
0
  0
BLOCK
 67
     1
  8
0
  2
$PAPER_SPACE
 70
     0
 10
0.0
 20
0.0
 30
0.0
  3
$PAPER_SPACE
  1

  0
ENDBLK
  5
3B68
 67
     1
  8
0
  0
BLOCK
  8
0
  2
SPECI01
 70
     0
 10
0.0
 20
0.0
 30
0.0
  3
SPECI01
  1

  0
SOLID
  5
3288
  8
_ANNOTATE_COL
 10
0.0
 20
0.0
 30
0.0
 11
-0.9999709122285354
 21
0.2678922073860255
 31
0.0
 12
-0.9999709122285354
 22
-0.2831466751683926
 32
0.0
 13
-0.9999709122285354
 23
-0.2831466751683926
 33
0.0
  0
ENDBLK
  5
328B
  8
0
  0
BLOCK
  8
0
  2
SPECI_TICK
 70
     0
 10
0.0
 20
0.0
 30
0.0
  3
SPECI_TICK
  1

  0
POLYLINE
  5
3347
  8
_ANNOTATE_COL
  6
BYBLOCK
 66
     1
 10
0.0
 20
0.0
 30
0.0
 40
0.05
 41
0.05
  0
VERTEX
  5
3FE9
  8
_ANNOTATE_COL
  6
BYBLOCK
 10
-0.5
 20
-0.5
 30
0.0
  0
VERTEX
  5
3FEA
  8
_ANNOTATE_COL
  6
BYBLOCK
 10
0.5
 20
0.5
 30
0.0
  0
SEQEND
  5
3FEB
  8
_ANNOTATE_COL
  6
BYBLOCK
  0
POLYLINE
  5
3348
  8
0
  6
CONTINUOUS
 66
     1
 10
0.0
 20
0.0
 30
0.0
  0
VERTEX
  5
3FEC
  8
0
  6
CONTINUOUS
 10
0.0
 20
0.0
 30
0.0
  0
VERTEX
  5
3FED
  8
0
  6
CONTINUOUS
 10
-1.0
 20
0.0000000000000001
 30
0.0
  0
SEQEND
  5
3FEE
  8
0
  6
CONTINUOUS
  0
ENDBLK
  5
334C
  8
0
  0
BLOCK
  8
0
  2
*X11
 70
     1
 10
0.0
 20
0.0
 30
0.0
  3
*X11
  1

  0
LINE
  5
3D09
  8
0
  6
CONTINUOUS
 62
     0
 10
-128.82499999999999
 20
107.52345781367831
 30
0.0
 11
-132.47654218632169
 21
111.175
 31
0.0
  0
LINE
  5
3D0A
  8
0
  6
CONTINUOUS
 62
     0
 10
-128.82499999999999
 20
67.112305268867189
 30
0.0
 11
-141.41509742330311
 21
79.702402692170324
 31
0.0
  0
LINE
  5
3D0B
  8
0
  6
CONTINUOUS
 62
     0
 10
-128.82499999999999
 20
94.053067813678396
 30
0.0
 11
-141.41509742330311
 21
106.6431652369815
 31
0.0
  0
LINE
  5
3D0C
  8
0
  6
CONTINUOUS
 62
     0
 10
-128.82499999999999
 20
53.641915268867187
 30
0.0
 11
-141.41509742330319
 21
66.232012692170358
 31
0.0
  0
ENDBLK
  5
3D0E
  8
0
  0
BLOCK
  8
0
  2
*X12
 70
     1
 10
0.0
 20
0.0
 30
0.0
  3
*X12
  1

  0
LINE
  5
3D1F
  8
0
  6
CONTINUOUS
 62
     0
 10
111.66226057385281
 20
-179.6721256612305
 30
0.0
 11
111.66226057385281
 21
-179.6721256612305
 31
0.0
  0
LINE
  5
3D20
  8
0
  6
CONTINUOUS
 62
     0
 10
111.1940894649783
 20
-179.24312587939451
 30
0.0
 11
111.1940894649783
 21
-179.24312587939451
 31
0.0
  0
LINE
  5
3D21
  8
0
  6
CONTINUOUS
 62
     0
 10
116.3015300017794
 20
-174.69723382490841
 30
0.0
 11
116.3015300017794
 21
-174.69723382490841
 31
0.0
  0
LINE
  5
3D22
  8
0
  6
CONTINUOUS
 62
     0
 10
114.0917623678921
 20
-172.67235485464269
 30
0.0
 11
114.0917623678921
 21
-172.67235485464269
 31
0.0
  0
LINE
  5
3D23
  8
0
  6
CONTINUOUS
 62
     0
 10
113.6235912590177
 20
-172.24335507280679
 30
0.0
 11
113.6235912590177
 21
-172.24335507280679
 31
0.0
  0
LINE
  5
3D24
  8
0
  6
CONTINUOUS
 62
     0
 10
116.053093053057
 20
-165.2435842662189
 30
0.0
 11
116.053093053057
 21
-165.2435842662189
 31
0.0
  0
LINE
  5
3D25
  8
0
  6
CONTINUOUS
 62
     0
 10
113.5249690651351
 20
-162.92698544430471
 30
0.0
 11
113.5249690651351
 21
-162.92698544430471
 31
0.0
  0
LINE
  5
3D26
  8
0
  6
CONTINUOUS
 62
     0
 10
111.3152014312478
 20
-160.9021064740391
 30
0.0
 11
111.3152014312478
 21
-160.9021064740391
 31
0.0
  0
LINE
  5
3D27
  8
0
  6
CONTINUOUS
 62
     0
 10
115.95447085917441
 20
-155.9272146377169
 30
0.0
 11
115.95447085917441
 21
-155.9272146377169
 31
0.0
  0
LINE
  5
3D28
  8
0
  6
CONTINUOUS
 62
     0
 10
113.7447032252871
 20
-153.90233566745121
 30
0.0
 11
113.7447032252871
 21
-153.90233566745121
 31
0.0
  0
LINE
  5
3D29
  8
0
  6
CONTINUOUS
 62
     0
 10
113.2765321164127
 20
-153.47333588561531
 30
0.0
 11
113.2765321164127
 21
-153.47333588561531
 31
0.0
  0
LINE
  5
3D2A
  8
0
  6
CONTINUOUS
 62
     0
 10
116.17420501932639
 20
-146.90256486086341
 30
0.0
 11
116.17420501932639
 21
-146.90256486086341
 31
0.0
  0
LINE
  5
3D2B
  8
0
  6
CONTINUOUS
 62
     0
 10
115.70603391045201
 20
-146.4735650790274
 30
0.0
 11
115.70603391045201
 21
-146.4735650790274
 31
0.0
  0
LINE
  5
3D2C
  8
0
  6
CONTINUOUS
 62
     0
 10
113.17790992253011
 20
-144.15696625711331
 30
0.0
 11
113.17790992253011
 21
-144.15696625711331
 31
0.0
  0
LINE
  5
3D2D
  8
0
  6
CONTINUOUS
 62
     0
 10
115.6074117165694
 20
-137.15719545052551
 30
0.0
 11
115.6074117165694
 21
-137.15719545052551
 31
0.0
  0
LINE
  5
3D2E
  8
0
  6
CONTINUOUS
 62
     0
 10
113.39764408268211
 20
-135.13231648025979
 30
0.0
 11
113.39764408268211
 21
-135.13231648025979
 31
0.0
  0
LINE
  5
3D2F
  8
0
  6
CONTINUOUS
 62
     0
 10
112.92947297380771
 20
-134.70331669842389
 30
0.0
 11
112.92947297380771
 21
-134.70331669842389
 31
0.0
  0
LINE
  5
3D30
  8
0
  6
CONTINUOUS
 62
     0
 10
115.8271458767214
 20
-128.1325456736719
 30
0.0
 11
115.8271458767214
 21
-128.1325456736719
 31
0.0
  0
LINE
  5
3D31
  8
0
  6
CONTINUOUS
 62
     0
 10
115.358974767847
 20
-127.703545891836
 30
0.0
 11
115.358974767847
 21
-127.703545891836
 31
0.0
  0
LINE
  5
3D32
  8
0
  6
CONTINUOUS
 62
     0
 10
112.8308507799251
 20
-125.3869470699219
 30
0.0
 11
112.8308507799251
 21
-125.3869470699219
 31
0.0
  0
LINE
  5
3D33
  8
0
  6
CONTINUOUS
 62
     0
 10
115.2603525739644
 20
-118.3871762633341
 30
0.0
 11
115.2603525739644
 21
-118.3871762633341
 31
0.0
  0
LINE
  5
3D34
  8
0
  6
CONTINUOUS
 62
     0
 10
113.0505849400771
 20
-116.36229729306839
 30
0.0
 11
113.0505849400771
 21
-116.36229729306839
 31
0.0
  0
LINE
  5
3D35
  8
0
  6
CONTINUOUS
 62
     0
 10
112.5824138312027
 20
-115.9332975112325
 30
0.0
 11
112.5824138312027
 21
-115.9332975112325
 31
0.0
  0
LINE
  5
3D36
  8
0
  6
CONTINUOUS
 62
     0
 10
-136.8404261327378
 20
112.6206262596852
 30
0.0
 11
-136.8404261327378
 21
112.6206262596852
 31
0.0
  0
LINE
  5
3D37
  8
0
  6
CONTINUOUS
 62
     0
 10
-137.30859724161229
 20
113.04962604152119
 30
0.0
 11
-137.30859724161229
 21
113.04962604152119
 31
0.0
  0
LINE
  5
3D38
  8
0
  6
CONTINUOUS
 62
     0
 10
115.4800867341165
 20
-109.3625264864805
 30
0.0
 11
115.4800867341165
 21
-109.3625264864805
 31
0.0
  0
LINE
  5
3D39
  8
0
  6
CONTINUOUS
 62
     0
 10
115.0119156252421
 20
-108.93352670464461
 30
0.0
 11
115.0119156252421
 21
-108.93352670464461
 31
0.0
  0
LINE
  5
3D3A
  8
0
  6
CONTINUOUS
 62
     0
 10
112.4837916373201
 20
-106.61692788273049
 30
0.0
 11
112.4837916373201
 21
-106.61692788273049
 31
0.0
  0
LINE
  5
3D3B
  8
0
  6
CONTINUOUS
 62
     0
 10
-123.9987988773312
 20
110.0794419182417
 30
0.0
 11
-123.9987988773312
 21
110.0794419182417
 31
0.0
  0
LINE
  5
3D3C
  8
0
  6
CONTINUOUS
 62
     0
 10
-124.4669699862056
 20
110.5084417000777
 30
0.0
 11
-124.4669699862056
 21
110.5084417000777
 31
0.0
  0
LINE
  5
3D3D
  8
0
  6
CONTINUOUS
 62
     0
 10
-126.9950939741276
 20
112.8250405219918
 30
0.0
 11
-126.9950939741276
 21
112.8250405219918
 31
0.0
  0
LINE
  5
3D3E
  8
0
  6
CONTINUOUS
 62
     0
 10
114.91329343135951
 20
-99.617157076142632
 30
0.0
 11
114.91329343135951
 21
-99.617157076142632
 31
0.0
  0
LINE
  5
3D3F
  8
0
  6
CONTINUOUS
 62
     0
 10
112.7035257974722
 20
-97.592278105876971
 30
0.0
 11
112.7035257974722
 21
-97.592278105876971
 31
0.0
  0
LINE
  5
3D40
  8
0
  6
CONTINUOUS
 62
     0
 10
112.2353546885977
 20
-97.163278324041045
 30
0.0
 11
112.2353546885977
 21
-97.163278324041045
 31
0.0
  0
LINE
  5
3D41
  8
0
  6
CONTINUOUS
 62
     0
 10
-116.3632343526082
 20
112.3087351508139
 30
0.0
 11
-116.3632343526082
 21
112.3087351508139
 31
0.0
  0
LINE
  5
3D42
  8
0
  6
CONTINUOUS
 62
     0
 10
-116.8314054614827
 20
112.7377349326498
 30
0.0
 11
-116.8314054614827
 21
112.7377349326498
 31
0.0
  0
LINE
  5
3D43
  8
0
  6
CONTINUOUS
 62
     0
 10
115.13302759151151
 20
-90.592507299289139
 30
0.0
 11
115.13302759151151
 21
-90.592507299289139
 31
0.0
  0
LINE
  5
3D44
  8
0
  6
CONTINUOUS
 62
     0
 10
114.66485648263711
 20
-90.163507517453183
 30
0.0
 11
114.66485648263711
 21
-90.163507517453183
 31
0.0
  0
LINE
  5
3D45
  8
0
  6
CONTINUOUS
 62
     0
 10
112.1367324947152
 20
-87.846908695539099
 30
0.0
 11
112.1367324947152
 21
-87.846908695539099
 31
0.0
  0
LINE
  5
3D46
  8
0
  6
CONTINUOUS
 62
     0
 10
-106.5179021939979
 20
112.5131494131203
 30
0.0
 11
-106.5179021939979
 21
112.5131494131203
 31
0.0
  0
LINE
  5
3D47
  8
0
  6
CONTINUOUS
 62
     0
 10
-108.72766982788529
 20
114.53802838338601
 30
0.0
 11
-108.72766982788529
 21
114.53802838338601
 31
0.0
  0
LINE
  5
3D48
  8
0
  6
CONTINUOUS
 62
     0
 10
-109.19584093675969
 20
114.9670281652219
 30
0.0
 11
-109.19584093675969
 21
114.9670281652219
 31
0.0
  0
LINE
  5
3D49
  8
0
  6
CONTINUOUS
 62
     0
 10
114.5662342887545
 20
-80.847137888951252
 30
0.0
 11
114.5662342887545
 21
-80.847137888951252
 31
0.0
  0
LINE
  5
3D4A
  8
0
  6
CONTINUOUS
 62
     0
 10
112.35646665486721
 20
-78.822258918685591
 30
0.0
 11
112.35646665486721
 21
-78.822258918685591
 31
0.0
  0
LINE
  5
3D4B
  8
0
  6
CONTINUOUS
 62
     0
 10
111.8882955459927
 20
-78.39325913684965
 30
0.0
 11
111.8882955459927
 21
-78.39325913684965
 31
0.0
  0
LINE
  5
3D4C
  8
0
  6
CONTINUOUS
 62
     0
 10
-95.886042572478644
 20
111.9968440419424
 30
0.0
 11
-95.886042572478644
 21
111.9968440419424
 31
0.0
  0
LINE
  5
3D4D
  8
0
  6
CONTINUOUS
 62
     0
 10
-96.354213681353087
 20
112.42584382377829
 30
0.0
 11
-96.354213681353087
 21
112.42584382377829
 31
0.0
  0
LINE
  5
3D4E
  8
0
  6
CONTINUOUS
 62
     0
 10
114.7859684489065
 20
-71.822488112097673
 30
0.0
 11
114.7859684489065
 21
-71.822488112097673
 31
0.0
  0
LINE
  5
3D4F
  8
0
  6
CONTINUOUS
 62
     0
 10
114.317797340032
 20
-71.393488330261732
 30
0.0
 11
114.317797340032
 21
-71.393488330261732
 31
0.0
  0
LINE
  5
3D50
  8
0
  6
CONTINUOUS
 62
     0
 10
111.7896733521101
 20
-69.076889508347634
 30
0.0
 11
111.7896733521101
 21
-69.076889508347634
 31
0.0
  0
LINE
  5
3D51
  8
0
  6
CONTINUOUS
 62
     0
 10
-86.040710413868425
 20
112.201258304249
 30
0.0
 11
-86.040710413868425
 21
112.201258304249
 31
0.0
  0
LINE
  5
3D52
  8
0
  6
CONTINUOUS
 62
     0
 10
-88.250478047755749
 20
114.2261372745146
 30
0.0
 11
-88.250478047755749
 21
114.2261372745146
 31
0.0
  0
LINE
  5
3D53
  8
0
  6
CONTINUOUS
 62
     0
 10
114.2191751461494
 20
-62.077118701759829
 30
0.0
 11
114.2191751461494
 21
-62.077118701759829
 31
0.0
  0
LINE
  5
3D54
  8
0
  6
CONTINUOUS
 62
     0
 10
112.0094075122622
 20
-60.052239731494168
 30
0.0
 11
112.0094075122622
 21
-60.052239731494168
 31
0.0
  0
LINE
  5
3D55
  8
0
  6
CONTINUOUS
 62
     0
 10
111.5412364033877
 20
-59.623239949658227
 30
0.0
 11
111.5412364033877
 21
-59.623239949658227
 31
0.0
  0
LINE
  5
3D56
  8
0
  6
CONTINUOUS
 62
     0
 10
-75.408850792349156
 20
111.6849529330711
 30
0.0
 11
-75.408850792349156
 21
111.6849529330711
 31
0.0
  0
LINE
  5
3D57
  8
0
  6
CONTINUOUS
 62
     0
 10
-75.877021901223586
 20
112.1139527149071
 30
0.0
 11
-75.877021901223586
 21
112.1139527149071
 31
0.0
  0
LINE
  5
3D58
  8
0
  6
CONTINUOUS
 62
     0
 10
-78.405145889145501
 20
114.4305515368212
 30
0.0
 11
-78.405145889145501
 21
114.4305515368212
 31
0.0
  0
LINE
  5
3D59
  8
0
  6
CONTINUOUS
 62
     0
 10
114.4389093063014
 20
-53.052468924906229
 30
0.0
 11
114.4389093063014
 21
-53.052468924906229
 31
0.0
  0
LINE
  5
3D5A
  8
0
  6
CONTINUOUS
 62
     0
 10
113.970738197427
 20
-52.623469143070302
 30
0.0
 11
113.970738197427
 21
-52.623469143070302
 31
0.0
  0
LINE
  5
3D5B
  8
0
  6
CONTINUOUS
 62
     0
 10
111.442614209505
 20
-50.30687032115619
 30
0.0
 11
111.442614209505
 21
-50.30687032115619
 31
0.0
  0
LINE
  5
3D5C
  8
0
  6
CONTINUOUS
 62
     0
 10
-65.563518633738923
 20
111.8893671953776
 30
0.0
 11
-65.563518633738923
 21
111.8893671953776
 31
0.0
  0
LINE
  5
3D5D
  8
0
  6
CONTINUOUS
 62
     0
 10
113.87211600354441
 20
-43.307099514568371
 30
0.0
 11
113.87211600354441
 21
-43.307099514568371
 31
0.0
  0
LINE
  5
3D5E
  8
0
  6
CONTINUOUS
 62
     0
 10
111.6623483696571
 20
-41.28222054430271
 30
0.0
 11
111.6623483696571
 21
-41.28222054430271
 31
0.0
  0
LINE
  5
3D5F
  8
0
  6
CONTINUOUS
 62
     0
 10
111.1941772607826
 20
-40.853220762466769
 30
0.0
 11
111.1941772607826
 21
-40.853220762466769
 31
0.0
  0
LINE
  5
3D60
  8
0
  6
CONTINUOUS
 62
     0
 10
-54.931659012219583
 20
111.3730618241997
 30
0.0
 11
-54.931659012219583
 21
111.3730618241997
 31
0.0
  0
LINE
  5
3D61
  8
0
  6
CONTINUOUS
 62
     0
 10
-55.399830121094013
 20
111.80206160603559
 30
0.0
 11
-55.399830121094013
 21
111.80206160603559
 31
0.0
  0
LINE
  5
3D62
  8
0
  6
CONTINUOUS
 62
     0
 10
-57.927954109015928
 20
114.11866042794981
 30
0.0
 11
-57.927954109015928
 21
114.11866042794981
 31
0.0
  0
LINE
  5
3D63
  8
0
  6
CONTINUOUS
 62
     0
 10
116.3016177975838
 20
-36.307328707980517
 30
0.0
 11
116.3016177975838
 21
-36.307328707980517
 31
0.0
  0
LINE
  5
3D64
  8
0
  6
CONTINUOUS
 62
     0
 10
114.09185016369641
 20
-34.28244973771487
 30
0.0
 11
114.09185016369641
 21
-34.28244973771487
 31
0.0
  0
LINE
  5
3D65
  8
0
  6
CONTINUOUS
 62
     0
 10
113.62367905482201
 20
-33.853449955878929
 30
0.0
 11
113.62367905482201
 21
-33.853449955878929
 31
0.0
  0
LINE
  5
3D66
  8
0
  6
CONTINUOUS
 62
     0
 10
-45.0863268536093
 20
111.57747608650629
 30
0.0
 11
-45.0863268536093
 21
111.57747608650629
 31
0.0
  0
LINE
  5
3D67
  8
0
  6
CONTINUOUS
 62
     0
 10
-47.296094487496603
 20
113.6023550567719
 30
0.0
 11
-47.296094487496603
 21
113.6023550567719
 31
0.0
  0
LINE
  5
3D68
  8
0
  6
CONTINUOUS
 62
     0
 10
113.5250568609394
 20
-24.537080327376898
 30
0.0
 11
113.5250568609394
 21
-24.537080327376898
 31
0.0
  0
LINE
  5
3D69
  8
0
  6
CONTINUOUS
 62
     0
 10
111.31528922705211
 20
-22.512201357111241
 30
0.0
 11
111.31528922705211
 21
-22.512201357111241
 31
0.0
  0
LINE
  5
3D6A
  8
0
  6
CONTINUOUS
 62
     0
 10
-34.92263834096444
 20
111.4901704971644
 30
0.0
 11
-34.92263834096444
 21
111.4901704971644
 31
0.0
  0
LINE
  5
3D6B
  8
0
  6
CONTINUOUS
 62
     0
 10
-37.450762328886363
 20
113.8067693190785
 30
0.0
 11
-37.450762328886363
 21
113.8067693190785
 31
0.0
  0
LINE
  5
3D6C
  8
0
  6
CONTINUOUS
 62
     0
 10
113.7447910210914
 20
-15.51243055052336
 30
0.0
 11
113.7447910210914
 21
-15.51243055052336
 31
0.0
  0
LINE
  5
3D6D
  8
0
  6
CONTINUOUS
 62
     0
 10
113.276619912217
 20
-15.083430768687419
 30
0.0
 11
113.276619912217
 21
-15.083430768687419
 31
0.0
  0
LINE
  5
3D6E
  8
0
  6
CONTINUOUS
 62
     0
 10
-24.609135073479759
 20
111.2655849776349
 30
0.0
 11
-24.609135073479759
 21
111.2655849776349
 31
0.0
  0
LINE
  5
3D6F
  8
0
  6
CONTINUOUS
 62
     0
 10
-26.818902707367059
 20
113.29046394790061
 30
0.0
 11
-26.818902707367059
 21
113.29046394790061
 31
0.0
  0
LINE
  5
3D70
  8
0
  6
CONTINUOUS
 62
     0
 10
-27.287073816241492
 20
113.7194637297366
 30
0.0
 11
-27.287073816241492
 21
113.7194637297366
 31
0.0
  0
LINE
  5
3D71
  8
0
  6
CONTINUOUS
 62
     0
 10
113.1779977183345
 20
-5.7670611401854748
 30
0.0
 11
113.1779977183345
 21
-5.7670611401854748
 31
0.0
  0
LINE
  5
3D72
  8
0
  6
CONTINUOUS
 62
     0
 10
-14.44544656083475
 20
111.17827938829301
 30
0.0
 11
-14.44544656083475
 21
111.17827938829301
 31
0.0
  0
LINE
  5
3D73
  8
0
  6
CONTINUOUS
 62
     0
 10
-16.973570548756669
 20
113.4948782102071
 30
0.0
 11
-16.973570548756669
 21
113.4948782102071
 31
0.0
  0
LINE
  5
3D74
  8
0
  6
CONTINUOUS
 62
     0
 10
113.3977318784865
 20
3.257588636668042
 30
0.0
 11
113.3977318784865
 21
3.257588636668042
 31
0.0
  0
LINE
  5
3D75
  8
0
  6
CONTINUOUS
 62
     0
 10
112.929560769612
 20
3.686588418503987
 30
0.0
 11
112.929560769612
 21
3.686588418503987
 31
0.0
  0
LINE
  5
3D76
  8
0
  6
CONTINUOUS
 62
     0
 10
-6.3417109272373873
 20
112.9785728390292
 30
0.0
 11
-6.3417109272373873
 21
112.9785728390292
 31
0.0
  0
LINE
  5
3D77
  8
0
  6
CONTINUOUS
 62
     0
 10
-6.8098820361118149
 20
113.4075726208651
 30
0.0
 11
-6.8098820361118149
 21
113.4075726208651
 31
0.0
  0
LINE
  5
3D78
  8
0
  6
CONTINUOUS
 62
     0
 10
115.35906256365131
 20
10.686359225091829
 30
0.0
 11
115.35906256365131
 21
10.686359225091829
 31
0.0
  0
LINE
  5
3D79
  8
0
  6
CONTINUOUS
 62
     0
 10
112.83093857572941
 20
13.002958047005929
 30
0.0
 11
112.83093857572941
 21
13.002958047005929
 31
0.0
  0
LINE
  5
3D7A
  8
0
  6
CONTINUOUS
 62
     0
 10
3.5036212313729029
 20
113.1829871013356
 30
0.0
 11
3.5036212313729029
 21
113.1829871013356
 31
0.0
  0
LINE
  5
3D7B
  8
0
  6
CONTINUOUS
 62
     0
 10
115.2604403697687
 20
20.00272885359384
 30
0.0
 11
115.2604403697687
 21
20.00272885359384
 31
0.0
  0
LINE
  5
3D7C
  8
0
  6
CONTINUOUS
 62
     0
 10
113.05067273588141
 20
22.027607823859491
 30
0.0
 11
113.05067273588141
 21
22.027607823859491
 31
0.0
  0
LINE
  5
3D7D
  8
0
  6
CONTINUOUS
 62
     0
 10
112.58250162700701
 20
22.456607605695439
 30
0.0
 11
112.58250162700701
 21
22.456607605695439
 31
0.0
  0
LINE
  5
3D7E
  8
0
  6
CONTINUOUS
 62
     0
 10
14.13548085289216
 20
112.6666817301578
 30
0.0
 11
14.13548085289216
 21
112.6666817301578
 31
0.0
  0
LINE
  5
3D7F
  8
0
  6
CONTINUOUS
 62
     0
 10
13.66730974401773
 20
113.0956815119937
 30
0.0
 11
13.66730974401773
 21
113.0956815119937
 31
0.0
  0
LINE
  5
3D80
  8
0
  6
CONTINUOUS
 62
     0
 10
115.4801745299208
 20
29.027378630447298
 30
0.0
 11
115.4801745299208
 21
29.027378630447298
 31
0.0
  0
LINE
  5
3D81
  8
0
  6
CONTINUOUS
 62
     0
 10
115.0120034210464
 20
29.45637841228325
 30
0.0
 11
115.0120034210464
 21
29.45637841228325
 31
0.0
  0
LINE
  5
3D82
  8
0
  6
CONTINUOUS
 62
     0
 10
112.4838794331245
 20
31.772977234197349
 30
0.0
 11
112.4838794331245
 21
31.772977234197349
 31
0.0
  0
LINE
  5
3D83
  8
0
  6
CONTINUOUS
 62
     0
 10
110.2741117992372
 20
33.79785620446301
 30
0.0
 11
110.2741117992372
 21
33.79785620446301
 31
0.0
  0
LINE
  5
3D84
  8
0
  6
CONTINUOUS
 62
     0
 10
109.8059406903628
 20
34.226855986298943
 30
0.0
 11
109.8059406903628
 21
34.226855986298943
 31
0.0
  0
LINE
  5
3D85
  8
0
  6
CONTINUOUS
 62
     0
 10
23.980813011502491
 20
112.8710959924643
 30
0.0
 11
23.980813011502491
 21
112.8710959924643
 31
0.0
  0
LINE
  5
3D86
  8
0
  6
CONTINUOUS
 62
     0
 10
21.771045377615181
 20
114.89597496272999
 30
0.0
 11
21.771045377615181
 21
114.89597496272999
 31
0.0
  0
LINE
  5
3D87
  8
0
  6
CONTINUOUS
 62
     0
 10
21.302874268740752
 20
115.32497474456591
 30
0.0
 11
21.302874268740752
 21
115.32497474456591
 31
0.0
  0
LINE
  5
3D88
  8
0
  6
CONTINUOUS
 62
     0
 10
114.9133812271638
 20
38.772748040785288
 30
0.0
 11
114.9133812271638
 21
38.772748040785288
 31
0.0
  0
LINE
  5
3D89
  8
0
  6
CONTINUOUS
 62
     0
 10
112.7036135932764
 20
40.797627011050949
 30
0.0
 11
112.7036135932764
 21
40.797627011050949
 31
0.0
  0
LINE
  5
3D8A
  8
0
  6
CONTINUOUS
 62
     0
 10
112.235442484402
 20
41.22662679288689
 30
0.0
 11
112.235442484402
 21
41.22662679288689
 31
0.0
  0
LINE
  5
3D8B
  8
0
  6
CONTINUOUS
 62
     0
 10
34.612672633021823
 20
112.3547906212864
 30
0.0
 11
34.612672633021823
 21
112.3547906212864
 31
0.0
  0
LINE
  5
3D8C
  8
0
  6
CONTINUOUS
 62
     0
 10
34.144501524147387
 20
112.7837904031224
 30
0.0
 11
34.144501524147387
 21
112.7837904031224
 31
0.0
  0
LINE
  5
3D8D
  8
0
  6
CONTINUOUS
 62
     0
 10
31.616377536225471
 20
115.10038922503649
 30
0.0
 11
31.616377536225471
 21
115.10038922503649
 31
0.0
  0
LINE
  5
3D8E
  8
0
  6
CONTINUOUS
 62
     0
 10
115.1331153873158
 20
47.797397817638767
 30
0.0
 11
115.1331153873158
 21
47.797397817638767
 31
0.0
  0
LINE
  5
3D8F
  8
0
  6
CONTINUOUS
 62
     0
 10
114.6649442784414
 20
48.226397599474708
 30
0.0
 11
114.6649442784414
 21
48.226397599474708
 31
0.0
  0
LINE
  5
3D90
  8
0
  6
CONTINUOUS
 62
     0
 10
112.13682029051949
 20
50.542996421388807
 30
0.0
 11
112.13682029051949
 21
50.542996421388807
 31
0.0
  0
LINE
  5
3D91
  8
0
  6
CONTINUOUS
 62
     0
 10
44.458004791632057
 20
112.5592048835929
 30
0.0
 11
44.458004791632057
 21
112.5592048835929
 31
0.0
  0
LINE
  5
3D92
  8
0
  6
CONTINUOUS
 62
     0
 10
42.248237157744747
 20
114.5840838538586
 30
0.0
 11
42.248237157744747
 21
114.5840838538586
 31
0.0
  0
LINE
  5
3D93
  8
0
  6
CONTINUOUS
 62
     0
 10
41.780066048870317
 20
115.0130836356945
 30
0.0
 11
41.780066048870317
 21
115.0130836356945
 31
0.0
  0
LINE
  5
3D94
  8
0
  6
CONTINUOUS
 62
     0
 10
114.56632208455891
 20
57.542767227976661
 30
0.0
 11
114.56632208455891
 21
57.542767227976661
 31
0.0
  0
LINE
  5
3D95
  8
0
  6
CONTINUOUS
 62
     0
 10
112.3565544506715
 20
59.567646198242301
 30
0.0
 11
112.3565544506715
 21
59.567646198242301
 31
0.0
  0
LINE
  5
3D96
  8
0
  6
CONTINUOUS
 62
     0
 10
111.88838334179709
 20
59.996645980078249
 30
0.0
 11
111.88838334179709
 21
59.996645980078249
 31
0.0
  0
LINE
  5
3D97
  8
0
  6
CONTINUOUS
 62
     0
 10
55.089864413151432
 20
112.042899512415
 30
0.0
 11
55.089864413151432
 21
112.042899512415
 31
0.0
  0
LINE
  5
3D98
  8
0
  6
CONTINUOUS
 62
     0
 10
54.621693304277002
 20
112.471899294251
 30
0.0
 11
54.621693304277002
 21
112.471899294251
 31
0.0
  0
LINE
  5
3D99
  8
0
  6
CONTINUOUS
 62
     0
 10
52.093569316355079
 20
114.7884981161651
 30
0.0
 11
52.093569316355079
 21
114.7884981161651
 31
0.0
  0
LINE
  5
3D9A
  8
0
  6
CONTINUOUS
 62
     0
 10
114.78605624471081
 20
66.56741700483029
 30
0.0
 11
114.78605624471081
 21
66.56741700483029
 31
0.0
  0
LINE
  5
3D9B
  8
0
  6
CONTINUOUS
 62
     0
 10
114.31788513583631
 20
66.996416786666231
 30
0.0
 11
114.31788513583631
 21
66.996416786666231
 31
0.0
  0
LINE
  5
3D9C
  8
0
  6
CONTINUOUS
 62
     0
 10
111.7897611479144
 20
69.313015608580329
 30
0.0
 11
111.7897611479144
 21
69.313015608580329
 31
0.0
  0
LINE
  5
3D9D
  8
0
  6
CONTINUOUS
 62
     0
 10
64.935196571761651
 20
112.2473137747216
 30
0.0
 11
64.935196571761651
 21
112.2473137747216
 31
0.0
  0
LINE
  5
3D9E
  8
0
  6
CONTINUOUS
 62
     0
 10
62.725428937874341
 20
114.27219274498719
 30
0.0
 11
62.725428937874341
 21
114.27219274498719
 31
0.0
  0
LINE
  5
3D9F
  8
0
  6
CONTINUOUS
 62
     0
 10
62.257257828999919
 20
114.70119252682321
 30
0.0
 11
62.257257828999919
 21
114.70119252682321
 31
0.0
  0
LINE
  5
3DA0
  8
0
  6
CONTINUOUS
 62
     0
 10
114.2192629419538
 20
76.312786415168077
 30
0.0
 11
114.2192629419538
 21
76.312786415168077
 31
0.0
  0
LINE
  5
3DA1
  8
0
  6
CONTINUOUS
 62
     0
 10
112.00949530806651
 20
78.337665385433738
 30
0.0
 11
112.00949530806651
 21
78.337665385433738
 31
0.0
  0
LINE
  5
3DA2
  8
0
  6
CONTINUOUS
 62
     0
 10
111.5413241991921
 20
78.766665167269679
 30
0.0
 11
111.5413241991921
 21
78.766665167269679
 31
0.0
  0
LINE
  5
3DA3
  8
0
  6
CONTINUOUS
 62
     0
 10
75.56705619328099
 20
111.7310084035436
 30
0.0
 11
75.56705619328099
 21
111.7310084035436
 31
0.0
  0
LINE
  5
3DA4
  8
0
  6
CONTINUOUS
 62
     0
 10
75.098885084406561
 20
112.1600081853795
 30
0.0
 11
75.098885084406561
 21
112.1600081853795
 31
0.0
  0
LINE
  5
3DA5
  8
0
  6
CONTINUOUS
 62
     0
 10
72.570761096484645
 20
114.47660700729359
 30
0.0
 11
72.570761096484645
 21
114.47660700729359
 31
0.0
  0
LINE
  5
3DA6
  8
0
  6
CONTINUOUS
 62
     0
 10
114.4389971021058
 20
85.337436192021613
 30
0.0
 11
114.4389971021058
 21
85.337436192021613
 31
0.0
  0
LINE
  5
3DA7
  8
0
  6
CONTINUOUS
 62
     0
 10
113.9708259932314
 20
85.766435973857568
 30
0.0
 11
113.9708259932314
 21
85.766435973857568
 31
0.0
  0
LINE
  5
3DA8
  8
0
  6
CONTINUOUS
 62
     0
 10
111.4427020053095
 20
88.083034795771667
 30
0.0
 11
111.4427020053095
 21
88.083034795771667
 31
0.0
  0
LINE
  5
3DA9
  8
0
  6
CONTINUOUS
 62
     0
 10
85.412388351891266
 20
111.9354226658502
 30
0.0
 11
85.412388351891266
 21
111.9354226658502
 31
0.0
  0
LINE
  5
3DAA
  8
0
  6
CONTINUOUS
 62
     0
 10
83.202620718003956
 20
113.9603016361158
 30
0.0
 11
83.202620718003956
 21
113.9603016361158
 31
0.0
  0
LINE
  5
3DAB
  8
0
  6
CONTINUOUS
 62
     0
 10
82.734449609129527
 20
114.3893014179518
 30
0.0
 11
82.734449609129527
 21
114.3893014179518
 31
0.0
  0
LINE
  5
3DAC
  8
0
  6
CONTINUOUS
 62
     0
 10
113.8722037993488
 20
95.082805602359514
 30
0.0
 11
113.8722037993488
 21
95.082805602359514
 31
0.0
  0
LINE
  5
3DAD
  8
0
  6
CONTINUOUS
 62
     0
 10
111.6624361654615
 20
97.107684572625175
 30
0.0
 11
111.6624361654615
 21
97.107684572625175
 31
0.0
  0
LINE
  5
3DAE
  8
0
  6
CONTINUOUS
 62
     0
 10
111.1942650565871
 20
97.536684354461102
 30
0.0
 11
111.1942650565871
 21
97.536684354461102
 31
0.0
  0
LINE
  5
3DAF
  8
0
  6
CONTINUOUS
 62
     0
 10
96.044247973410634
 20
111.4191172946722
 30
0.0
 11
96.044247973410634
 21
111.4191172946722
 31
0.0
  0
LINE
  5
3DB0
  8
0
  6
CONTINUOUS
 62
     0
 10
95.576076864536205
 20
111.8481170765082
 30
0.0
 11
95.576076864536205
 21
111.8481170765082
 31
0.0
  0
LINE
  5
3DB1
  8
0
  6
CONTINUOUS
 62
     0
 10
93.047952876614289
 20
114.1647158984223
 30
0.0
 11
93.047952876614289
 21
114.1647158984223
 31
0.0
  0
LINE
  5
3DB2
  8
0
  6
CONTINUOUS
 62
     0
 10
114.0919379595008
 20
104.10745537921311
 30
0.0
 11
114.0919379595008
 21
104.10745537921311
 31
0.0
  0
LINE
  5
3DB3
  8
0
  6
CONTINUOUS
 62
     0
 10
113.6237668506264
 20
104.53645516104901
 30
0.0
 11
113.6237668506264
 21
104.53645516104901
 31
0.0
  0
LINE
  5
3DB4
  8
0
  6
CONTINUOUS
 62
     0
 10
105.8895801320208
 20
111.6235315569788
 30
0.0
 11
105.8895801320208
 21
111.6235315569788
 31
0.0
  0
LINE
  5
3DB5
  8
0
  6
CONTINUOUS
 62
     0
 10
103.6798124981335
 20
113.64841052724449
 30
0.0
 11
103.6798124981335
 21
113.64841052724449
 31
0.0
  0
LINE
  5
3DB6
  8
0
  6
CONTINUOUS
 62
     0
 10
103.211641389259
 20
114.07741030908041
 30
0.0
 11
103.211641389259
 21
114.07741030908041
 31
0.0
  0
LINE
  5
3DB7
  8
0
  6
CONTINUOUS
 62
     0
 10
113.52514465674371
 20
113.85282478955099
 30
0.0
 11
113.52514465674371
 21
113.85282478955099
 31
0.0
  0
LINE
  5
3DB8
  8
0
  6
CONTINUOUS
 62
     0
 10
111.3153770228564
 20
115.8777037598166
 30
0.0
 11
111.3153770228564
 21
115.8777037598166
 31
0.0
  0
LINE
  5
3DB9
  8
0
  6
CONTINUOUS
 62
     0
 10
111.573816582756
 20
-175.81361315478091
 30
0.0
 11
111.573816582756
 21
-175.81361315478091
 31
0.0
  0
LINE
  5
3DBA
  8
0
  6
CONTINUOUS
 62
     0
 10
115.62775459491399
 20
-173.3427074986337
 30
0.0
 11
115.62775459491399
 21
-173.3427074986337
 31
0.0
  0
LINE
  5
3DBB
  8
0
  6
CONTINUOUS
 62
     0
 10
114.5566474587316
 20
-172.66033699603321
 30
0.0
 11
114.5566474587316
 21
-172.66033699603321
 31
0.0
  0
LINE
  5
3DBC
  8
0
  6
CONTINUOUS
 62
     0
 10
113.5763819308326
 20
-166.9822899776639
 30
0.0
 11
113.5763819308326
 21
-166.9822899776639
 31
0.0
  0
LINE
  5
3DBD
  8
0
  6
CONTINUOUS
 62
     0
 10
112.50527479465021
 20
-166.2999194750634
 30
0.0
 11
112.50527479465021
 21
-166.2999194750634
 31
0.0
  0
LINE
  5
3DBE
  8
0
  6
CONTINUOUS
 62
     0
 10
115.3809949570077
 20
-163.07840626605579
 30
0.0
 11
115.3809949570077
 21
-163.07840626605579
 31
0.0
  0
LINE
  5
3DBF
  8
0
  6
CONTINUOUS
 62
     0
 10
111.5250092667512
 20
-160.62187245669409
 30
0.0
 11
111.5250092667512
 21
-160.62187245669409
 31
0.0
  0
LINE
  5
3DC0
  8
0
  6
CONTINUOUS
 62
     0
 10
113.3296222929263
 20
-156.71798874508599
 30
0.0
 11
113.3296222929263
 21
-156.71798874508599
 31
0.0
  0
LINE
  5
3DC1
  8
0
  6
CONTINUOUS
 62
     0
 10
117.3835603050844
 20
-154.24708308893881
 30
0.0
 11
117.3835603050844
 21
-154.24708308893881
 31
0.0
  0
LINE
  5
3DC2
  8
0
  6
CONTINUOUS
 62
     0
 10
116.312453168902
 20
-153.56471258633829
 30
0.0
 11
116.312453168902
 21
-153.56471258633829
 31
0.0
  0
LINE
  5
3DC3
  8
0
  6
CONTINUOUS
 62
     0
 10
111.2782496288449
 20
-150.35757122411621
 30
0.0
 11
111.2782496288449
 21
-150.35757122411621
 31
0.0
  0
LINE
  5
3DC4
  8
0
  6
CONTINUOUS
 62
     0
 10
115.3321876410029
 20
-147.886665567969
 30
0.0
 11
115.3321876410029
 21
-147.886665567969
 31
0.0
  0
LINE
  5
3DC5
  8
0
  6
CONTINUOUS
 62
     0
 10
114.2610805048206
 20
-147.20429506536851
 30
0.0
 11
114.2610805048206
 21
-147.20429506536851
 31
0.0
  0
LINE
  5
3DC6
  8
0
  6
CONTINUOUS
 62
     0
 10
113.2808149769215
 20
-141.5262480469992
 30
0.0
 11
113.2808149769215
 21
-141.5262480469992
 31
0.0
  0
LINE
  5
3DC7
  8
0
  6
CONTINUOUS
 62
     0
 10
112.2097078407392
 20
-140.84387754439871
 30
0.0
 11
112.2097078407392
 21
-140.84387754439871
 31
0.0
  0
LINE
  5
3DC8
  8
0
  6
CONTINUOUS
 62
     0
 10
115.08542800309669
 20
-137.6223643353911
 30
0.0
 11
115.08542800309669
 21
-137.6223643353911
 31
0.0
  0
LINE
  5
3DC9
  8
0
  6
CONTINUOUS
 62
     0
 10
111.22944231284011
 20
-135.1658305260294
 30
0.0
 11
111.22944231284011
 21
-135.1658305260294
 31
0.0
  0
LINE
  5
3DCA
  8
0
  6
CONTINUOUS
 62
     0
 10
113.0340553390153
 20
-131.26194681442129
 30
0.0
 11
113.0340553390153
 21
-131.26194681442129
 31
0.0
  0
LINE
  5
3DCB
  8
0
  6
CONTINUOUS
 62
     0
 10
116.0168862149909
 20
-128.10867065567371
 30
0.0
 11
116.0168862149909
 21
-128.10867065567371
 31
0.0
  0
LINE
  5
3DCC
  8
0
  6
CONTINUOUS
 62
     0
 10
115.0366206870919
 20
-122.43062363730439
 30
0.0
 11
115.0366206870919
 21
-122.43062363730439
 31
0.0
  0
LINE
  5
3DCD
  8
0
  6
CONTINUOUS
 62
     0
 10
113.96551355090961
 20
-121.7482531347039
 30
0.0
 11
113.96551355090961
 21
-121.7482531347039
 31
0.0
  0
LINE
  5
3DCE
  8
0
  6
CONTINUOUS
 62
     0
 10
112.9852480230104
 20
-116.0702061163346
 30
0.0
 11
112.9852480230104
 21
-116.0702061163346
 31
0.0
  0
LINE
  5
3DCF
  8
0
  6
CONTINUOUS
 62
     0
 10
111.91414088682809
 20
-115.3878356137341
 30
0.0
 11
111.91414088682809
 21
-115.3878356137341
 31
0.0
  0
LINE
  5
3DD0
  8
0
  6
CONTINUOUS
 62
     0
 10
114.7898610491856
 20
-112.1663224047265
 30
0.0
 11
114.7898610491856
 21
-112.1663224047265
 31
0.0
  0
LINE
  5
3DD1
  8
0
  6
CONTINUOUS
 62
     0
 10
112.7384883851042
 20
-105.8059048837567
 30
0.0
 11
112.7384883851042
 21
-105.8059048837567
 31
0.0
  0
LINE
  5
3DD2
  8
0
  6
CONTINUOUS
 62
     0
 10
115.7213192610799
 20
-102.65262872500909
 30
0.0
 11
115.7213192610799
 21
-102.65262872500909
 31
0.0
  0
LINE
  5
3DD3
  8
0
  6
CONTINUOUS
 62
     0
 10
114.74105373318081
 20
-96.974581706639754
 30
0.0
 11
114.74105373318081
 21
-96.974581706639754
 31
0.0
  0
LINE
  5
3DD4
  8
0
  6
CONTINUOUS
 62
     0
 10
113.6699465969985
 20
-96.29221120403929
 30
0.0
 11
113.6699465969985
 21
-96.29221120403929
 31
0.0
  0
LINE
  5
3DD5
  8
0
  6
CONTINUOUS
 62
     0
 10
112.68968106909939
 20
-90.614164185669964
 30
0.0
 11
112.68968106909939
 21
-90.614164185669964
 31
0.0
  0
LINE
  5
3DD6
  8
0
  6
CONTINUOUS
 62
     0
 10
111.618573932917
 20
-89.931793683069515
 30
0.0
 11
111.618573932917
 21
-89.931793683069515
 31
0.0
  0
LINE
  5
3DD7
  8
0
  6
CONTINUOUS
 62
     0
 10
114.4942940952746
 20
-86.710280474061875
 30
0.0
 11
114.4942940952746
 21
-86.710280474061875
 31
0.0
  0
LINE
  5
3DD8
  8
0
  6
CONTINUOUS
 62
     0
 10
112.4429214311931
 20
-80.349862953092014
 30
0.0
 11
112.4429214311931
 21
-80.349862953092014
 31
0.0
  0
LINE
  5
3DD9
  8
0
  6
CONTINUOUS
 62
     0
 10
116.4968594433512
 20
-77.878957296944918
 30
0.0
 11
116.4968594433512
 21
-77.878957296944918
 31
0.0
  0
LINE
  5
3DDA
  8
0
  6
CONTINUOUS
 62
     0
 10
115.42575230716891
 20
-77.196586794344455
 30
0.0
 11
115.42575230716891
 21
-77.196586794344455
 31
0.0
  0
LINE
  5
3DDB
  8
0
  6
CONTINUOUS
 62
     0
 10
114.4454867792699
 20
-71.518539775975142
 30
0.0
 11
114.4454867792699
 21
-71.518539775975142
 31
0.0
  0
LINE
  5
3DDC
  8
0
  6
CONTINUOUS
 62
     0
 10
113.37437964308749
 20
-70.836169273374679
 30
0.0
 11
113.37437964308749
 21
-70.836169273374679
 31
0.0
  0
LINE
  5
3DDD
  8
0
  6
CONTINUOUS
 62
     0
 10
116.2500998054449
 20
-67.614656064366997
 30
0.0
 11
116.2500998054449
 21
-67.614656064366997
 31
0.0
  0
LINE
  5
3DDE
  8
0
  6
CONTINUOUS
 62
     0
 10
112.3941141151884
 20
-65.15812225500531
 30
0.0
 11
112.3941141151884
 21
-65.15812225500531
 31
0.0
  0
LINE
  5
3DDF
  8
0
  6
CONTINUOUS
 62
     0
 10
111.323006979006
 20
-64.475751752404847
 30
0.0
 11
111.323006979006
 21
-64.475751752404847
 31
0.0
  0
LINE
  5
3DE0
  8
0
  6
CONTINUOUS
 62
     0
 10
114.19872714136351
 20
-61.2542385433972
 30
0.0
 11
114.19872714136351
 21
-61.2542385433972
 31
0.0
  0
LINE
  5
3DE1
  8
0
  6
CONTINUOUS
 62
     0
 10
112.14735447728199
 20
-54.893821022427382
 30
0.0
 11
112.14735447728199
 21
-54.893821022427382
 31
0.0
  0
LINE
  5
3DE2
  8
0
  6
CONTINUOUS
 62
     0
 10
116.20129248944011
 20
-52.422915366280243
 30
0.0
 11
116.20129248944011
 21
-52.422915366280243
 31
0.0
  0
LINE
  5
3DE3
  8
0
  6
CONTINUOUS
 62
     0
 10
115.1301853532578
 20
-51.74054486367978
 30
0.0
 11
115.1301853532578
 21
-51.74054486367978
 31
0.0
  0
LINE
  5
3DE4
  8
0
  6
CONTINUOUS
 62
     0
 10
114.14991982535869
 20
-46.062497845310482
 30
0.0
 11
114.14991982535869
 21
-46.062497845310482
 31
0.0
  0
LINE
  5
3DE5
  8
0
  6
CONTINUOUS
 62
     0
 10
113.0788126891764
 20
-45.380127342710011
 30
0.0
 11
113.0788126891764
 21
-45.380127342710011
 31
0.0
  0
LINE
  5
3DE6
  8
0
  6
CONTINUOUS
 62
     0
 10
-134.88248933704091
 20
112.58864400929799
 30
0.0
 11
-134.88248933704091
 21
112.58864400929799
 31
0.0
  0
LINE
  5
3DE7
  8
0
  6
CONTINUOUS
 62
     0
 10
-135.95359647322331
 20
113.2710145118985
 30
0.0
 11
-135.95359647322331
 21
113.2710145118985
 31
0.0
  0
LINE
  5
3DE8
  8
0
  6
CONTINUOUS
 62
     0
 10
115.9545328515338
 20
-42.158614133702372
 30
0.0
 11
115.9545328515338
 21
-42.158614133702372
 31
0.0
  0
LINE
  5
3DE9
  8
0
  6
CONTINUOUS
 62
     0
 10
112.0985471612773
 20
-39.702080324340692
 30
0.0
 11
112.0985471612773
 21
-39.702080324340692
 31
0.0
  0
LINE
  5
3DEA
  8
0
  6
CONTINUOUS
 62
     0
 10
-123.1165799443699
 20
110.1464820467218
 30
0.0
 11
-123.1165799443699
 21
110.1464820467218
 31
0.0
  0
LINE
  5
3DEB
  8
0
  6
CONTINUOUS
 62
     0
 10
-126.97256563462641
 20
112.6030158560835
 30
0.0
 11
-126.97256563462641
 21
112.6030158560835
 31
0.0
  0
LINE
  5
3DEC
  8
0
  6
CONTINUOUS
 62
     0
 10
-128.04367277080871
 20
113.28538635868389
 30
0.0
 11
-128.04367277080871
 21
113.28538635868389
 31
0.0
  0
LINE
  5
3DED
  8
0
  6
CONTINUOUS
 62
     0
 10
113.9031601874523
 20
-35.798196612732539
 30
0.0
 11
113.9031601874523
 21
-35.798196612732539
 31
0.0
  0
LINE
  5
3DEE
  8
0
  6
CONTINUOUS
 62
     0
 10
-119.0626419322119
 20
112.617387702869
 30
0.0
 11
-119.0626419322119
 21
112.617387702869
 31
0.0
  0
LINE
  5
3DEF
  8
0
  6
CONTINUOUS
 62
     0
 10
-120.13374906839429
 20
113.2997582054694
 30
0.0
 11
-120.13374906839429
 21
113.2997582054694
 31
0.0
  0
LINE
  5
3DF0
  8
0
  6
CONTINUOUS
 62
     0
 10
111.851787523371
 20
-29.43777909176276
 30
0.0
 11
111.851787523371
 21
-29.43777909176276
 31
0.0
  0
LINE
  5
3DF1
  8
0
  6
CONTINUOUS
 62
     0
 10
-111.1527182297973
 20
112.6317595496544
 30
0.0
 11
-111.1527182297973
 21
112.6317595496544
 31
0.0
  0
LINE
  5
3DF2
  8
0
  6
CONTINUOUS
 62
     0
 10
-112.22382536597959
 20
113.3141300522549
 30
0.0
 11
-112.22382536597959
 21
113.3141300522549
 31
0.0
  0
LINE
  5
3DF3
  8
0
  6
CONTINUOUS
 62
     0
 10
114.8346183993466
 20
-26.284502933015091
 30
0.0
 11
114.8346183993466
 21
-26.284502933015091
 31
0.0
  0
LINE
  5
3DF4
  8
0
  6
CONTINUOUS
 62
     0
 10
-103.2427945273827
 20
112.6461313964399
 30
0.0
 11
-103.2427945273827
 21
112.6461313964399
 31
0.0
  0
LINE
  5
3DF5
  8
0
  6
CONTINUOUS
 62
     0
 10
-104.3139016635651
 20
113.3285018990404
 30
0.0
 11
-104.3139016635651
 21
113.3285018990404
 31
0.0
  0
LINE
  5
3DF6
  8
0
  6
CONTINUOUS
 62
     0
 10
113.8543528714476
 20
-20.60645591464581
 30
0.0
 11
113.8543528714476
 21
-20.60645591464581
 31
0.0
  0
LINE
  5
3DF7
  8
0
  6
CONTINUOUS
 62
     0
 10
112.7832457352653
 20
-19.92408541204534
 30
0.0
 11
112.7832457352653
 21
-19.92408541204534
 31
0.0
  0
LINE
  5
3DF8
  8
0
  6
CONTINUOUS
 62
     0
 10
-95.332870824968168
 20
112.66050324322531
 30
0.0
 11
-95.332870824968168
 21
112.66050324322531
 31
0.0
  0
LINE
  5
3DF9
  8
0
  6
CONTINUOUS
 62
     0
 10
-96.403977961150531
 20
113.3428737458258
 30
0.0
 11
-96.403977961150531
 21
113.3428737458258
 31
0.0
  0
LINE
  5
3DFA
  8
0
  6
CONTINUOUS
 62
     0
 10
111.8029802073661
 20
-14.246038393676001
 30
0.0
 11
111.8029802073661
 21
-14.246038393676001
 31
0.0
  0
LINE
  5
3DFB
  8
0
  6
CONTINUOUS
 62
     0
 10
-87.422947122553666
 20
112.6748750900108
 30
0.0
 11
-87.422947122553666
 21
112.6748750900108
 31
0.0
  0
LINE
  5
3DFC
  8
0
  6
CONTINUOUS
 62
     0
 10
-88.494054258736028
 20
113.35724559261131
 30
0.0
 11
-88.494054258736028
 21
113.35724559261131
 31
0.0
  0
LINE
  5
3DFD
  8
0
  6
CONTINUOUS
 62
     0
 10
113.60759323354129
 20
-10.342154682067919
 30
0.0
 11
113.60759323354129
 21
-10.342154682067919
 31
0.0
  0
LINE
  5
3DFE
  8
0
  6
CONTINUOUS
 62
     0
 10
-79.513023420138992
 20
112.6892469367962
 30
0.0
 11
-79.513023420138992
 21
112.6892469367962
 31
0.0
  0
LINE
  5
3DFF
  8
0
  6
CONTINUOUS
 62
     0
 10
-80.584130556321355
 20
113.3716174393966
 30
0.0
 11
-80.584130556321355
 21
113.3716174393966
 31
0.0
  0
LINE
  5
3E00
  8
0
  6
CONTINUOUS
 62
     0
 10
111.55622056946
 20
-3.9817371610981951
 30
0.0
 11
111.55622056946
 21
-3.9817371610981951
 31
0.0
  0
LINE
  5
3E01
  8
0
  6
CONTINUOUS
 62
     0
 10
-71.603099717724334
 20
112.7036187835816
 30
0.0
 11
-71.603099717724334
 21
112.7036187835816
 31
0.0
  0
LINE
  5
3E02
  8
0
  6
CONTINUOUS
 62
     0
 10
-72.674206853906711
 20
113.3859892861821
 30
0.0
 11
-72.674206853906711
 21
113.3859892861821
 31
0.0
  0
LINE
  5
3E03
  8
0
  6
CONTINUOUS
 62
     0
 10
115.61015858161799
 20
-1.510831504950974
 30
0.0
 11
115.61015858161799
 21
-1.510831504950974
 31
0.0
  0
LINE
  5
3E04
  8
0
  6
CONTINUOUS
 62
     0
 10
114.5390514454356
 20
-0.8284610023505081
 30
0.0
 11
114.5390514454356
 21
-0.8284610023505081
 31
0.0
  0
LINE
  5
3E05
  8
0
  6
CONTINUOUS
 62
     0
 10
-63.693176015309767
 20
112.7179906303671
 30
0.0
 11
-63.693176015309767
 21
112.7179906303671
 31
0.0
  0
LINE
  5
3E06
  8
0
  6
CONTINUOUS
 62
     0
 10
-64.764283151492137
 20
113.4003611329676
 30
0.0
 11
-64.764283151492137
 21
113.4003611329676
 31
0.0
  0
LINE
  5
3E07
  8
0
  6
CONTINUOUS
 62
     0
 10
113.5587859175365
 20
4.8495860160188293
 30
0.0
 11
113.5587859175365
 21
4.8495860160188293
 31
0.0
  0
LINE
  5
3E08
  8
0
  6
CONTINUOUS
 62
     0
 10
112.48767878135421
 20
5.531956518619296
 30
0.0
 11
112.48767878135421
 21
5.531956518619296
 31
0.0
  0
LINE
  5
3E09
  8
0
  6
CONTINUOUS
 62
     0
 10
-55.783252312895371
 20
112.73236247715271
 30
0.0
 11
-55.783252312895371
 21
112.73236247715271
 31
0.0
  0
LINE
  5
3E0A
  8
0
  6
CONTINUOUS
 62
     0
 10
-56.854359449077727
 20
113.4147329797531
 30
0.0
 11
-56.854359449077727
 21
113.4147329797531
 31
0.0
  0
LINE
  5
3E0B
  8
0
  6
CONTINUOUS
 62
     0
 10
115.3633989437116
 20
8.7534697276269569
 30
0.0
 11
115.3633989437116
 21
8.7534697276269569
 31
0.0
  0
LINE
  5
3E0C
  8
0
  6
CONTINUOUS
 62
     0
 10
111.5074132534551
 20
11.21000353698863
 30
0.0
 11
111.5074132534551
 21
11.21000353698863
 31
0.0
  0
LINE
  5
3E0D
  8
0
  6
CONTINUOUS
 62
     0
 10
-47.873328610480698
 20
112.7467343239381
 30
0.0
 11
-47.873328610480698
 21
112.7467343239381
 31
0.0
  0
LINE
  5
3E0E
  8
0
  6
CONTINUOUS
 62
     0
 10
-48.944435746663061
 20
113.42910482653851
 30
0.0
 11
-48.944435746663061
 21
113.42910482653851
 31
0.0
  0
LINE
  5
3E0F
  8
0
  6
CONTINUOUS
 62
     0
 10
113.3120262796302
 20
15.11388724859677
 30
0.0
 11
113.3120262796302
 21
15.11388724859677
 31
0.0
  0
LINE
  5
3E10
  8
0
  6
CONTINUOUS
 62
     0
 10
-39.96340490806611
 20
112.76110617072349
 30
0.0
 11
-39.96340490806611
 21
112.76110617072349
 31
0.0
  0
LINE
  5
3E11
  8
0
  6
CONTINUOUS
 62
     0
 10
-41.034512044248473
 20
113.443476673324
 30
0.0
 11
-41.034512044248473
 21
113.443476673324
 31
0.0
  0
LINE
  5
3E12
  8
0
  6
CONTINUOUS
 62
     0
 10
111.2606536155489
 20
21.474304769566508
 30
0.0
 11
111.2606536155489
 21
21.474304769566508
 31
0.0
  0
LINE
  5
3E13
  8
0
  6
CONTINUOUS
 62
     0
 10
-32.053481205651579
 20
112.775478017509
 30
0.0
 11
-32.053481205651579
 21
112.775478017509
 31
0.0
  0
LINE
  5
3E14
  8
0
  6
CONTINUOUS
 62
     0
 10
-33.124588341833942
 20
113.45784852010949
 30
0.0
 11
-33.124588341833942
 21
113.45784852010949
 31
0.0
  0
LINE
  5
3E15
  8
0
  6
CONTINUOUS
 62
     0
 10
115.3145916277069
 20
23.945210425713679
 30
0.0
 11
115.3145916277069
 21
23.945210425713679
 31
0.0
  0
LINE
  5
3E16
  8
0
  6
CONTINUOUS
 62
     0
 10
114.2434844915245
 20
24.627580928314149
 30
0.0
 11
114.2434844915245
 21
24.627580928314149
 31
0.0
  0
LINE
  5
3E17
  8
0
  6
CONTINUOUS
 62
     0
 10
-24.14355750323698
 20
112.7898498642944
 30
0.0
 11
-24.14355750323698
 21
112.7898498642944
 31
0.0
  0
LINE
  5
3E18
  8
0
  6
CONTINUOUS
 62
     0
 10
-25.21466463941934
 20
113.4722203668949
 30
0.0
 11
-25.21466463941934
 21
113.4722203668949
 31
0.0
  0
LINE
  5
3E19
  8
0
  6
CONTINUOUS
 62
     0
 10
113.26321896362541
 20
30.305627946683511
 30
0.0
 11
113.26321896362541
 21
30.305627946683511
 31
0.0
  0
LINE
  5
3E1A
  8
0
  6
CONTINUOUS
 62
     0
 10
112.192111827443
 20
30.987998449283982
 30
0.0
 11
112.192111827443
 21
30.987998449283982
 31
0.0
  0
LINE
  5
3E1B
  8
0
  6
CONTINUOUS
 62
     0
 10
-16.23363380082246
 20
112.80422171108
 30
0.0
 11
-16.23363380082246
 21
112.80422171108
 31
0.0
  0
LINE
  5
3E1C
  8
0
  6
CONTINUOUS
 62
     0
 10
-17.304740937004819
 20
113.4865922136804
 30
0.0
 11
-17.304740937004819
 21
113.4865922136804
 31
0.0
  0
LINE
  5
3E1D
  8
0
  6
CONTINUOUS
 62
     0
 10
115.06783198980069
 20
34.209511658291561
 30
0.0
 11
115.06783198980069
 21
34.209511658291561
 31
0.0
  0
LINE
  5
3E1E
  8
0
  6
CONTINUOUS
 62
     0
 10
111.21184629954411
 20
36.666045467653241
 30
0.0
 11
111.21184629954411
 21
36.666045467653241
 31
0.0
  0
LINE
  5
3E1F
  8
0
  6
CONTINUOUS
 62
     0
 10
110.1407391633618
 20
37.348415970253711
 30
0.0
 11
110.1407391633618
 21
37.348415970253711
 31
0.0
  0
LINE
  5
3E20
  8
0
  6
CONTINUOUS
 62
     0
 10
-8.3237100984078136
 20
112.8185935578653
 30
0.0
 11
-8.3237100984078136
 21
112.8185935578653
 31
0.0
  0
LINE
  5
3E21
  8
0
  6
CONTINUOUS
 62
     0
 10
-9.3948172345901781
 20
113.5009640604658
 30
0.0
 11
-9.3948172345901781
 21
113.5009640604658
 31
0.0
  0
LINE
  5
3E22
  8
0
  6
CONTINUOUS
 62
     0
 10
113.0164593257192
 20
40.569929179261322
 30
0.0
 11
113.0164593257192
 21
40.569929179261322
 31
0.0
  0
LINE
  5
3E23
  8
0
  6
CONTINUOUS
 62
     0
 10
-0.4137863959932826
 20
112.83296540465081
 30
0.0
 11
-0.4137863959932826
 21
112.83296540465081
 31
0.0
  0
LINE
  5
3E24
  8
0
  6
CONTINUOUS
 62
     0
 10
-1.4848935321756469
 20
113.5153359072513
 30
0.0
 11
-1.4848935321756469
 21
113.5153359072513
 31
0.0
  0
LINE
  5
3E25
  8
0
  6
CONTINUOUS
 62
     0
 10
115.9992902016949
 20
43.723205338008967
 30
0.0
 11
115.9992902016949
 21
43.723205338008967
 31
0.0
  0
LINE
  5
3E26
  8
0
  6
CONTINUOUS
 62
     0
 10
7.496137306421347
 20
112.8473372514363
 30
0.0
 11
7.496137306421347
 21
112.8473372514363
 31
0.0
  0
LINE
  5
3E27
  8
0
  6
CONTINUOUS
 62
     0
 10
6.4250301702389834
 20
113.52970775403681
 30
0.0
 11
6.4250301702389834
 21
113.52970775403681
 31
0.0
  0
LINE
  5
3E28
  8
0
  6
CONTINUOUS
 62
     0
 10
115.0190246737957
 20
49.4012523563784
 30
0.0
 11
115.0190246737957
 21
49.4012523563784
 31
0.0
  0
LINE
  5
3E29
  8
0
  6
CONTINUOUS
 62
     0
 10
113.94791753761341
 20
50.083622858978863
 30
0.0
 11
113.94791753761341
 21
50.083622858978863
 31
0.0
  0
LINE
  5
3E2A
  8
0
  6
CONTINUOUS
 62
     0
 10
15.40606100883593
 20
112.8617090982217
 30
0.0
 11
15.40606100883593
 21
112.8617090982217
 31
0.0
  0
LINE
  5
3E2B
  8
0
  6
CONTINUOUS
 62
     0
 10
14.334953872653569
 20
113.5440796008222
 30
0.0
 11
14.334953872653569
 21
113.5440796008222
 31
0.0
  0
LINE
  5
3E2C
  8
0
  6
CONTINUOUS
 62
     0
 10
112.9676520097145
 20
55.761669877348083
 30
0.0
 11
112.9676520097145
 21
55.761669877348083
 31
0.0
  0
LINE
  5
3E2D
  8
0
  6
CONTINUOUS
 62
     0
 10
111.89654487353209
 20
56.444040379948547
 30
0.0
 11
111.89654487353209
 21
56.444040379948547
 31
0.0
  0
LINE
  5
3E2E
  8
0
  6
CONTINUOUS
 62
     0
 10
23.315984711250561
 20
112.8760809450072
 30
0.0
 11
23.315984711250561
 21
112.8760809450072
 31
0.0
  0
LINE
  5
3E2F
  8
0
  6
CONTINUOUS
 62
     0
 10
22.244877575068202
 20
113.55845144760769
 30
0.0
 11
22.244877575068202
 21
113.55845144760769
 31
0.0
  0
LINE
  5
3E30
  8
0
  6
CONTINUOUS
 62
     0
 10
114.7722650358895
 20
59.66555358895625
 30
0.0
 11
114.7722650358895
 21
59.66555358895625
 31
0.0
  0
LINE
  5
3E31
  8
0
  6
CONTINUOUS
 62
     0
 10
31.225908413665
 20
112.8904527917927
 30
0.0
 11
31.225908413665
 21
112.8904527917927
 31
0.0
  0
LINE
  5
3E32
  8
0
  6
CONTINUOUS
 62
     0
 10
30.15480127748264
 20
113.5728232943932
 30
0.0
 11
30.15480127748264
 21
113.5728232943932
 31
0.0
  0
LINE
  5
3E33
  8
0
  6
CONTINUOUS
 62
     0
 10
112.72089237180811
 20
66.02597110992609
 30
0.0
 11
112.72089237180811
 21
66.02597110992609
 31
0.0
  0
LINE
  5
3E34
  8
0
  6
CONTINUOUS
 62
     0
 10
39.135832116079612
 20
112.90482463857821
 30
0.0
 11
39.135832116079612
 21
112.90482463857821
 31
0.0
  0
LINE
  5
3E35
  8
0
  6
CONTINUOUS
 62
     0
 10
38.06472497989725
 20
113.5871951411786
 30
0.0
 11
38.06472497989725
 21
113.5871951411786
 31
0.0
  0
LINE
  5
3E36
  8
0
  6
CONTINUOUS
 62
     0
 10
47.045755818494271
 20
112.9191964853635
 30
0.0
 11
47.045755818494271
 21
112.9191964853635
 31
0.0
  0
LINE
  5
3E37
  8
0
  6
CONTINUOUS
 62
     0
 10
45.974648682311908
 20
113.60156698796401
 30
0.0
 11
45.974648682311908
 21
113.60156698796401
 31
0.0
  0
LINE
  5
3E38
  8
0
  6
CONTINUOUS
 62
     0
 10
114.72345771988491
 20
74.85729428704289
 30
0.0
 11
114.72345771988491
 21
74.85729428704289
 31
0.0
  0
LINE
  5
3E39
  8
0
  6
CONTINUOUS
 62
     0
 10
113.6523505837025
 20
75.539664789643354
 30
0.0
 11
113.6523505837025
 21
75.539664789643354
 31
0.0
  0
LINE
  5
3E3A
  8
0
  6
CONTINUOUS
 62
     0
 10
54.955679520908852
 20
112.93356833214899
 30
0.0
 11
54.955679520908852
 21
112.93356833214899
 31
0.0
  0
LINE
  5
3E3B
  8
0
  6
CONTINUOUS
 62
     0
 10
53.884572384726489
 20
113.6159388347494
 30
0.0
 11
53.884572384726489
 21
113.6159388347494
 31
0.0
  0
LINE
  5
3E3C
  8
0
  6
CONTINUOUS
 62
     0
 10
112.67208505580339
 20
81.217711808012751
 30
0.0
 11
112.67208505580339
 21
81.217711808012751
 31
0.0
  0
LINE
  5
3E3D
  8
0
  6
CONTINUOUS
 62
     0
 10
111.600977919621
 20
81.900082310613215
 30
0.0
 11
111.600977919621
 21
81.900082310613215
 31
0.0
  0
LINE
  5
3E3E
  8
0
  6
CONTINUOUS
 62
     0
 10
62.865603223323369
 20
112.9479401789345
 30
0.0
 11
62.865603223323369
 21
112.9479401789345
 31
0.0
  0
LINE
  5
3E3F
  8
0
  6
CONTINUOUS
 62
     0
 10
61.794496087141013
 20
113.63031068153489
 30
0.0
 11
61.794496087141013
 21
113.63031068153489
 31
0.0
  0
LINE
  5
3E40
  8
0
  6
CONTINUOUS
 62
     0
 10
114.4766980819786
 20
85.121595519620826
 30
0.0
 11
114.4766980819786
 21
85.121595519620826
 31
0.0
  0
LINE
  5
3E41
  8
0
  6
CONTINUOUS
 62
     0
 10
70.775526925738106
 20
112.9623120257198
 30
0.0
 11
70.775526925738106
 21
112.9623120257198
 31
0.0
  0
LINE
  5
3E42
  8
0
  6
CONTINUOUS
 62
     0
 10
69.704419789555743
 20
113.6446825283203
 30
0.0
 11
69.704419789555743
 21
113.6446825283203
 31
0.0
  0
LINE
  5
3E43
  8
0
  6
CONTINUOUS
 62
     0
 10
112.425325417897
 20
91.482013040590729
 30
0.0
 11
112.425325417897
 21
91.482013040590729
 31
0.0
  0
LINE
  5
3E44
  8
0
  6
CONTINUOUS
 62
     0
 10
78.685450628152495
 20
112.9766838725054
 30
0.0
 11
78.685450628152495
 21
112.9766838725054
 31
0.0
  0
LINE
  5
3E45
  8
0
  6
CONTINUOUS
 62
     0
 10
77.614343491970146
 20
113.6590543751059
 30
0.0
 11
77.614343491970146
 21
113.6590543751059
 31
0.0
  0
LINE
  5
3E46
  8
0
  6
CONTINUOUS
 62
     0
 10
115.40815629387269
 20
94.635289199338345
 30
0.0
 11
115.40815629387269
 21
94.635289199338345
 31
0.0
  0
LINE
  5
3E47
  8
0
  6
CONTINUOUS
 62
     0
 10
86.595374330567097
 20
112.9910557192909
 30
0.0
 11
86.595374330567097
 21
112.9910557192909
 31
0.0
  0
LINE
  5
3E48
  8
0
  6
CONTINUOUS
 62
     0
 10
85.524267194384734
 20
113.6734262218913
 30
0.0
 11
85.524267194384734
 21
113.6734262218913
 31
0.0
  0
LINE
  5
3E49
  8
0
  6
CONTINUOUS
 62
     0
 10
114.4278907659738
 20
100.3133362177076
 30
0.0
 11
114.4278907659738
 21
100.3133362177076
 31
0.0
  0
LINE
  5
3E4A
  8
0
  6
CONTINUOUS
 62
     0
 10
113.35678362979139
 20
100.99570672030799
 30
0.0
 11
113.35678362979139
 21
100.99570672030799
 31
0.0
  0
LINE
  5
3E4B
  8
0
  6
CONTINUOUS
 62
     0
 10
94.505298032981784
 20
113.00542756607631
 30
0.0
 11
94.505298032981784
 21
113.00542756607631
 31
0.0
  0
LINE
  5
3E4C
  8
0
  6
CONTINUOUS
 62
     0
 10
93.434190896799421
 20
113.6877980686767
 30
0.0
 11
93.434190896799421
 21
113.6877980686767
 31
0.0
  0
LINE
  5
3E4D
  8
0
  6
CONTINUOUS
 62
     0
 10
112.3765181018922
 20
106.6737537386775
 30
0.0
 11
112.3765181018922
 21
106.6737537386775
 31
0.0
  0
LINE
  5
3E4E
  8
0
  6
CONTINUOUS
 62
     0
 10
111.3054109657099
 20
107.3561242412779
 30
0.0
 11
111.3054109657099
 21
107.3561242412779
 31
0.0
  0
LINE
  5
3E4F
  8
0
  6
CONTINUOUS
 62
     0
 10
102.4152217353963
 20
113.0197994128618
 30
0.0
 11
102.4152217353963
 21
113.0197994128618
 31
0.0
  0
LINE
  5
3E50
  8
0
  6
CONTINUOUS
 62
     0
 10
101.3441145992139
 20
113.70216991546221
 30
0.0
 11
101.3441145992139
 21
113.70216991546221
 31
0.0
  0
LINE
  5
3E51
  8
0
  6
CONTINUOUS
 62
     0
 10
114.18113112806741
 20
110.57763745028549
 30
0.0
 11
114.18113112806741
 21
110.57763745028549
 31
0.0
  0
LINE
  5
3E52
  8
0
  6
CONTINUOUS
 62
     0
 10
110.3251454378109
 20
113.0341712596472
 30
0.0
 11
110.3251454378109
 21
113.0341712596472
 31
0.0
  0
LINE
  5
3E53
  8
0
  6
CONTINUOUS
 62
     0
 10
109.2540383016286
 20
113.7165417622477
 30
0.0
 11
109.2540383016286
 21
113.7165417622477
 31
0.0
  0
LINE
  5
3E54
  8
0
  6
CONTINUOUS
 62
     0
 10
115.80585181338169
 20
-173.3573743374225
 30
0.0
 11
115.80585181338169
 21
-173.3573743374225
 31
0.0
  0
LINE
  5
3E55
  8
0
  6
CONTINUOUS
 62
     0
 10
112.3558219847731
 20
-173.81157938110979
 30
0.0
 11
112.3558219847731
 21
-173.81157938110979
 31
0.0
  0
LINE
  5
3E56
  8
0
  6
CONTINUOUS
 62
     0
 10
114.78607345888361
 20
-166.91518832858219
 30
0.0
 11
114.78607345888361
 21
-166.91518832858219
 31
0.0
  0
LINE
  5
3E57
  8
0
  6
CONTINUOUS
 62
     0
 10
113.46398173624171
 20
-167.0892450059076
 30
0.0
 11
113.46398173624171
 21
-167.0892450059076
 31
0.0
  0
LINE
  5
3E58
  8
0
  6
CONTINUOUS
 62
     0
 10
114.50918473901309
 20
-160.37519904391141
 30
0.0
 11
114.50918473901309
 21
-160.37519904391141
 31
0.0
  0
LINE
  5
3E59
  8
0
  6
CONTINUOUS
 62
     0
 10
112.4442033817437
 20
-160.64705899706729
 30
0.0
 11
112.4442033817437
 21
-160.64705899706729
 31
0.0
  0
LINE
  5
3E5A
  8
0
  6
CONTINUOUS
 62
     0
 10
116.9394362131237
 20
-153.4788079913838
 30
0.0
 11
116.9394362131237
 21
-153.4788079913838
 31
0.0
  0
LINE
  5
3E5B
  8
0
  6
CONTINUOUS
 62
     0
 10
115.6173444904817
 20
-153.65286466870921
 30
0.0
 11
115.6173444904817
 21
-153.65286466870921
 31
0.0
  0
LINE
  5
3E5C
  8
0
  6
CONTINUOUS
 62
     0
 10
112.16731466187321
 20
-154.10706971239659
 30
0.0
 11
112.16731466187321
 21
-154.10706971239659
 31
0.0
  0
LINE
  5
3E5D
  8
0
  6
CONTINUOUS
 62
     0
 10
114.5975661359838
 20
-147.21067865986899
 30
0.0
 11
114.5975661359838
 21
-147.21067865986899
 31
0.0
  0
LINE
  5
3E5E
  8
0
  6
CONTINUOUS
 62
     0
 10
113.2754744133419
 20
-147.3847353371944
 30
0.0
 11
113.2754744133419
 21
-147.3847353371944
 31
0.0
  0
LINE
  5
3E5F
  8
0
  6
CONTINUOUS
 62
     0
 10
114.3206774161133
 20
-140.67068937519821
 30
0.0
 11
114.3206774161133
 21
-140.67068937519821
 31
0.0
  0
LINE
  5
3E60
  8
0
  6
CONTINUOUS
 62
     0
 10
112.25569605884399
 20
-140.94254932835409
 30
0.0
 11
112.25569605884399
 21
-140.94254932835409
 31
0.0
  0
LINE
  5
3E61
  8
0
  6
CONTINUOUS
 62
     0
 10
116.750928890224
 20
-133.7742983226706
 30
0.0
 11
116.750928890224
 21
-133.7742983226706
 31
0.0
  0
LINE
  5
3E62
  8
0
  6
CONTINUOUS
 62
     0
 10
115.428837167582
 20
-133.94835499999601
 30
0.0
 11
115.428837167582
 21
-133.94835499999601
 31
0.0
  0
LINE
  5
3E63
  8
0
  6
CONTINUOUS
 62
     0
 10
111.9788073389734
 20
-134.40256004368339
 30
0.0
 11
111.9788073389734
 21
-134.40256004368339
 31
0.0
  0
LINE
  5
3E64
  8
0
  6
CONTINUOUS
 62
     0
 10
116.4740401703535
 20
-127.23430903799979
 30
0.0
 11
116.4740401703535
 21
-127.23430903799979
 31
0.0
  0
LINE
  5
3E65
  8
0
  6
CONTINUOUS
 62
     0
 10
114.4090588130841
 20
-127.5061689911558
 30
0.0
 11
114.4090588130841
 21
-127.5061689911558
 31
0.0
  0
LINE
  5
3E66
  8
0
  6
CONTINUOUS
 62
     0
 10
113.0869670904421
 20
-127.6802256684812
 30
0.0
 11
113.0869670904421
 21
-127.6802256684812
 31
0.0
  0
LINE
  5
3E67
  8
0
  6
CONTINUOUS
 62
     0
 10
114.1321700932135
 20
-120.96617970648489
 30
0.0
 11
114.1321700932135
 21
-120.96617970648489
 31
0.0
  0
LINE
  5
3E68
  8
0
  6
CONTINUOUS
 62
     0
 10
112.0671887359441
 20
-121.2380396596409
 30
0.0
 11
112.0671887359441
 21
-121.2380396596409
 31
0.0
  0
LINE
  5
3E69
  8
0
  6
CONTINUOUS
 62
     0
 10
115.24032984468219
 20
-114.2438453312828
 30
0.0
 11
115.24032984468219
 21
-114.2438453312828
 31
0.0
  0
LINE
  5
3E6A
  8
0
  6
CONTINUOUS
 62
     0
 10
111.7903000160736
 20
-114.69805037497009
 30
0.0
 11
111.7903000160736
 21
-114.69805037497009
 31
0.0
  0
LINE
  5
3E6B
  8
0
  6
CONTINUOUS
 62
     0
 10
116.28553284745369
 20
-107.52979936928659
 30
0.0
 11
116.28553284745369
 21
-107.52979936928659
 31
0.0
  0
LINE
  5
3E6C
  8
0
  6
CONTINUOUS
 62
     0
 10
114.22055149018431
 20
-107.8016593224425
 30
0.0
 11
114.22055149018431
 21
-107.8016593224425
 31
0.0
  0
LINE
  5
3E6D
  8
0
  6
CONTINUOUS
 62
     0
 10
112.89845976754231
 20
-107.9757159997679
 30
0.0
 11
112.89845976754231
 21
-107.9757159997679
 31
0.0
  0
LINE
  5
3E6E
  8
0
  6
CONTINUOUS
 62
     0
 10
113.94366277031379
 20
-101.26167003777169
 30
0.0
 11
113.94366277031379
 21
-101.26167003777169
 31
0.0
  0
LINE
  5
3E6F
  8
0
  6
CONTINUOUS
 62
     0
 10
111.8786814130444
 20
-101.5335299909277
 30
0.0
 11
111.8786814130444
 21
-101.5335299909277
 31
0.0
  0
LINE
  5
3E70
  8
0
  6
CONTINUOUS
 62
     0
 10
115.0518225217825
 20
-94.539335662569584
 30
0.0
 11
115.0518225217825
 21
-94.539335662569584
 31
0.0
  0
LINE
  5
3E71
  8
0
  6
CONTINUOUS
 62
     0
 10
111.60179269317391
 20
-94.993540706256923
 30
0.0
 11
111.60179269317391
 21
-94.993540706256923
 31
0.0
  0
LINE
  5
3E72
  8
0
  6
CONTINUOUS
 62
     0
 10
114.0320441672845
 20
-88.097149653729275
 30
0.0
 11
114.0320441672845
 21
-88.097149653729275
 31
0.0
  0
LINE
  5
3E73
  8
0
  6
CONTINUOUS
 62
     0
 10
112.7099524446425
 20
-88.271206331054714
 30
0.0
 11
112.7099524446425
 21
-88.271206331054714
 31
0.0
  0
LINE
  5
3E74
  8
0
  6
CONTINUOUS
 62
     0
 10
113.7551554474139
 20
-81.557160369058522
 30
0.0
 11
113.7551554474139
 21
-81.557160369058522
 31
0.0
  0
LINE
  5
3E75
  8
0
  6
CONTINUOUS
 62
     0
 10
111.69017409014459
 20
-81.829020322214447
 30
0.0
 11
111.69017409014459
 21
-81.829020322214447
 31
0.0
  0
LINE
  5
3E76
  8
0
  6
CONTINUOUS
 62
     0
 10
116.1854069215246
 20
-74.660769316530903
 30
0.0
 11
116.1854069215246
 21
-74.660769316530903
 31
0.0
  0
LINE
  5
3E77
  8
0
  6
CONTINUOUS
 62
     0
 10
114.8633151988826
 20
-74.834825993856342
 30
0.0
 11
114.8633151988826
 21
-74.834825993856342
 31
0.0
  0
LINE
  5
3E78
  8
0
  6
CONTINUOUS
 62
     0
 10
111.413285370274
 20
-75.28903103754368
 30
0.0
 11
111.413285370274
 21
-75.28903103754368
 31
0.0
  0
LINE
  5
3E79
  8
0
  6
CONTINUOUS
 62
     0
 10
115.9085182016541
 20
-68.120780031860136
 30
0.0
 11
115.9085182016541
 21
-68.120780031860136
 31
0.0
  0
LINE
  5
3E7A
  8
0
  6
CONTINUOUS
 62
     0
 10
113.8435368443847
 20
-68.392639985016061
 30
0.0
 11
113.8435368443847
 21
-68.392639985016061
 31
0.0
  0
LINE
  5
3E7B
  8
0
  6
CONTINUOUS
 62
     0
 10
112.5214451217427
 20
-68.566696662341499
 30
0.0
 11
112.5214451217427
 21
-68.566696662341499
 31
0.0
  0
LINE
  5
3E7C
  8
0
  6
CONTINUOUS
 62
     0
 10
113.5666481245141
 20
-61.852650700345308
 30
0.0
 11
113.5666481245141
 21
-61.852650700345308
 31
0.0
  0
LINE
  5
3E7D
  8
0
  6
CONTINUOUS
 62
     0
 10
111.5016667672448
 20
-62.124510653501233
 30
0.0
 11
111.5016667672448
 21
-62.124510653501233
 31
0.0
  0
LINE
  5
3E7E
  8
0
  6
CONTINUOUS
 62
     0
 10
115.99689959862479
 20
-54.95625964781766
 30
0.0
 11
115.99689959862479
 21
-54.95625964781766
 31
0.0
  0
LINE
  5
3E7F
  8
0
  6
CONTINUOUS
 62
     0
 10
114.67480787598279
 20
-55.130316325143092
 30
0.0
 11
114.67480787598279
 21
-55.130316325143092
 31
0.0
  0
LINE
  5
3E80
  8
0
  6
CONTINUOUS
 62
     0
 10
111.2247780473743
 20
-55.58452136883043
 30
0.0
 11
111.2247780473743
 21
-55.58452136883043
 31
0.0
  0
LINE
  5
3E81
  8
0
  6
CONTINUOUS
 62
     0
 10
115.72001087875429
 20
-48.416270363146893
 30
0.0
 11
115.72001087875429
 21
-48.416270363146893
 31
0.0
  0
LINE
  5
3E82
  8
0
  6
CONTINUOUS
 62
     0
 10
113.65502952148491
 20
-48.688130316302811
 30
0.0
 11
113.65502952148491
 21
-48.688130316302811
 31
0.0
  0
LINE
  5
3E83
  8
0
  6
CONTINUOUS
 62
     0
 10
112.33293779884291
 20
-48.862186993628249
 30
0.0
 11
112.33293779884291
 21
-48.862186993628249
 31
0.0
  0
LINE
  5
3E84
  8
0
  6
CONTINUOUS
 62
     0
 10
113.37814080161441
 20
-42.148141031632051
 30
0.0
 11
113.37814080161441
 21
-42.148141031632051
 31
0.0
  0
LINE
  5
3E85
  8
0
  6
CONTINUOUS
 62
     0
 10
111.313159444345
 20
-42.420000984787968
 30
0.0
 11
111.313159444345
 21
-42.420000984787968
 31
0.0
  0
LINE
  5
3E86
  8
0
  6
CONTINUOUS
 62
     0
 10
115.808392275725
 20
-35.251749979104453
 30
0.0
 11
115.808392275725
 21
-35.251749979104453
 31
0.0
  0
LINE
  5
3E87
  8
0
  6
CONTINUOUS
 62
     0
 10
114.486300553083
 20
-35.425806656429891
 30
0.0
 11
114.486300553083
 21
-35.425806656429891
 31
0.0
  0
LINE
  5
3E88
  8
0
  6
CONTINUOUS
 62
     0
 10
113.4665221985852
 20
-28.983620647589589
 30
0.0
 11
113.4665221985852
 21
-28.983620647589589
 31
0.0
  0
LINE
  5
3E89
  8
0
  6
CONTINUOUS
 62
     0
 10
112.1444304759432
 20
-29.157677324915031
 30
0.0
 11
112.1444304759432
 21
-29.157677324915031
 31
0.0
  0
LINE
  5
3E8A
  8
0
  6
CONTINUOUS
 62
     0
 10
113.1896334787146
 20
-22.443631362918811
 30
0.0
 11
113.1896334787146
 21
-22.443631362918811
 31
0.0
  0
LINE
  5
3E8B
  8
0
  6
CONTINUOUS
 62
     0
 10
114.2977932301833
 20
-15.721296987716631
 30
0.0
 11
114.2977932301833
 21
-15.721296987716631
 31
0.0
  0
LINE
  5
3E8C
  8
0
  6
CONTINUOUS
 62
     0
 10
115.3429962329547
 20
-9.0072510257204321
 30
0.0
 11
115.3429962329547
 21
-9.0072510257204321
 31
0.0
  0
LINE
  5
3E8D
  8
0
  6
CONTINUOUS
 62
     0
 10
113.2780148756853
 20
-9.2791109788763571
 30
0.0
 11
113.2780148756853
 21
-9.2791109788763571
 31
0.0
  0
LINE
  5
3E8E
  8
0
  6
CONTINUOUS
 62
     0
 10
111.9559231530434
 20
-9.4531676562017957
 30
0.0
 11
111.9559231530434
 21
-9.4531676562017957
 31
0.0
  0
LINE
  5
3E8F
  8
0
  6
CONTINUOUS
 62
     0
 10
113.0011261558148
 20
-2.7391216942055858
 30
0.0
 11
113.0011261558148
 21
-2.7391216942055858
 31
0.0
  0
LINE
  5
3E90
  8
0
  6
CONTINUOUS
 62
     0
 10
115.43137762992551
 20
4.1572693583220222
 30
0.0
 11
115.43137762992551
 21
4.1572693583220222
 31
0.0
  0
LINE
  5
3E91
  8
0
  6
CONTINUOUS
 62
     0
 10
114.10928590728351
 20
3.9832126809965831
 30
0.0
 11
114.10928590728351
 21
3.9832126809965831
 31
0.0
  0
LINE
  5
3E92
  8
0
  6
CONTINUOUS
 62
     0
 10
115.15448891005489
 20
10.697258642992781
 30
0.0
 11
115.15448891005489
 21
10.697258642992781
 31
0.0
  0
LINE
  5
3E93
  8
0
  6
CONTINUOUS
 62
     0
 10
113.08950755278551
 20
10.425398689836859
 30
0.0
 11
113.08950755278551
 21
10.425398689836859
 31
0.0
  0
LINE
  5
3E94
  8
0
  6
CONTINUOUS
 62
     0
 10
111.76741583014361
 20
10.251342012511421
 30
0.0
 11
111.76741583014361
 21
10.251342012511421
 31
0.0
  0
LINE
  5
3E95
  8
0
  6
CONTINUOUS
 62
     0
 10
112.81261883291501
 20
16.965387974507632
 30
0.0
 11
112.81261883291501
 21
16.965387974507632
 31
0.0
  0
LINE
  5
3E96
  8
0
  6
CONTINUOUS
 62
     0
 10
115.2428703070257
 20
23.86177902703524
 30
0.0
 11
115.2428703070257
 21
23.86177902703524
 31
0.0
  0
LINE
  5
3E97
  8
0
  6
CONTINUOUS
 62
     0
 10
113.9207785843837
 20
23.687722349709802
 30
0.0
 11
113.9207785843837
 21
23.687722349709802
 31
0.0
  0
LINE
  5
3E98
  8
0
  6
CONTINUOUS
 62
     0
 10
114.9659815871551
 20
30.401768311706011
 30
0.0
 11
114.9659815871551
 21
30.401768311706011
 31
0.0
  0
LINE
  5
3E99
  8
0
  6
CONTINUOUS
 62
     0
 10
112.9010002298858
 20
30.129908358550079
 30
0.0
 11
112.9010002298858
 21
30.129908358550079
 31
0.0
  0
LINE
  5
3E9A
  8
0
  6
CONTINUOUS
 62
     0
 10
111.5789085072438
 20
29.95585168122464
 30
0.0
 11
111.5789085072438
 21
29.95585168122464
 31
0.0
  0
LINE
  5
3E9B
  8
0
  6
CONTINUOUS
 62
     0
 10
112.6241115100152
 20
36.669897643220899
 30
0.0
 11
112.6241115100152
 21
36.669897643220899
 31
0.0
  0
LINE
  5
3E9C
  8
0
  6
CONTINUOUS
 62
     0
 10
110.55913015274579
 20
36.398037690064982
 30
0.0
 11
110.55913015274579
 21
36.398037690064982
 31
0.0
  0
LINE
  5
3E9D
  8
0
  6
CONTINUOUS
 62
     0
 10
109.23703843010379
 20
36.223981012739543
 30
0.0
 11
109.23703843010379
 21
36.223981012739543
 31
0.0
  0
LINE
  5
3E9E
  8
0
  6
CONTINUOUS
 62
     0
 10
115.0543629841259
 20
43.566288695748497
 30
0.0
 11
115.0543629841259
 21
43.566288695748497
 31
0.0
  0
LINE
  5
3E9F
  8
0
  6
CONTINUOUS
 62
     0
 10
113.7322712614839
 20
43.392232018423073
 30
0.0
 11
113.7322712614839
 21
43.392232018423073
 31
0.0
  0
LINE
  5
3EA0
  8
0
  6
CONTINUOUS
 62
     0
 10
114.7774742642553
 20
50.106277980419272
 30
0.0
 11
114.7774742642553
 21
50.106277980419272
 31
0.0
  0
LINE
  5
3EA1
  8
0
  6
CONTINUOUS
 62
     0
 10
112.7124929069859
 20
49.834418027263339
 30
0.0
 11
112.7124929069859
 21
49.834418027263339
 31
0.0
  0
LINE
  5
3EA2
  8
0
  6
CONTINUOUS
 62
     0
 10
111.3904011843439
 20
49.660361349937901
 30
0.0
 11
111.3904011843439
 21
49.660361349937901
 31
0.0
  0
LINE
  5
3EA3
  8
0
  6
CONTINUOUS
 62
     0
 10
112.4356041871154
 20
56.374407311934128
 30
0.0
 11
112.4356041871154
 21
56.374407311934128
 31
0.0
  0
LINE
  5
3EA4
  8
0
  6
CONTINUOUS
 62
     0
 10
114.86585566122611
 20
63.270798364461733
 30
0.0
 11
114.86585566122611
 21
63.270798364461733
 31
0.0
  0
LINE
  5
3EA5
  8
0
  6
CONTINUOUS
 62
     0
 10
113.54376393858421
 20
63.096741687136301
 30
0.0
 11
113.54376393858421
 21
63.096741687136301
 31
0.0
  0
LINE
  5
3EA6
  8
0
  6
CONTINUOUS
 62
     0
 10
114.58896694135559
 20
69.810787649132507
 30
0.0
 11
114.58896694135559
 21
69.810787649132507
 31
0.0
  0
LINE
  5
3EA7
  8
0
  6
CONTINUOUS
 62
     0
 10
112.5239855840862
 20
69.538927695976582
 30
0.0
 11
112.5239855840862
 21
69.538927695976582
 31
0.0
  0
LINE
  5
3EA8
  8
0
  6
CONTINUOUS
 62
     0
 10
111.2018938614443
 20
69.364871018651144
 30
0.0
 11
111.2018938614443
 21
69.364871018651144
 31
0.0
  0
LINE
  5
3EA9
  8
0
  6
CONTINUOUS
 62
     0
 10
112.24709686421571
 20
76.07891698064735
 30
0.0
 11
112.24709686421571
 21
76.07891698064735
 31
0.0
  0
LINE
  5
3EAA
  8
0
  6
CONTINUOUS
 62
     0
 10
114.6773483383263
 20
82.975308033174954
 30
0.0
 11
114.6773483383263
 21
82.975308033174954
 31
0.0
  0
LINE
  5
3EAB
  8
0
  6
CONTINUOUS
 62
     0
 10
113.3552566156844
 20
82.801251355849516
 30
0.0
 11
113.3552566156844
 21
82.801251355849516
 31
0.0
  0
LINE
  5
3EAC
  8
0
  6
CONTINUOUS
 62
     0
 10
114.4004596184558
 20
89.515297317845736
 30
0.0
 11
114.4004596184558
 21
89.515297317845736
 31
0.0
  0
LINE
  5
3EAD
  8
0
  6
CONTINUOUS
 62
     0
 10
112.3354782611864
 20
89.243437364689797
 30
0.0
 11
112.3354782611864
 21
89.243437364689797
 31
0.0
  0
LINE
  5
3EAE
  8
0
  6
CONTINUOUS
 62
     0
 10
112.0585895413159
 20
95.783426649360564
 30
0.0
 11
112.0585895413159
 21
95.783426649360564
 31
0.0
  0
LINE
  5
3EAF
  8
0
  6
CONTINUOUS
 62
     0
 10
114.4888410154265
 20
102.6798177018882
 30
0.0
 11
114.4888410154265
 21
102.6798177018882
 31
0.0
  0
LINE
  5
3EB0
  8
0
  6
CONTINUOUS
 62
     0
 10
113.1667492927845
 20
102.5057610245628
 30
0.0
 11
113.1667492927845
 21
102.5057610245628
 31
0.0
  0
LINE
  5
3EB1
  8
0
  6
CONTINUOUS
 62
     0
 10
114.211952295556
 20
109.21980698655901
 30
0.0
 11
114.211952295556
 21
109.21980698655901
 31
0.0
  0
LINE
  5
3EB2
  8
0
  6
CONTINUOUS
 62
     0
 10
112.1469709382866
 20
108.947947033403
 30
0.0
 11
112.1469709382866
 21
108.947947033403
 31
0.0
  0
LINE
  5
3EB3
  8
0
  6
CONTINUOUS
 62
     0
 10
111.870082218416
 20
115.48793631807381
 30
0.0
 11
111.870082218416
 21
115.48793631807381
 31
0.0
  0
LINE
  5
3EB4
  8
0
  6
CONTINUOUS
 62
     0
 10
109.8051008611466
 20
115.2160763649179
 30
0.0
 11
109.8051008611466
 21
115.2160763649179
 31
0.0
  0
LINE
  5
3EB5
  8
0
  6
CONTINUOUS
 62
     0
 10
108.4830091385047
 20
115.0420196875925
 30
0.0
 11
108.4830091385047
 21
115.0420196875925
 31
0.0
  0
LINE
  5
3EB6
  8
0
  6
CONTINUOUS
 62
     0
 10
105.03297930989611
 20
114.58781464390511
 30
0.0
 11
105.03297930989611
 21
114.58781464390511
 31
0.0
  0
LINE
  5
3EB7
  8
0
  6
CONTINUOUS
 62
     0
 10
102.9679979526267
 20
114.31595469074919
 30
0.0
 11
102.9679979526267
 21
114.31595469074919
 31
0.0
  0
LINE
  5
3EB8
  8
0
  6
CONTINUOUS
 62
     0
 10
101.6459062299847
 20
114.1418980134238
 30
0.0
 11
101.6459062299847
 21
114.1418980134238
 31
0.0
  0
LINE
  5
3EB9
  8
0
  6
CONTINUOUS
 62
     0
 10
98.195876401376168
 20
113.6876929697364
 30
0.0
 11
98.195876401376168
 21
113.6876929697364
 31
0.0
  0
LINE
  5
3EBA
  8
0
  6
CONTINUOUS
 62
     0
 10
96.130895044106794
 20
113.41583301658051
 30
0.0
 11
96.130895044106794
 21
113.41583301658051
 31
0.0
  0
LINE
  5
3EBB
  8
0
  6
CONTINUOUS
 62
     0
 10
94.808803321464808
 20
113.2417763392551
 30
0.0
 11
94.808803321464808
 21
113.2417763392551
 31
0.0
  0
LINE
  5
3EBC
  8
0
  6
CONTINUOUS
 62
     0
 10
91.35877349285623
 20
112.7875712955677
 30
0.0
 11
91.35877349285623
 21
112.7875712955677
 31
0.0
  0
LINE
  5
3EBD
  8
0
  6
CONTINUOUS
 62
     0
 10
89.293792135586855
 20
112.51571134241181
 30
0.0
 11
89.293792135586855
 21
112.51571134241181
 31
0.0
  0
LINE
  5
3EBE
  8
0
  6
CONTINUOUS
 62
     0
 10
87.971700412944884
 20
112.34165466508639
 30
0.0
 11
87.971700412944884
 21
112.34165466508639
 31
0.0
  0
LINE
  5
3EBF
  8
0
  6
CONTINUOUS
 62
     0
 10
84.521670584336277
 20
111.887449621399
 30
0.0
 11
84.521670584336277
 21
111.887449621399
 31
0.0
  0
LINE
  5
3EC0
  8
0
  6
CONTINUOUS
 62
     0
 10
82.456689227066903
 20
111.6155896682431
 30
0.0
 11
82.456689227066903
 21
111.6155896682431
 31
0.0
  0
LINE
  5
3EC1
  8
0
  6
CONTINUOUS
 62
     0
 10
81.134597504424946
 20
111.44153299091769
 30
0.0
 11
81.134597504424946
 21
111.44153299091769
 31
0.0
  0
LINE
  5
3EC2
  8
0
  6
CONTINUOUS
 62
     0
 10
65.11852161024521
 20
115.9094189740951
 30
0.0
 11
65.11852161024521
 21
115.9094189740951
 31
0.0
  0
LINE
  5
3EC3
  8
0
  6
CONTINUOUS
 62
     0
 10
58.281418701725293
 20
115.0092972999264
 30
0.0
 11
58.281418701725293
 21
115.0092972999264
 31
0.0
  0
LINE
  5
3EC4
  8
0
  6
CONTINUOUS
 62
     0
 10
54.831388873116701
 20
114.55509225623911
 30
0.0
 11
54.831388873116701
 21
114.55509225623911
 31
0.0
  0
LINE
  5
3EC5
  8
0
  6
CONTINUOUS
 62
     0
 10
52.76640751584732
 20
114.2832323030831
 30
0.0
 11
52.76640751584732
 21
114.2832323030831
 31
0.0
  0
LINE
  5
3EC6
  8
0
  6
CONTINUOUS
 62
     0
 10
51.444315793205348
 20
114.1091756257577
 30
0.0
 11
51.444315793205348
 21
114.1091756257577
 31
0.0
  0
LINE
  5
3EC7
  8
0
  6
CONTINUOUS
 62
     0
 10
47.994285964596763
 20
113.6549705820704
 30
0.0
 11
47.994285964596763
 21
113.6549705820704
 31
0.0
  0
LINE
  5
3EC8
  8
0
  6
CONTINUOUS
 62
     0
 10
45.929304607327389
 20
113.38311062891439
 30
0.0
 11
45.929304607327389
 21
113.38311062891439
 31
0.0
  0
LINE
  5
3EC9
  8
0
  6
CONTINUOUS
 62
     0
 10
44.607212884685403
 20
113.209053951589
 30
0.0
 11
44.607212884685403
 21
113.209053951589
 31
0.0
  0
LINE
  5
3ECA
  8
0
  6
CONTINUOUS
 62
     0
 10
41.157183056076818
 20
112.7548489079017
 30
0.0
 11
41.157183056076818
 21
112.7548489079017
 31
0.0
  0
LINE
  5
3ECB
  8
0
  6
CONTINUOUS
 62
     0
 10
39.09220169880745
 20
112.48298895474569
 30
0.0
 11
39.09220169880745
 21
112.48298895474569
 31
0.0
  0
LINE
  5
3ECC
  8
0
  6
CONTINUOUS
 62
     0
 10
37.770109976165472
 20
112.3089322774203
 30
0.0
 11
37.770109976165472
 21
112.3089322774203
 31
0.0
  0
LINE
  5
3ECD
  8
0
  6
CONTINUOUS
 62
     0
 10
34.320080147556887
 20
111.854727233733
 30
0.0
 11
34.320080147556887
 21
111.854727233733
 31
0.0
  0
LINE
  5
3ECE
  8
0
  6
CONTINUOUS
 62
     0
 10
32.255098790287512
 20
111.58286728057701
 30
0.0
 11
32.255098790287512
 21
111.58286728057701
 31
0.0
  0
LINE
  5
3ECF
  8
0
  6
CONTINUOUS
 62
     0
 10
30.933007067645541
 20
111.4088106032516
 30
0.0
 11
30.933007067645541
 21
111.4088106032516
 31
0.0
  0
LINE
  5
3ED0
  8
0
  6
CONTINUOUS
 62
     0
 10
4.6297984363372811
 20
114.52236986857299
 30
0.0
 11
4.6297984363372811
 21
114.52236986857299
 31
0.0
  0
LINE
  5
3ED1
  8
0
  6
CONTINUOUS
 62
     0
 10
2.5648170790679088
 20
114.2505099154171
 30
0.0
 11
2.5648170790679088
 21
114.2505099154171
 31
0.0
  0
LINE
  5
3ED2
  8
0
  6
CONTINUOUS
 62
     0
 10
1.242725356425932
 20
114.0764532380917
 30
0.0
 11
1.242725356425932
 21
114.0764532380917
 31
0.0
  0
LINE
  5
3ED3
  8
0
  6
CONTINUOUS
 62
     0
 10
-2.2073044721826531
 20
113.62224819440431
 30
0.0
 11
-2.2073044721826531
 21
113.62224819440431
 31
0.0
  0
LINE
  5
3ED4
  8
0
  6
CONTINUOUS
 62
     0
 10
-4.2722858294520254
 20
113.3503882412484
 30
0.0
 11
-4.2722858294520254
 21
113.3503882412484
 31
0.0
  0
LINE
  5
3ED5
  8
0
  6
CONTINUOUS
 62
     0
 10
-5.5943775520940013
 20
113.176331563923
 30
0.0
 11
-5.5943775520940013
 21
113.176331563923
 31
0.0
  0
LINE
  5
3ED6
  8
0
  6
CONTINUOUS
 62
     0
 10
-9.0444073807025873
 20
112.72212652023561
 30
0.0
 11
-9.0444073807025873
 21
112.72212652023561
 31
0.0
  0
LINE
  5
3ED7
  8
0
  6
CONTINUOUS
 62
     0
 10
-11.10938873797196
 20
112.45026656707969
 30
0.0
 11
-11.10938873797196
 21
112.45026656707969
 31
0.0
  0
LINE
  5
3ED8
  8
0
  6
CONTINUOUS
 62
     0
 10
-12.43148046061393
 20
112.2762098897543
 30
0.0
 11
-12.43148046061393
 21
112.2762098897543
 31
0.0
  0
LINE
  5
3ED9
  8
0
  6
CONTINUOUS
 62
     0
 10
-15.88151028922252
 20
111.8220048460669
 30
0.0
 11
-15.88151028922252
 21
111.8220048460669
 31
0.0
  0
LINE
  5
3EDA
  8
0
  6
CONTINUOUS
 62
     0
 10
-17.946491646491889
 20
111.55014489291101
 30
0.0
 11
-17.946491646491889
 21
111.55014489291101
 31
0.0
  0
LINE
  5
3EDB
  8
0
  6
CONTINUOUS
 62
     0
 10
-19.268583369133871
 20
111.3760882155856
 30
0.0
 11
-19.268583369133871
 21
111.3760882155856
 31
0.0
  0
LINE
  5
3EDC
  8
0
  6
CONTINUOUS
 62
     0
 10
-52.408894908962168
 20
113.58952580673829
 30
0.0
 11
-52.408894908962168
 21
113.58952580673829
 31
0.0
  0
LINE
  5
3EDD
  8
0
  6
CONTINUOUS
 62
     0
 10
-54.473876266231542
 20
113.3176658535824
 30
0.0
 11
-54.473876266231542
 21
113.3176658535824
 31
0.0
  0
LINE
  5
3EDE
  8
0
  6
CONTINUOUS
 62
     0
 10
-55.795967988873521
 20
113.1436091762569
 30
0.0
 11
-55.795967988873521
 21
113.1436091762569
 31
0.0
  0
LINE
  5
3EDF
  8
0
  6
CONTINUOUS
 62
     0
 10
-59.245997817482099
 20
112.68940413256961
 30
0.0
 11
-59.245997817482099
 21
112.68940413256961
 31
0.0
  0
LINE
  5
3EE0
  8
0
  6
CONTINUOUS
 62
     0
 10
-61.310979174751481
 20
112.4175441794136
 30
0.0
 11
-61.310979174751481
 21
112.4175441794136
 31
0.0
  0
LINE
  5
3EE1
  8
0
  6
CONTINUOUS
 62
     0
 10
-62.633070897393452
 20
112.2434875020882
 30
0.0
 11
-62.633070897393452
 21
112.2434875020882
 31
0.0
  0
LINE
  5
3EE2
  8
0
  6
CONTINUOUS
 62
     0
 10
-66.083100726002044
 20
111.7892824584009
 30
0.0
 11
-66.083100726002044
 21
111.7892824584009
 31
0.0
  0
LINE
  5
3EE3
  8
0
  6
CONTINUOUS
 62
     0
 10
-68.148082083271419
 20
111.51742250524499
 30
0.0
 11
-68.148082083271419
 21
111.51742250524499
 31
0.0
  0
LINE
  5
3EE4
  8
0
  6
CONTINUOUS
 62
     0
 10
-69.47017380591339
 20
111.3433658279195
 30
0.0
 11
-69.47017380591339
 21
111.3433658279195
 31
0.0
  0
LINE
  5
3EE5
  8
0
  6
CONTINUOUS
 62
     0
 10
-91.001260885971064
 20
115.0851868142537
 30
0.0
 11
-91.001260885971064
 21
115.0851868142537
 31
0.0
  0
LINE
  5
3EE6
  8
0
  6
CONTINUOUS
 62
     0
 10
-92.323352608613035
 20
114.91113013692831
 30
0.0
 11
-92.323352608613035
 21
114.91113013692831
 31
0.0
  0
LINE
  5
3EE7
  8
0
  6
CONTINUOUS
 62
     0
 10
-95.773382437221613
 20
114.4569250932409
 30
0.0
 11
-95.773382437221613
 21
114.4569250932409
 31
0.0
  0
LINE
  5
3EE8
  8
0
  6
CONTINUOUS
 62
     0
 10
-97.838363794490974
 20
114.185065140085
 30
0.0
 11
-97.838363794490974
 21
114.185065140085
 31
0.0
  0
LINE
  5
3EE9
  8
0
  6
CONTINUOUS
 62
     0
 10
-99.160455517132945
 20
114.01100846275961
 30
0.0
 11
-99.160455517132945
 21
114.01100846275961
 31
0.0
  0
LINE
  5
3EEA
  8
0
  6
CONTINUOUS
 62
     0
 10
-102.61048534574149
 20
113.5568034190722
 30
0.0
 11
-102.61048534574149
 21
113.5568034190722
 31
0.0
  0
LINE
  5
3EEB
  8
0
  6
CONTINUOUS
 62
     0
 10
-104.6754667030109
 20
113.2849434659163
 30
0.0
 11
-104.6754667030109
 21
113.2849434659163
 31
0.0
  0
LINE
  5
3EEC
  8
0
  6
CONTINUOUS
 62
     0
 10
-105.9975584256529
 20
113.1108867885909
 30
0.0
 11
-105.9975584256529
 21
113.1108867885909
 31
0.0
  0
LINE
  5
3EED
  8
0
  6
CONTINUOUS
 62
     0
 10
-109.4475882542615
 20
112.65668174490349
 30
0.0
 11
-109.4475882542615
 21
112.65668174490349
 31
0.0
  0
LINE
  5
3EEE
  8
0
  6
CONTINUOUS
 62
     0
 10
-111.51256961153079
 20
112.3848217917476
 30
0.0
 11
-111.51256961153079
 21
112.3848217917476
 31
0.0
  0
LINE
  5
3EEF
  8
0
  6
CONTINUOUS
 62
     0
 10
-112.83466133417279
 20
112.2107651144222
 30
0.0
 11
-112.83466133417279
 21
112.2107651144222
 31
0.0
  0
LINE
  5
3EF0
  8
0
  6
CONTINUOUS
 62
     0
 10
-116.2846911627814
 20
111.75656007073481
 30
0.0
 11
-116.2846911627814
 21
111.75656007073481
 31
0.0
  0
LINE
  5
3EF1
  8
0
  6
CONTINUOUS
 62
     0
 10
-118.3496725200508
 20
111.4847001175789
 30
0.0
 11
-118.3496725200508
 21
111.4847001175789
 31
0.0
  0
LINE
  5
3EF2
  8
0
  6
CONTINUOUS
 62
     0
 10
-119.6717642426927
 20
111.3106434402535
 30
0.0
 11
-119.6717642426927
 21
111.3106434402535
 31
0.0
  0
LINE
  5
3EF3
  8
0
  6
CONTINUOUS
 62
     0
 10
-123.1217940713013
 20
110.85643839656611
 30
0.0
 11
-123.1217940713013
 21
110.85643839656611
 31
0.0
  0
LINE
  5
3EF4
  8
0
  6
CONTINUOUS
 62
     0
 10
-125.1867754285707
 20
110.58457844341019
 30
0.0
 11
-125.1867754285707
 21
110.58457844341019
 31
0.0
  0
LINE
  5
3EF5
  8
0
  6
CONTINUOUS
 62
     0
 10
-126.5088671512127
 20
110.4105217660848
 30
0.0
 11
-126.5088671512127
 21
110.4105217660848
 31
0.0
  0
LINE
  5
3EF6
  8
0
  6
CONTINUOUS
 62
     0
 10
114.7362984583645
 20
-177.66135649592781
 30
0.0
 11
114.7362984583645
 21
-177.66135649592781
 31
0.0
  0
LINE
  5
3EF7
  8
0
  6
CONTINUOUS
 62
     0
 10
114.57629532876599
 20
-172.76722412263439
 30
0.0
 11
114.57629532876599
 21
-172.76722412263439
 31
0.0
  0
LINE
  5
3EF8
  8
0
  6
CONTINUOUS
 62
     0
 10
111.301729416714
 20
-175.27988692086791
 30
0.0
 11
111.301729416714
 21
-175.27988692086791
 31
0.0
  0
LINE
  5
3EF9
  8
0
  6
CONTINUOUS
 62
     0
 10
114.4162921991676
 20
-167.873091749341
 30
0.0
 11
114.4162921991676
 21
-167.873091749341
 31
0.0
  0
LINE
  5
3EFA
  8
0
  6
CONTINUOUS
 62
     0
 10
114.25628906956931
 20
-162.97895937604761
 30
0.0
 11
114.25628906956931
 21
-162.97895937604761
 31
0.0
  0
LINE
  5
3EFB
  8
0
  6
CONTINUOUS
 62
     0
 10
117.1592645161672
 20
-155.73452087763729
 30
0.0
 11
117.1592645161672
 21
-155.73452087763729
 31
0.0
  0
LINE
  5
3EFC
  8
0
  6
CONTINUOUS
 62
     0
 10
114.0962859399708
 20
-158.08482700275411
 30
0.0
 11
114.0962859399708
 21
-158.08482700275411
 31
0.0
  0
LINE
  5
3EFD
  8
0
  6
CONTINUOUS
 62
     0
 10
113.9362828103724
 20
-153.19069462946069
 30
0.0
 11
113.9362828103724
 21
-153.19069462946069
 31
0.0
  0
LINE
  5
3EFE
  8
0
  6
CONTINUOUS
 62
     0
 10
113.7762796807741
 20
-148.29656225616731
 30
0.0
 11
113.7762796807741
 21
-148.29656225616731
 31
0.0
  0
LINE
  5
3EFF
  8
0
  6
CONTINUOUS
 62
     0
 10
116.679255127372
 20
-141.05212375775699
 30
0.0
 11
116.679255127372
 21
-141.05212375775699
 31
0.0
  0
LINE
  5
3F00
  8
0
  6
CONTINUOUS
 62
     0
 10
113.6162765511756
 20
-143.40242988287389
 30
0.0
 11
113.6162765511756
 21
-143.40242988287389
 31
0.0
  0
LINE
  5
3F01
  8
0
  6
CONTINUOUS
 62
     0
 10
116.51925199777359
 20
-136.1579913844636
 30
0.0
 11
116.51925199777359
 21
-136.1579913844636
 31
0.0
  0
LINE
  5
3F02
  8
0
  6
CONTINUOUS
 62
     0
 10
113.45627342157719
 20
-138.50829750958039
 30
0.0
 11
113.45627342157719
 21
-138.50829750958039
 31
0.0
  0
LINE
  5
3F03
  8
0
  6
CONTINUOUS
 62
     0
 10
116.3592488681752
 20
-131.2638590111701
 30
0.0
 11
116.3592488681752
 21
-131.2638590111701
 31
0.0
  0
LINE
  5
3F04
  8
0
  6
CONTINUOUS
 62
     0
 10
113.2962702919788
 20
-133.614165136287
 30
0.0
 11
113.2962702919788
 21
-133.614165136287
 31
0.0
  0
LINE
  5
3F05
  8
0
  6
CONTINUOUS
 62
     0
 10
116.19924573857681
 20
-126.3697266378767
 30
0.0
 11
116.19924573857681
 21
-126.3697266378767
 31
0.0
  0
LINE
  5
3F06
  8
0
  6
CONTINUOUS
 62
     0
 10
113.13626716238041
 20
-128.72003276299361
 30
0.0
 11
113.13626716238041
 21
-128.72003276299361
 31
0.0
  0
LINE
  5
3F07
  8
0
  6
CONTINUOUS
 62
     0
 10
116.0392426089784
 20
-121.47559426458329
 30
0.0
 11
116.0392426089784
 21
-121.47559426458329
 31
0.0
  0
LINE
  5
3F08
  8
0
  6
CONTINUOUS
 62
     0
 10
112.976264032782
 20
-123.82590038970019
 30
0.0
 11
112.976264032782
 21
-123.82590038970019
 31
0.0
  0
LINE
  5
3F09
  8
0
  6
CONTINUOUS
 62
     0
 10
115.8792394793801
 20
-116.5814618912899
 30
0.0
 11
115.8792394793801
 21
-116.5814618912899
 31
0.0
  0
LINE
  5
3F0A
  8
0
  6
CONTINUOUS
 62
     0
 10
112.8162609031837
 20
-118.93176801640681
 30
0.0
 11
112.8162609031837
 21
-118.93176801640681
 31
0.0
  0
LINE
  5
3F0B
  8
0
  6
CONTINUOUS
 62
     0
 10
115.7192363497816
 20
-111.6873295179965
 30
0.0
 11
115.7192363497816
 21
-111.6873295179965
 31
0.0
  0
LINE
  5
3F0C
  8
0
  6
CONTINUOUS
 62
     0
 10
112.6562577735852
 20
-114.0376356431133
 30
0.0
 11
112.6562577735852
 21
-114.0376356431133
 31
0.0
  0
LINE
  5
3F0D
  8
0
  6
CONTINUOUS
 62
     0
 10
115.5592332201832
 20
-106.793197144703
 30
0.0
 11
115.5592332201832
 21
-106.793197144703
 31
0.0
  0
LINE
  5
3F0E
  8
0
  6
CONTINUOUS
 62
     0
 10
112.4962546439868
 20
-109.1435032698199
 30
0.0
 11
112.4962546439868
 21
-109.1435032698199
 31
0.0
  0
LINE
  5
3F0F
  8
0
  6
CONTINUOUS
 62
     0
 10
115.39923009058479
 20
-101.8990647714096
 30
0.0
 11
115.39923009058479
 21
-101.8990647714096
 31
0.0
  0
LINE
  5
3F10
  8
0
  6
CONTINUOUS
 62
     0
 10
112.33625151438839
 20
-104.2493708965265
 30
0.0
 11
112.33625151438839
 21
-104.2493708965265
 31
0.0
  0
LINE
  5
3F11
  8
0
  6
CONTINUOUS
 62
     0
 10
115.2392269609864
 20
-97.00493239811621
 30
0.0
 11
115.2392269609864
 21
-97.00493239811621
 31
0.0
  0
LINE
  5
3F12
  8
0
  6
CONTINUOUS
 62
     0
 10
112.17624838479
 20
-99.355238523233055
 30
0.0
 11
112.17624838479
 21
-99.355238523233055
 31
0.0
  0
LINE
  5
3F13
  8
0
  6
CONTINUOUS
 62
     0
 10
115.07922383138801
 20
-92.110800024822794
 30
0.0
 11
115.07922383138801
 21
-92.110800024822794
 31
0.0
  0
LINE
  5
3F14
  8
0
  6
CONTINUOUS
 62
     0
 10
112.01624525519161
 20
-94.461106149939667
 30
0.0
 11
112.01624525519161
 21
-94.461106149939667
 31
0.0
  0
LINE
  5
3F15
  8
0
  6
CONTINUOUS
 62
     0
 10
114.9192207017896
 20
-87.216667651529363
 30
0.0
 11
114.9192207017896
 21
-87.216667651529363
 31
0.0
  0
LINE
  5
3F16
  8
0
  6
CONTINUOUS
 62
     0
 10
111.8562421255932
 20
-89.56697377664625
 30
0.0
 11
111.8562421255932
 21
-89.56697377664625
 31
0.0
  0
LINE
  5
3F17
  8
0
  6
CONTINUOUS
 62
     0
 10
114.7592175721912
 20
-82.322535278235947
 30
0.0
 11
114.7592175721912
 21
-82.322535278235947
 31
0.0
  0
LINE
  5
3F18
  8
0
  6
CONTINUOUS
 62
     0
 10
111.6962389959948
 20
-84.67284140335282
 30
0.0
 11
111.6962389959948
 21
-84.67284140335282
 31
0.0
  0
LINE
  5
3F19
  8
0
  6
CONTINUOUS
 62
     0
 10
114.5992144425928
 20
-77.428402904942487
 30
0.0
 11
114.5992144425928
 21
-77.428402904942487
 31
0.0
  0
LINE
  5
3F1A
  8
0
  6
CONTINUOUS
 62
     0
 10
111.5362358663964
 20
-79.77870903005936
 30
0.0
 11
111.5362358663964
 21
-79.77870903005936
 31
0.0
  0
LINE
  5
3F1B
  8
0
  6
CONTINUOUS
 62
     0
 10
114.4392113129944
 20
-72.534270531649099
 30
0.0
 11
114.4392113129944
 21
-72.534270531649099
 31
0.0
  0
LINE
  5
3F1C
  8
0
  6
CONTINUOUS
 62
     0
 10
111.376232736798
 20
-74.884576656765972
 30
0.0
 11
111.376232736798
 21
-74.884576656765972
 31
0.0
  0
LINE
  5
3F1D
  8
0
  6
CONTINUOUS
 62
     0
 10
114.27920818339599
 20
-67.640138158355654
 30
0.0
 11
114.27920818339599
 21
-67.640138158355654
 31
0.0
  0
LINE
  5
3F1E
  8
0
  6
CONTINUOUS
 62
     0
 10
111.21622960719959
 20
-69.990444283472527
 30
0.0
 11
111.21622960719959
 21
-69.990444283472527
 31
0.0
  0
LINE
  5
3F1F
  8
0
  6
CONTINUOUS
 62
     0
 10
114.1192050537976
 20
-62.746005785062259
 30
0.0
 11
114.1192050537976
 21
-62.746005785062259
 31
0.0
  0
LINE
  5
3F20
  8
0
  6
CONTINUOUS
 62
     0
 10
113.95920192419911
 20
-57.851873411768828
 30
0.0
 11
113.95920192419911
 21
-57.851873411768828
 31
0.0
  0
LINE
  5
3F21
  8
0
  6
CONTINUOUS
 62
     0
 10
113.7991987946007
 20
-52.957741038475397
 30
0.0
 11
113.7991987946007
 21
-52.957741038475397
 31
0.0
  0
LINE
  5
3F22
  8
0
  6
CONTINUOUS
 62
     0
 10
113.6391956650023
 20
-48.063608665181988
 30
0.0
 11
113.6391956650023
 21
-48.063608665181988
 31
0.0
  0
LINE
  5
3F23
  8
0
  6
CONTINUOUS
 62
     0
 10
113.4791925354039
 20
-43.169476291888557
 30
0.0
 11
113.4791925354039
 21
-43.169476291888557
 31
0.0
  0
LINE
  5
3F24
  8
0
  6
CONTINUOUS
 62
     0
 10
116.74488912918309
 20
-35.6467120681355
 30
0.0
 11
116.74488912918309
 21
-35.6467120681355
 31
0.0
  0
LINE
  5
3F25
  8
0
  6
CONTINUOUS
 62
     0
 10
113.3191894058056
 20
-38.275343918595148
 30
0.0
 11
113.3191894058056
 21
-38.275343918595148
 31
0.0
  0
LINE
  5
3F26
  8
0
  6
CONTINUOUS
 62
     0
 10
113.15918627620719
 20
-33.381211545301703
 30
0.0
 11
113.15918627620719
 21
-33.381211545301703
 31
0.0
  0
LINE
  5
3F27
  8
0
  6
CONTINUOUS
 62
     0
 10
112.9991831466087
 20
-28.487079172008279
 30
0.0
 11
112.9991831466087
 21
-28.487079172008279
 31
0.0
  0
LINE
  5
3F28
  8
0
  6
CONTINUOUS
 62
     0
 10
112.83918001701031
 20
-23.59294679871488
 30
0.0
 11
112.83918001701031
 21
-23.59294679871488
 31
0.0
  0
LINE
  5
3F29
  8
0
  6
CONTINUOUS
 62
     0
 10
112.6791768874119
 20
-18.698814425421428
 30
0.0
 11
112.6791768874119
 21
-18.698814425421428
 31
0.0
  0
LINE
  5
3F2A
  8
0
  6
CONTINUOUS
 62
     0
 10
112.5191737578135
 20
-13.804682052128021
 30
0.0
 11
112.5191737578135
 21
-13.804682052128021
 31
0.0
  0
LINE
  5
3F2B
  8
0
  6
CONTINUOUS
 62
     0
 10
115.7848703515927
 20
-6.2819178283749251
 30
0.0
 11
115.7848703515927
 21
-6.2819178283749251
 31
0.0
  0
LINE
  5
3F2C
  8
0
  6
CONTINUOUS
 62
     0
 10
112.3591706282151
 20
-8.910549678834581
 30
0.0
 11
112.3591706282151
 21
-8.910549678834581
 31
0.0
  0
LINE
  5
3F2D
  8
0
  6
CONTINUOUS
 62
     0
 10
115.62486722199419
 20
-1.3877854550815161
 30
0.0
 11
115.62486722199419
 21
-1.3877854550815161
 31
0.0
  0
LINE
  5
3F2E
  8
0
  6
CONTINUOUS
 62
     0
 10
112.1991674986167
 20
-4.0164173055411716
 30
0.0
 11
112.1991674986167
 21
-4.0164173055411716
 31
0.0
  0
LINE
  5
3F2F
  8
0
  6
CONTINUOUS
 62
     0
 10
112.03916436901829
 20
0.8777150677522636
 30
0.0
 11
112.03916436901829
 21
0.8777150677522636
 31
0.0
  0
LINE
  5
3F30
  8
0
  6
CONTINUOUS
 62
     0
 10
115.30486096279751
 20
8.4004792915053237
 30
0.0
 11
115.30486096279751
 21
8.4004792915053237
 31
0.0
  0
LINE
  5
3F31
  8
0
  6
CONTINUOUS
 62
     0
 10
111.8791612394199
 20
5.7718474410456659
 30
0.0
 11
111.8791612394199
 21
5.7718474410456659
 31
0.0
  0
LINE
  5
3F32
  8
0
  6
CONTINUOUS
 62
     0
 10
115.144857833199
 20
13.29461166479873
 30
0.0
 11
115.144857833199
 21
13.29461166479873
 31
0.0
  0
LINE
  5
3F33
  8
0
  6
CONTINUOUS
 62
     0
 10
111.71915810982151
 20
10.665979814339069
 30
0.0
 11
111.71915810982151
 21
10.665979814339069
 31
0.0
  0
LINE
  5
3F34
  8
0
  6
CONTINUOUS
 62
     0
 10
114.9848547036006
 20
18.188744038092182
 30
0.0
 11
114.9848547036006
 21
18.188744038092182
 31
0.0
  0
LINE
  5
3F35
  8
0
  6
CONTINUOUS
 62
     0
 10
111.5591549802231
 20
15.560112187632519
 30
0.0
 11
111.5591549802231
 21
15.560112187632519
 31
0.0
  0
LINE
  5
3F36
  8
0
  6
CONTINUOUS
 62
     0
 10
114.8248515740022
 20
23.08287641138557
 30
0.0
 11
114.8248515740022
 21
23.08287641138557
 31
0.0
  0
LINE
  5
3F37
  8
0
  6
CONTINUOUS
 62
     0
 10
111.3991518506247
 20
20.454244560925918
 30
0.0
 11
111.3991518506247
 21
20.454244560925918
 31
0.0
  0
LINE
  5
3F38
  8
0
  6
CONTINUOUS
 62
     0
 10
114.6648484444038
 20
27.977008784679018
 30
0.0
 11
114.6648484444038
 21
27.977008784679018
 31
0.0
  0
LINE
  5
3F39
  8
0
  6
CONTINUOUS
 62
     0
 10
111.2391487210263
 20
25.34837693421937
 30
0.0
 11
111.2391487210263
 21
25.34837693421937
 31
0.0
  0
LINE
  5
3F3A
  8
0
  6
CONTINUOUS
 62
     0
 10
114.50484531480539
 20
32.871141157972431
 30
0.0
 11
114.50484531480539
 21
32.871141157972431
 31
0.0
  0
LINE
  5
3F3B
  8
0
  6
CONTINUOUS
 62
     0
 10
114.344842185207
 20
37.765273531265862
 30
0.0
 11
114.344842185207
 21
37.765273531265862
 31
0.0
  0
LINE
  5
3F3C
  8
0
  6
CONTINUOUS
 62
     0
 10
110.91914246182949
 20
35.136641680806207
 30
0.0
 11
110.91914246182949
 21
35.136641680806207
 31
0.0
  0
LINE
  5
3F3D
  8
0
  6
CONTINUOUS
 62
     0
 10
114.18483905560861
 20
42.659405904559293
 30
0.0
 11
114.18483905560861
 21
42.659405904559293
 31
0.0
  0
LINE
  5
3F3E
  8
0
  6
CONTINUOUS
 62
     0
 10
110.7591393322311
 20
40.030774054099638
 30
0.0
 11
110.7591393322311
 21
40.030774054099638
 31
0.0
  0
LINE
  5
3F3F
  8
0
  6
CONTINUOUS
 62
     0
 10
114.0248359260102
 20
47.553538277852731
 30
0.0
 11
114.0248359260102
 21
47.553538277852731
 31
0.0
  0
LINE
  5
3F40
  8
0
  6
CONTINUOUS
 62
     0
 10
113.8648327964118
 20
52.447670651146133
 30
0.0
 11
113.8648327964118
 21
52.447670651146133
 31
0.0
  0
LINE
  5
3F41
  8
0
  6
CONTINUOUS
 62
     0
 10
113.7048296668134
 20
57.34180302443955
 30
0.0
 11
113.7048296668134
 21
57.34180302443955
 31
0.0
  0
LINE
  5
3F42
  8
0
  6
CONTINUOUS
 62
     0
 10
113.544826537215
 20
62.235935397732973
 30
0.0
 11
113.544826537215
 21
62.235935397732973
 31
0.0
  0
LINE
  5
3F43
  8
0
  6
CONTINUOUS
 62
     0
 10
113.38482340761659
 20
67.130067771026404
 30
0.0
 11
113.38482340761659
 21
67.130067771026404
 31
0.0
  0
LINE
  5
3F44
  8
0
  6
CONTINUOUS
 62
     0
 10
113.2248202780182
 20
72.024200144319821
 30
0.0
 11
113.2248202780182
 21
72.024200144319821
 31
0.0
  0
LINE
  5
3F45
  8
0
  6
CONTINUOUS
 62
     0
 10
113.06481714841981
 20
76.918332517613251
 30
0.0
 11
113.06481714841981
 21
76.918332517613251
 31
0.0
  0
LINE
  5
3F46
  8
0
  6
CONTINUOUS
 62
     0
 10
112.9048140188213
 20
81.812464890906654
 30
0.0
 11
112.9048140188213
 21
81.812464890906654
 31
0.0
  0
LINE
  5
3F47
  8
0
  6
CONTINUOUS
 62
     0
 10
112.744810889223
 20
86.706597264200127
 30
0.0
 11
112.744810889223
 21
86.706597264200127
 31
0.0
  0
LINE
  5
3F48
  8
0
  6
CONTINUOUS
 62
     0
 10
115.85937367167659
 20
94.11339243572705
 30
0.0
 11
115.85937367167659
 21
94.11339243572705
 31
0.0
  0
LINE
  5
3F49
  8
0
  6
CONTINUOUS
 62
     0
 10
112.5848077596246
 20
91.600729637493544
 30
0.0
 11
112.5848077596246
 21
91.600729637493544
 31
0.0
  0
LINE
  5
3F4A
  8
0
  6
CONTINUOUS
 62
     0
 10
115.6993705420782
 20
99.007524809020452
 30
0.0
 11
115.6993705420782
 21
99.007524809020452
 31
0.0
  0
LINE
  5
3F4B
  8
0
  6
CONTINUOUS
 62
     0
 10
112.4248046300262
 20
96.49486201078696
 30
0.0
 11
112.4248046300262
 21
96.49486201078696
 31
0.0
  0
LINE
  5
3F4C
  8
0
  6
CONTINUOUS
 62
     0
 10
112.26480150042779
 20
101.38899438408031
 30
0.0
 11
112.26480150042779
 21
101.38899438408031
 31
0.0
  0
LINE
  5
3F4D
  8
0
  6
CONTINUOUS
 62
     0
 10
112.1047983708294
 20
106.28312675737369
 30
0.0
 11
112.1047983708294
 21
106.28312675737369
 31
0.0
  0
LINE
  5
3F4E
  8
0
  6
CONTINUOUS
 62
     0
 10
115.219361153283
 20
113.6899219289007
 30
0.0
 11
115.219361153283
 21
113.6899219289007
 31
0.0
  0
LINE
  5
3F4F
  8
0
  6
CONTINUOUS
 62
     0
 10
111.94479524123101
 20
111.1772591306672
 30
0.0
 11
111.94479524123101
 21
111.1772591306672
 31
0.0
  0
LINE
  5
3F50
  8
0
  6
CONTINUOUS
 62
     0
 10
108.35909238825499
 20
113.4427596535009
 30
0.0
 11
108.35909238825499
 21
113.4427596535009
 31
0.0
  0
LINE
  5
3F51
  8
0
  6
CONTINUOUS
 62
     0
 10
101.8615447704082
 20
113.47392310344399
 30
0.0
 11
101.8615447704082
 21
113.47392310344399
 31
0.0
  0
LINE
  5
3F52
  8
0
  6
CONTINUOUS
 62
     0
 10
98.275841917432203
 20
115.7394236262778
 30
0.0
 11
98.275841917432203
 21
115.7394236262778
 31
0.0
  0
LINE
  5
3F53
  8
0
  6
CONTINUOUS
 62
     0
 10
95.212863341235774
 20
113.3891175011609
 30
0.0
 11
95.212863341235774
 21
113.3891175011609
 31
0.0
  0
LINE
  5
3F54
  8
0
  6
CONTINUOUS
 62
     0
 10
88.352594576207764
 20
113.14195522576119
 30
0.0
 11
88.352594576207764
 21
113.14195522576119
 31
0.0
  0
LINE
  5
3F55
  8
0
  6
CONTINUOUS
 62
     0
 10
85.129612870412984
 20
115.68578147393779
 30
0.0
 11
85.129612870412984
 21
115.68578147393779
 31
0.0
  0
LINE
  5
3F56
  8
0
  6
CONTINUOUS
 62
     0
 10
81.855046958360901
 20
113.1731186757043
 30
0.0
 11
81.855046958360901
 21
113.1731186757043
 31
0.0
  0
LINE
  5
3F57
  8
0
  6
CONTINUOUS
 62
     0
 10
75.206365529188517
 20
113.0883130734212
 30
0.0
 11
75.206365529188517
 21
113.0883130734212
 31
0.0
  0
LINE
  5
3F58
  8
0
  6
CONTINUOUS
 62
     0
 10
68.346096764160521
 20
112.8411507980214
 30
0.0
 11
68.346096764160521
 21
112.8411507980214
 31
0.0
  0
LINE
  5
3F59
  8
0
  6
CONTINUOUS
 62
     0
 10
65.123115058365698
 20
115.384977046198
 30
0.0
 11
65.123115058365698
 21
115.384977046198
 31
0.0
  0
LINE
  5
3F5A
  8
0
  6
CONTINUOUS
 62
     0
 10
61.848549146313623
 20
112.8723142479645
 30
0.0
 11
61.848549146313623
 21
112.8723142479645
 31
0.0
  0
LINE
  5
3F5B
  8
0
  6
CONTINUOUS
 62
     0
 10
55.199867717141203
 20
112.7875086456813
 30
0.0
 11
55.199867717141203
 21
112.7875086456813
 31
0.0
  0
LINE
  5
3F5C
  8
0
  6
CONTINUOUS
 62
     0
 10
51.765298675490719
 20
115.16897822074129
 30
0.0
 11
51.765298675490719
 21
115.16897822074129
 31
0.0
  0
LINE
  5
3F5D
  8
0
  6
CONTINUOUS
 62
     0
 10
48.339598952113157
 20
112.5403463702816
 30
0.0
 11
48.339598952113157
 21
112.5403463702816
 31
0.0
  0
LINE
  5
3F5E
  8
0
  6
CONTINUOUS
 62
     0
 10
45.116617246318391
 20
115.0841726184582
 30
0.0
 11
45.116617246318391
 21
115.0841726184582
 31
0.0
  0
LINE
  5
3F5F
  8
0
  6
CONTINUOUS
 62
     0
 10
41.842051334266309
 20
112.5715098202247
 30
0.0
 11
41.842051334266309
 21
112.5715098202247
 31
0.0
  0
LINE
  5
3F60
  8
0
  6
CONTINUOUS
 62
     0
 10
38.256348481290402
 20
114.83701034305849
 30
0.0
 11
38.256348481290402
 21
114.83701034305849
 31
0.0
  0
LINE
  5
3F61
  8
0
  6
CONTINUOUS
 62
     0
 10
35.193369905094002
 20
112.48670421794159
 30
0.0
 11
35.193369905094002
 21
112.48670421794159
 31
0.0
  0
LINE
  5
3F62
  8
0
  6
CONTINUOUS
 62
     0
 10
31.758800863443479
 20
114.8681737930016
 30
0.0
 11
31.758800863443479
 21
114.8681737930016
 31
0.0
  0
LINE
  5
3F63
  8
0
  6
CONTINUOUS
 62
     0
 10
28.333101140065931
 20
112.2395419425419
 30
0.0
 11
28.333101140065931
 21
112.2395419425419
 31
0.0
  0
LINE
  5
3F64
  8
0
  6
CONTINUOUS
 62
     0
 10
25.110119434271169
 20
114.78336819071851
 30
0.0
 11
25.110119434271169
 21
114.78336819071851
 31
0.0
  0
LINE
  5
3F65
  8
0
  6
CONTINUOUS
 62
     0
 10
21.83555352221909
 20
112.270705392485
 30
0.0
 11
21.83555352221909
 21
112.270705392485
 31
0.0
  0
LINE
  5
3F66
  8
0
  6
CONTINUOUS
 62
     0
 10
18.24985066924312
 20
114.5362059153187
 30
0.0
 11
18.24985066924312
 21
114.5362059153187
 31
0.0
  0
LINE
  5
3F67
  8
0
  6
CONTINUOUS
 62
     0
 10
15.18687209304672
 20
112.1858997902018
 30
0.0
 11
15.18687209304672
 21
112.1858997902018
 31
0.0
  0
LINE
  5
3F68
  8
0
  6
CONTINUOUS
 62
     0
 10
11.7523030513963
 20
114.5673693652618
 30
0.0
 11
11.7523030513963
 21
114.5673693652618
 31
0.0
  0
LINE
  5
3F69
  8
0
  6
CONTINUOUS
 62
     0
 10
8.3266033280187486
 20
111.9387375148021
 30
0.0
 11
8.3266033280187486
 21
111.9387375148021
 31
0.0
  0
LINE
  5
3F6A
  8
0
  6
CONTINUOUS
 62
     0
 10
5.1036216222238782
 20
114.4825637629786
 30
0.0
 11
5.1036216222238782
 21
114.4825637629786
 31
0.0
  0
LINE
  5
3F6B
  8
0
  6
CONTINUOUS
 62
     0
 10
1.829055710171805
 20
111.96990096474509
 30
0.0
 11
1.829055710171805
 21
111.96990096474509
 31
0.0
  0
LINE
  5
3F6C
  8
0
  6
CONTINUOUS
 62
     0
 10
-1.7566471428041299
 20
114.235401487579
 30
0.0
 11
-1.7566471428041299
 21
114.235401487579
 31
0.0
  0
LINE
  5
3F6D
  8
0
  6
CONTINUOUS
 62
     0
 10
-4.8196257190005323
 20
111.8850953624621
 30
0.0
 11
-4.8196257190005323
 21
111.8850953624621
 31
0.0
  0
LINE
  5
3F6E
  8
0
  6
CONTINUOUS
 62
     0
 10
-8.2541947606510657
 20
114.26656493752201
 30
0.0
 11
-8.2541947606510657
 21
114.26656493752201
 31
0.0
  0
LINE
  5
3F6F
  8
0
  6
CONTINUOUS
 62
     0
 10
-11.679894484028621
 20
111.63793308706229
 30
0.0
 11
-11.679894484028621
 21
111.63793308706229
 31
0.0
  0
LINE
  5
3F70
  8
0
  6
CONTINUOUS
 62
     0
 10
-14.90287618982336
 20
114.18175933523889
 30
0.0
 11
-14.90287618982336
 21
114.18175933523889
 31
0.0
  0
LINE
  5
3F71
  8
0
  6
CONTINUOUS
 62
     0
 10
-18.177442101875432
 20
111.6690965370054
 30
0.0
 11
-18.177442101875432
 21
111.6690965370054
 31
0.0
  0
LINE
  5
3F72
  8
0
  6
CONTINUOUS
 62
     0
 10
-21.76314495485148
 20
113.93459705983911
 30
0.0
 11
-21.76314495485148
 21
113.93459705983911
 31
0.0
  0
LINE
  5
3F73
  8
0
  6
CONTINUOUS
 62
     0
 10
-24.82612353104788
 20
111.5842909347223
 30
0.0
 11
-24.82612353104788
 21
111.5842909347223
 31
0.0
  0
LINE
  5
3F74
  8
0
  6
CONTINUOUS
 62
     0
 10
-28.2606925726983
 20
113.9657605097822
 30
0.0
 11
-28.2606925726983
 21
113.9657605097822
 31
0.0
  0
LINE
  5
3F75
  8
0
  6
CONTINUOUS
 62
     0
 10
-31.686392296075852
 20
111.3371286593226
 30
0.0
 11
-31.686392296075852
 21
111.3371286593226
 31
0.0
  0
LINE
  5
3F76
  8
0
  6
CONTINUOUS
 62
     0
 10
-34.909374001870589
 20
113.8809549074992
 30
0.0
 11
-34.909374001870589
 21
113.8809549074992
 31
0.0
  0
LINE
  5
3F77
  8
0
  6
CONTINUOUS
 62
     0
 10
-38.183939913922657
 20
111.3682921092657
 30
0.0
 11
-38.183939913922657
 21
111.3682921092657
 31
0.0
  0
LINE
  5
3F78
  8
0
  6
CONTINUOUS
 62
     0
 10
-41.769642766898677
 20
113.6337926320994
 30
0.0
 11
-41.769642766898677
 21
113.6337926320994
 31
0.0
  0
LINE
  5
3F79
  8
0
  6
CONTINUOUS
 62
     0
 10
-44.832621343095077
 20
111.2834865069826
 30
0.0
 11
-44.832621343095077
 21
111.2834865069826
 31
0.0
  0
LINE
  5
3F7A
  8
0
  6
CONTINUOUS
 62
     0
 10
-48.267190384745547
 20
113.66495608204249
 30
0.0
 11
-48.267190384745547
 21
113.66495608204249
 31
0.0
  0
LINE
  5
3F7B
  8
0
  6
CONTINUOUS
 62
     0
 10
-54.915871813917981
 20
113.5801504797594
 30
0.0
 11
-54.915871813917981
 21
113.5801504797594
 31
0.0
  0
LINE
  5
3F7C
  8
0
  6
CONTINUOUS
 62
     0
 10
-61.77614057894597
 20
113.33298820435969
 30
0.0
 11
-61.77614057894597
 21
113.33298820435969
 31
0.0
  0
LINE
  5
3F7D
  8
0
  6
CONTINUOUS
 62
     0
 10
-68.273688196792847
 20
113.3641516543027
 30
0.0
 11
-68.273688196792847
 21
113.3641516543027
 31
0.0
  0
LINE
  5
3F7E
  8
0
  6
CONTINUOUS
 62
     0
 10
-74.922369625965175
 20
113.2793460520196
 30
0.0
 11
-74.922369625965175
 21
113.2793460520196
 31
0.0
  0
LINE
  5
3F7F
  8
0
  6
CONTINUOUS
 62
     0
 10
-81.782638390993128
 20
113.0321837766199
 30
0.0
 11
-81.782638390993128
 21
113.0321837766199
 31
0.0
  0
LINE
  5
3F80
  8
0
  6
CONTINUOUS
 62
     0
 10
-88.280186008840076
 20
113.0633472265629
 30
0.0
 11
-88.280186008840076
 21
113.0633472265629
 31
0.0
  0
LINE
  5
3F81
  8
0
  6
CONTINUOUS
 62
     0
 10
-91.865888861815989
 20
115.3288477493967
 30
0.0
 11
-91.865888861815989
 21
115.3288477493967
 31
0.0
  0
LINE
  5
3F82
  8
0
  6
CONTINUOUS
 62
     0
 10
-94.928867438012389
 20
112.9785416242799
 30
0.0
 11
-94.928867438012389
 21
112.9785416242799
 31
0.0
  0
LINE
  5
3F83
  8
0
  6
CONTINUOUS
 62
     0
 10
-101.7891362030404
 20
112.7313793488801
 30
0.0
 11
-101.7891362030404
 21
112.7313793488801
 31
0.0
  0
LINE
  5
3F84
  8
0
  6
CONTINUOUS
 62
     0
 10
-108.2866838208873
 20
112.7625427988232
 30
0.0
 11
-108.2866838208873
 21
112.7625427988232
 31
0.0
  0
LINE
  5
3F85
  8
0
  6
CONTINUOUS
 62
     0
 10
-114.9353652500597
 20
112.67773719654009
 30
0.0
 11
-114.9353652500597
 21
112.67773719654009
 31
0.0
  0
LINE
  5
3F86
  8
0
  6
CONTINUOUS
 62
     0
 10
-121.7956340150877
 20
112.43057492114031
 30
0.0
 11
-121.7956340150877
 21
112.43057492114031
 31
0.0
  0
LINE
  5
3F87
  8
0
  6
CONTINUOUS
 62
     0
 10
-124.8586125912841
 20
110.0802687960235
 30
0.0
 11
-124.8586125912841
 21
110.0802687960235
 31
0.0
  0
LINE
  5
3F88
  8
0
  6
CONTINUOUS
 62
     0
 10
-128.2931816329347
 20
112.4617383710834
 30
0.0
 11
-128.2931816329347
 21
112.4617383710834
 31
0.0
  0
LINE
  5
3F89
  8
0
  6
CONTINUOUS
 62
     0
 10
-134.94186306210699
 20
112.3769327688003
 30
0.0
 11
-134.94186306210699
 21
112.3769327688003
 31
0.0
  0
ENDBLK
  5
3F8B
  8
0
  0
BLOCK
  8
0
  2
*U13
 70
     1
 10
0.0
 20
0.0
 30
0.0
  3
*U13
  1

  0
INSERT
  5
3F8D
  8
0
  2
SPECI01
 10
112.6749999999999
 20
102.675
 30
0.0
 41
7.0
 42
7.0
 43
7.0
 50
234.3170625067828
  0
POLYLINE
  5
3F8E
  8
0
 66
     1
 10
0.0
 20
0.0
 30
0.0
  0
VERTEX
  5
3F8F
  8
0
 10
116.7580954465691
 20
108.3608008735979
 30
0.0
  0
VERTEX
  5
3F90
  8
0
 10
128.4934794781511
 20
124.7025831444096
 30
0.0
  0
VERTEX
  5
3F91
  8
0
 10
135.4934794781511
 20
124.7025831444096
 30
0.0
  0
SEQEND
  5
3F92
  8
0
  0
ENDBLK
  5
3F94
  8
0
  0
BLOCK
  8
0
  2
*U14
 70
     1
 10
0.0
 20
0.0
 30
0.0
  3
*U14
  1

  0
TEXT
  5
3F96
  8
0
  6
CONTINUOUS
 10
137.3133976227623
 20
126.167749128948
 30
0.0
 40
4.4000000000000004
  1
20 x 20 PVC
  7
SPECI
  0
TEXT
  5
3F97
  8
0
  6
CONTINUOUS
 10
137.2533703376327
 20
118.8344157956146
 30
0.0
 40
4.4000000000000004
  1
corner bead
  7
SPECI
  0
ENDBLK
  5
3F99
  8
0
  0
BLOCK
  8
0
  2
*U15
 70
     1
 10
0.0
 20
0.0
 30
0.0
  3
*U15
  1

  0
INSERT
  5
3F9B
  8
0
  2
SPECI01
 10
111.1749999999999
 20
45.808627576885719
 30
0.0
 41
7.0
 42
7.0
 43
7.0
 50
240.13622551871319
  0
POLYLINE
  5
3F9C
  8
0
 66
     1
 10
0.0
 20
0.0
 30
0.0
  0
VERTEX
  5
3F9D
  8
0
 10
114.66057678504529
 20
51.879109804481232
 30
0.0
  0
VERTEX
  5
3F9E
  8
0
 10
128.4934794781511
 20
75.970499876516143
 30
0.0
  0
VERTEX
  5
3F9F
  8
0
 10
135.4934794781511
 20
75.970499876516143
 30
0.0
  0
SEQEND
  5
3FA0
  8
0
  0
ENDBLK
  5
3FA2
  8
0
  0
BLOCK
  8
0
  2
*U16
 70
     1
 10
0.0
 20
0.0
 30
0.0
  3
*U16
  1

  0
TEXT
  5
3FA4
  8
0
  6
CONTINUOUS
 10
137.0432748396791
 20
73.806516247593919
 30
0.0
 40
4.4000000000000004
  1
Brick veneer
  7
SPECI
  0
ENDBLK
  5
3FA6
  8
0
  0
BLOCK
  8
0
  2
*U17
 70
     1
 10
0.0
 20
0.0
 30
0.0
  3
*U17
  1

  0
INSERT
  5
3FA8
  8
0
  2
SPECI01
 10
22.670405686333648
 20
-61.923329774307831
 30
0.0
 41
7.0
 42
7.0
 43
7.0
 50
213.70208371629059
  0
POLYLINE
  5
3FA9
  8
0
 66
     1
 10
0.0
 20
0.0
 30
0.0
  0
VERTEX
  5
3FAA
  8
0
 10
28.493943288447401
 20
-58.039206990876899
 30
0.0
  0
VERTEX
  5
3FAB
  8
0
 10
128.4934794781511
 20
8.6574477548524555
 30
0.0
  0
VERTEX
  5
3FAC
  8
0
 10
135.4934794781511
 20
8.6574477548524555
 30
0.0
  0
SEQEND
  5
3FAD
  8
0
  0
ENDBLK
  5
3FAF
  8
0
  0
BLOCK
  8
0
  2
*U18
 70
     1
 10
0.0
 20
0.0
 30
0.0
  3
*U18
  1

  0
TEXT
  5
3FB1
  8
0
  6
CONTINUOUS
 10
137.04327483967899
 20
10.77090841879061
 30
0.0
 40
4.4000000000000004
  1
Brick veneer
  7
SPECI
  0
TEXT
  5
3FB2
  8
0
  6
CONTINUOUS
 10
137.25337033763259
 20
3.4375750854572749
 30
0.0
 40
4.4000000000000004
  1
cavity
  7
SPECI
  0
ENDBLK
  5
3FB4
  8
0
  0
BLOCK
  8
0
  2
*U19
 70
     1
 10
0.0
 20
0.0
 30
0.0
  3
*U19
  1

  0
INSERT
  5
3FB6
  8
0
  2
SPECI01
 10
113.68384851067729
 20
-72.409615489665782
 30
0.0
 41
7.0
 42
7.0
 43
7.0
 50
232.3161911466905
  0
POLYLINE
  5
3FB7
  8
0
 66
     1
 10
0.0
 20
0.0
 30
0.0
  0
VERTEX
  5
3FB8
  8
0
 10
117.96297248461001
 20
-66.869841305124169
 30
0.0
  0
VERTEX
  5
3FB9
  8
0
 10
128.4934794781511
 20
-53.236997024770631
 30
0.0
  0
VERTEX
  5
3FBA
  8
0
 10
135.49347947815099
 20
-53.236997024770631
 30
0.0
  0
SEQEND
  5
3FBB
  8
0
  0
ENDBLK
  5
3FBD
  8
0
  0
BLOCK
  8
0
  2
*U20
 70
     1
 10
0.0
 20
0.0
 30
0.0
  3
*U20
  1

  0
TEXT
  5
3FBF
  8
0
  6
CONTINUOUS
 10
137.2173539665549
 20
-44.36346360048686
 30
0.0
 40
4.4000000000000004
  1
Specialized
  7
SPECI
  0
TEXT
  5
3FC0
  8
0
  6
CONTINUOUS
 10
137.03727211116609
 20
-51.696796933820188
 30
0.0
 40
4.4000000000000004
  1
Masonry Leveling
  7
SPECI
  0
TEXT
  5
3FC1
  8
0
  6
CONTINUOUS
 10
137.1873403239901
 20
-59.105164373565529
 30
0.0
 40
4.4000000000000004
  1
Compound with
  7
SPECI
  0
TEXT
  5
3FC2
  8
0
  6
CONTINUOUS
 10
137.30439352999281
 20
-66.513531813310877
 30
0.0
 40
4.4000000000000004
  1
selected finish
  7
SPECI
  0
ENDBLK
  5
3FC4
  8
0
  0
BLOCK
  8
0
  2
*U21
 70
     1
 10
0.0
 20
0.0
 30
0.0
  3
*U21
  1

  0
INSERT
  5
3FC6
  8
0
  2
SPECI01
 10
1.1749999999999261
 20
-116.15026985278131
 30
0.0
 41
7.0
 42
7.0
 43
7.0
 50
109.5448126429747
  0
POLYLINE
  5
3FC7
  8
0
 66
     1
 10
0.0
 20
0.0
 30
0.0
  0
VERTEX
  5
3FC8
  8
0
 10
3.5168081646449978
 20
-122.7469307141566
 30
0.0
  0
VERTEX
  5
3FC9
  8
0
 10
34.174999999999898
 20
-209.1082720119293
 30
0.0
  0
VERTEX
  5
3FCA
  8
0
 10
41.174999999999891
 20
-209.1082720119293
 30
0.0
  0
SEQEND
  5
3FCB
  8
0
  0
ENDBLK
  5
3FCD
  8
0
  0
BLOCK
  8
0
  2
*U22
 70
     1
 10
0.0
 20
0.0
 30
0.0
  3
*U22
  1

  0
TEXT
  5
3FCF
  8
0
  6
CONTINUOUS
 10
42.72479536152786
 20
-203.25311057491251
 30
0.0
 40
4.4000000000000004
  1
Breather-type building wrap
  7
SPECI
  0
TEXT
  5
3FD0
  8
0
  6
CONTINUOUS
 10
42.934890859481477
 20
-210.6614780146578
 30
0.0
 40
4.4000000000000004
  1
continuous around corner fixed
  7
SPECI
  0
TEXT
  5
3FD1
  8
0
  6
CONTINUOUS
 10
42.970907230559241
 20
-218.06984545440321
 30
0.0
 40
4.4000000000000004
  1
over framing by builder
  7
SPECI
  0
ENDBLK
  5
3FD3
  8
0
  0
BLOCK
  8
0
  2
*U23
 70
     1
 10
0.0
 20
0.0
 30
0.0
  3
*U23
  1

  0
INSERT
  5
3FD5
  8
0
  2
SPECI01
 10
-46.099647774628011
 20
-157.3249999999999
 30
0.0
 41
7.0
 42
7.0
 43
7.0
 50
101.8079000749476
  0
POLYLINE
  5
3FD6
  8
0
 66
     1
 10
0.0
 20
0.0
 30
0.0
  0
VERTEX
  5
3FD7
  8
0
 10
-44.667230645806903
 20
-164.1768742814692
 30
0.0
  0
VERTEX
  5
3FD8
  8
0
 10
-35.274106795731768
 20
-209.1082720119293
 30
0.0
  0
VERTEX
  5
3FD9
  8
0
 10
-28.274106795731772
 20
-209.1082720119293
 30
0.0
  0
SEQEND
  5
3FDA
  8
0
  0
ENDBLK
  5
3FDC
  8
0
  0
BLOCK
  8
0
  2
*U24
 70
     1
 10
0.0
 20
0.0
 30
0.0
  3
*U24
  1

  0
TEXT
  5
3FDE
  8
0
  6
CONTINUOUS
 10
-26.580245949892749
 20
-210.69899506786379
 30
0.0
 40
4.4000000000000004
  1
Cavity insulation
  7
SPECI
  0
ENDBLK
  5
3FE0
  8
0
  0
BLOCK
  8
0
  2
*X25
 70
     1
 10
0.0
 20
0.0
 30
0.0
  3
*X25
  1

  0
LINE
  5
4005
  8
0
  6
CONTINUOUS
 62
     0
 10
111.1749999999999
 20
107.5234578136785
 30
0.0
 11
107.52345781367821
 21
111.1750000000002
 31
0.0
  0
LINE
  5
4006
  8
0
  6
CONTINUOUS
 62
     0
 10
79.79515336991966
 20
98.492151898947625
 30
0.0
 11
67.112305268867118
 21
111.1750000000002
 31
0.0
  0
LINE
  5
4007
  8
0
  6
CONTINUOUS
 62
     0
 10
111.1749999999999
 20
67.112305268867317
 30
0.0
 11
89.837634898946064
 21
88.449670369921208
 31
0.0
  0
LINE
  5
4008
  8
0
  6
CONTINUOUS
 62
     0
 10
76.703695609984123
 20
61.172457114071918
 30
0.0
 11
26.70115272405592
 21
111.1750000000001
 31
0.0
  0
LINE
  5
4009
  8
0
  6
CONTINUOUS
 62
     0
 10
96.701152724055873
 20
41.175000000000182
 30
0.0
 11
85.125372114072007
 21
52.750780609984062
 31
0.0
  0
LINE
  5
400A
  8
0
  6
CONTINUOUS
 62
     0
 10
56.290000179244693
 20
41.175000000000203
 30
0.0
 11
-13.709999820755259
 21
111.1750000000002
 31
0.0
  0
LINE
  5
400B
  8
0
  6
CONTINUOUS
 62
     0
 10
-39.766209081696708
 20
96.820056716130395
 30
0.0
 11
-54.121152365566459
 21
111.1750000000002
 31
0.0
  0
LINE
  5
400C
  8
0
  6
CONTINUOUS
 62
     0
 10
15.878847634433489
 20
41.175000000000203
 30
0.0
 11
-29.632858283870121
 21
86.686705918303815
 31
0.0
  0
LINE
  5
400D
  8
0
  6
CONTINUOUS
 62
     0
 10
-40.78917293092568
 20
57.431868020548187
 30
0.0
 11
-94.532304910377661
 21
111.1750000000002
 31
0.0
  0
LINE
  5
400E
  8
0
  6
CONTINUOUS
 62
     0
 10
-24.53230491037769
 20
41.175000000000189
 30
0.0
 11
-36.413614979450742
 21
53.056310069073263
 31
0.0
  0
LINE
  5
400F
  8
0
  6
CONTINUOUS
 62
     0
 10
-90.851303049978156
 20
67.082845594789475
 30
0.0
 11
-118.825
 21
95.056542544811364
 31
0.0
  0
LINE
  5
4010
  8
0
  6
CONTINUOUS
 62
     0
 10
-64.943457455188877
 20
41.175000000000182
 30
0.0
 11
-84.262637405209446
 21
60.494179950020772
 31
0.0
  0
LINE
  5
4011
  8
0
  6
CONTINUOUS
 62
     0
 10
-105.35460999999999
 20
41.175000000000168
 30
0.0
 11
-118.825
 21
54.645390000000177
 31
0.0
  0
LINE
  5
4012
  8
0
  6
CONTINUOUS
 62
     0
 10
111.1749999999999
 20
94.053067813678496
 30
0.0
 11
94.053067813678254
 21
111.1750000000002
 31
0.0
  0
LINE
  5
4013
  8
0
  6
CONTINUOUS
 62
     0
 10
111.1749999999999
 20
53.641915268867344
 30
0.0
 11
53.641915268867102
 21
111.1750000000002
 31
0.0
  0
LINE
  5
4014
  8
0
  6
CONTINUOUS
 62
     0
 10
24.802030323015678
 20
99.603732401040418
 30
0.0
 11
13.230762724055911
 21
111.1750000000002
 31
0.0
  0
LINE
  5
4015
  8
0
  6
CONTINUOUS
 62
     0
 10
83.230762724055907
 20
41.175000000000182
 30
0.0
 11
30.650817401039859
 21
93.754945323016244
 31
0.0
  0
LINE
  5
4016
  8
0
  6
CONTINUOUS
 62
     0
 10
18.71495979724882
 20
65.279650381996063
 30
0.0
 11
-27.18038982075527
 21
111.1750000000002
 31
0.0
  0
LINE
  5
4017
  8
0
  6
CONTINUOUS
 62
     0
 10
42.819610179244698
 20
41.175000000000182
 30
0.0
 11
28.934167381997138
 21
55.060442797247752
 31
0.0
  0
LINE
  5
4018
  8
0
  6
CONTINUOUS
 62
     0
 10
2.4084576344335171
 20
41.175000000000189
 30
0.0
 11
-67.591542365566454
 21
111.1750000000002
 31
0.0
  0
LINE
  5
4019
  8
0
  6
CONTINUOUS
 62
     0
 10
-95.392552819862118
 20
98.56485790948463
 30
0.0
 11
-108.0026949103776
 21
111.1750000000001
 31
0.0
  0
LINE
  5
401A
  8
0
  6
CONTINUOUS
 62
     0
 10
-38.002694910377677
 20
41.175000000000182
 30
0.0
 11
-85.388057090515915
 21
88.560362180138441
 31
0.0
  0
LINE
  5
401B
  8
0
  6
CONTINUOUS
 62
     0
 10
-98.564913329242273
 20
61.32606587405359
 30
0.0
 11
-118.825
 21
81.58615254481137
 31
0.0
  0
LINE
  5
401C
  8
0
  6
CONTINUOUS
 62
     0
 10
-78.413847455188858
 20
41.175000000000182
 30
0.0
 11
-90.019417125945338
 21
52.780569670756663
 31
0.0
  0
ENDBLK
  5
401E
  8
0
  0
BLOCK
  8
0
  2
*X26
 70
     1
 10
0.0
 20
0.0
 30
0.0
  3
*X26
  1

  0
LINE
  5
4034
  8
0
  6
CONTINUOUS
 62
     0
 10
98.492151898947355
 20
-167.44515336991969
 30
0.0
 11
111.1749999999999
 21
-154.7623052688671
 31
0.0
  0
LINE
  5
4035
  8
0
  6
CONTINUOUS
 62
     0
 10
86.112305268867573
 20
-179.82499999999939
 30
0.0
 11
88.44967036992098
 21
-177.487634898946
 31
0.0
  0
LINE
  5
4036
  8
0
  6
CONTINUOUS
 62
     0
 10
61.172457114071698
 20
-164.3536956099841
 30
0.0
 11
111.1749999999999
 21
-114.35115272405589
 31
0.0
  0
LINE
  5
4037
  8
0
  6
CONTINUOUS
 62
     0
 10
45.701152724056371
 20
-179.82499999999939
 30
0.0
 11
52.750780609983792
 21
-172.77537211407201
 31
0.0
  0
LINE
  5
4038
  8
0
  6
CONTINUOUS
 62
     0
 10
41.174999999999919
 20
-143.94000017924469
 30
0.0
 11
111.175
 21
-73.94000017924472
 31
0.0
  0
LINE
  5
4039
  8
0
  6
CONTINUOUS
 62
     0
 10
96.820056716130196
 20
-47.883790918303283
 30
0.0
 11
111.1749999999999
 21
-33.528847634433539
 31
0.0
  0
LINE
  5
403A
  8
0
  6
CONTINUOUS
 62
     0
 10
41.174999999999912
 20
-103.5288476344335
 30
0.0
 11
86.686705918303588
 21
-58.017141716129878
 31
0.0
  0
LINE
  5
403B
  8
0
  6
CONTINUOUS
 62
     0
 10
57.431868020548038
 20
-46.86082706907424
 30
0.0
 11
111.1749999999999
 21
6.8823049103776617
 31
0.0
  0
LINE
  5
403C
  8
0
  6
CONTINUOUS
 62
     0
 10
41.174999999999933
 20
-63.11769508962233
 30
0.0
 11
53.05631006907295
 21
-51.236385020549328
 31
0.0
  0
LINE
  5
403D
  8
0
  6
CONTINUOUS
 62
     0
 10
67.082845594789262
 20
3.2013030499781641
 30
0.0
 11
95.056542544811194
 21
31.1750000000001
 31
0.0
  0
LINE
  5
403E
  8
0
  6
CONTINUOUS
 62
     0
 10
41.17499999999994
 20
-22.706542544811139
 30
0.0
 11
60.494179950020552
 21
-3.3873625947905519
 31
0.0
  0
LINE
  5
403F
  8
0
  6
CONTINUOUS
 62
     0
 10
41.174999999999947
 20
17.704610000000059
 30
0.0
 11
54.645390000000013
 21
31.1750000000001
 31
0.0
  0
LINE
  5
4040
  8
0
  6
CONTINUOUS
 62
     0
 10
72.641915268867564
 20
-179.82499999999939
 30
0.0
 11
111.1749999999999
 21
-141.29191526886709
 31
0.0
  0
LINE
  5
4041
  8
0
  6
CONTINUOUS
 62
     0
 10
99.603732401040133
 20
-112.45203032301571
 30
0.0
 11
111.1749999999999
 21
-100.8807627240559
 31
0.0
  0
LINE
  5
4042
  8
0
  6
CONTINUOUS
 62
     0
 10
41.174999999999912
 20
-170.8807627240559
 30
0.0
 11
93.754945323015988
 21
-118.30081740103979
 31
0.0
  0
LINE
  5
4043
  8
0
  6
CONTINUOUS
 62
     0
 10
65.279650381995822
 20
-106.3649597972488
 30
0.0
 11
111.1749999999999
 21
-60.469610179244697
 31
0.0
  0
LINE
  5
4044
  8
0
  6
CONTINUOUS
 62
     0
 10
41.174999999999912
 20
-130.46961017924471
 30
0.0
 11
55.060442797247511
 21
-116.5841673819971
 31
0.0
  0
LINE
  5
4045
  8
0
  6
CONTINUOUS
 62
     0
 10
41.174999999999912
 20
-90.058457634433509
 30
0.0
 11
111.1749999999999
 21
-20.05845763443353
 31
0.0
  0
LINE
  5
4046
  8
0
  6
CONTINUOUS
 62
     0
 10
98.564857909484431
 20
7.7425528198621398
 30
0.0
 11
111.175
 21
20.352694910377672
 31
0.0
  0
LINE
  5
4047
  8
0
  6
CONTINUOUS
 62
     0
 10
41.17499999999994
 20
-49.647305089622321
 30
0.0
 11
88.560362180138227
 21
-2.261942909484048
 31
0.0
  0
LINE
  5
4048
  8
0
  6
CONTINUOUS
 62
     0
 10
61.326065874053349
 20
10.91491332924228
 30
0.0
 11
81.586152544811185
 21
31.1750000000001
 31
0.0
  0
LINE
  5
4049
  8
0
  6
CONTINUOUS
 62
     0
 10
41.174999999999947
 20
-9.236152544811123
 30
0.0
 11
52.780569670756428
 21
2.3694171259453589
 31
0.0
  0
ENDBLK
  5
404B
  8
0
  0
ENDSEC
  0
SECTION
  2
ENTITIES
  0
POLYLINE
  5
20E3
  8
0
 66
     1
 10
0.0
 20
0.0
 30
0.0
  0
VERTEX
  5
3C43
  8
0
 10
-90.825000000000045
 20
-179.82499999999951
 30
0.0
  0
VERTEX
  5
3C44
  8
0
 10
-90.825000000000045
 20
-101.8249999999999
 30
0.0
  0
VERTEX
  5
3C45
  8
0
 10
-100.825
 20
-101.8249999999999
 30
0.0
  0
VERTEX
  5
3C46
  8
0
 10
-100.825
 20
-179.82499999999951
 30
0.0
  0
SEQEND
  5
3C47
  8
0
  0
POLYLINE
  5
20E4
  8
0
 66
     1
 10
0.0
 20
0.0
 30
0.0
  0
VERTEX
  5
3C48
  8
0
 10
-141.41509742330319
 20
-100.8249999999999
 30
0.0
  0
VERTEX
  5
3C49
  8
0
 10
-90.824999999999989
 20
-100.8249999999999
 30
0.0
  0
VERTEX
  5
3C4A
  8
0
 10
-90.824999999999989
 20
-90.82499999999996
 30
0.0
  0
VERTEX
  5
3C4B
  8
0
 10
-141.41509742330319
 20
-90.82499999999996
 30
0.0
  0
SEQEND
  5
3C4C
  8
0
  0
POLYLINE
  5
2100
  8
0
 66
     1
 10
0.0
 20
0.0
 30
0.0
  0
VERTEX
  5
3C4D
  8
0
 10
0.1749999999999545
 20
-134.8249999999999
 30
0.0
  0
VERTEX
  5
3C4E
  8
0
 10
0.1749999999999545
 20
-179.82499999999951
 30
0.0
  0
SEQEND
  5
3C4F
  8
0
  0
POLYLINE
  5
2101
  8
0
 66
     1
 10
0.0
 20
0.0
 30
0.0
  0
VERTEX
  5
3C50
  8
0
 10
-112.3250000000006
 20
-89.825000000000301
 30
0.0
  0
VERTEX
  5
3C51
  8
0
 10
-141.41509742330319
 20
-89.825000000000301
 30
0.0
  0
SEQEND
  5
3C52
  8
0
  0
POLYLINE
  5
2102
  8
0
 66
     1
 10
0.0
 20
0.0
 30
0.0
  0
VERTEX
  5
3C53
  8
0
 10
-141.41509742330319
 20
1.175000000000068
 30
0.0
  0
VERTEX
  5
3C54
  8
0
 10
1.1749999999999541
 20
1.175000000000068
 30
0.0
  0
VERTEX
  5
3C55
  8
0
 10
1.1749999999999261
 20
-179.82499999999939
 30
0.0
  0
SEQEND
  5
3C56
  8
0
  0
POLYLINE
  5
215E
  8
0
 66
     1
 10
0.0
 20
0.0
 30
0.0
 40
1.1999999999999991
 41
1.1999999999999991
  0
VERTEX
  5
3C57
  8
0
 10
92.674999999999955
 20
112.6750000000001
 30
0.0
  0
VERTEX
  5
3C58
  8
0
 10
112.6749999999999
 20
112.6750000000001
 30
0.0
  0
VERTEX
  5
3C59
  8
0
 10
112.6749999999999
 20
92.675000000000068
 30
0.0
  0
SEQEND
  5
3C5A
  8
0
  0
POLYLINE
  5
215F
  8
0
 66
     1
 10
0.0
 20
0.0
 30
0.0
  0
VERTEX
  5
3C5B
  8
0
 10
34.174999999999947
 20
114.175
 30
0.0
  0
VERTEX
  5
3C5C
  8
0
 10
114.1749999999999
 20
114.175
 30
0.0
  0
VERTEX
  5
3C5D
  8
0
 10
114.1749999999999
 20
34.175000000000068
 30
0.0
  0
SEQEND
  5
3C5E
  8
0
  0
POLYLINE
  5
216F
  8
0
 66
     1
 10
0.0
 20
0.0
 30
0.0
  0
VERTEX
  5
3C5F
  8
0
 10
116.0232806958949
 20
-179.82499999999951
 30
0.0
  0
VERTEX
  5
3C60
  8
0
 10
115.936224058164
 20
-179.30016272676281
 30
0.0
  0
VERTEX
  5
3C61
  8
0
 10
116.6010449233567
 20
-176.51639089422559
 30
0.0
  0
VERTEX
  5
3C62
  8
0
 10
117.2145813157393
 20
-171.843887778197
 30
0.0
  0
VERTEX
  5
3C63
  8
0
 10
116.14723228392759
 20
-166.68847187682991
 30
0.0
  0
VERTEX
  5
3C64
  8
0
 10
116.6809056148512
 20
-157.79982262613899
 30
0.0
  0
VERTEX
  5
3C65
  8
0
 10
117.9261465469589
 20
-154.77768193624041
 30
0.0
  0
VERTEX
  5
3C66
  8
0
 10
116.5030160845198
 20
-149.62226603487321
 30
0.0
  0
VERTEX
  5
3C67
  8
0
 10
116.5030160845198
 20
-144.6446229525115
 30
0.0
  0
VERTEX
  5
3C68
  8
0
 10
117.28581533669821
 20
-137.08478208503229
 30
0.0
  0
VERTEX
  5
3C69
  8
0
 10
116.6138214016145
 20
-130.70510571531
 30
0.0
  0
VERTEX
  5
3C6A
  8
0
 10
117.6218123042398
 20
-126.5639109717398
 30
0.0
  0
VERTEX
  5
3C6B
  8
0
 10
116.5318680315257
 20
-122.35486861147849
 30
0.0
  0
VERTEX
  5
3C6C
  8
0
 10
116.04167643805189
 20
-114.517037061525
 30
0.0
  0
VERTEX
  5
3C6D
  8
0
 10
117.1808733116103
 20
-113.520838878001
 30
0.0
  0
VERTEX
  5
3C6E
  8
0
 10
115.82755963139959
 20
-110.25250917377291
 30
0.0
  0
VERTEX
  5
3C6F
  8
0
 10
116.5692792020801
 20
-105.87018935460659
 30
0.0
  0
VERTEX
  5
3C70
  8
0
 10
116.27866340148179
 20
-99.771311291690751
 30
0.0
  0
VERTEX
  5
3C71
  8
0
 10
116.16588745896129
 20
-97.404589590918164
 30
0.0
  0
VERTEX
  5
3C72
  8
0
 10
116.346225681927
 20
-95.997418609156469
 30
0.0
  0
VERTEX
  5
3C73
  8
0
 10
116.222189043977
 20
-92.726987647569786
 30
0.0
  0
VERTEX
  5
3C74
  8
0
 10
116.5542721904457
 20
-90.621490760076654
 30
0.0
  0
VERTEX
  5
3C75
  8
0
 10
115.95712128237361
 20
-87.423698657130387
 30
0.0
  0
VERTEX
  5
3C76
  8
0
 10
115.9510526279299
 20
-84.813853701750105
 30
0.0
  0
VERTEX
  5
3C77
  8
0
 10
116.9695024216537
 20
-83.073207604164111
 30
0.0
  0
VERTEX
  5
3C78
  8
0
 10
116.462299786857
 20
-80.016684256802023
 30
0.0
  0
VERTEX
  5
3C79
  8
0
 10
116.9835980124876
 20
-75.217166188558849
 30
0.0
  0
VERTEX
  5
3C7A
  8
0
 10
116.0028507674818
 20
-71.968259003912635
 30
0.0
  0
VERTEX
  5
3C7B
  8
0
 10
117.1191119643449
 20
-68.421909535169789
 30
0.0
  0
VERTEX
  5
3C7C
  8
0
 10
115.9947169288409
 20
-66.021572940336853
 30
0.0
  0
VERTEX
  5
3C7D
  8
0
 10
116.3691821580438
 20
-63.215851146737663
 30
0.0
  0
VERTEX
  5
3C7E
  8
0
 10
115.9998813896669
 20
-59.281547910701498
 30
0.0
  0
VERTEX
  5
3C7F
  8
0
 10
116.87795903726099
 20
-56.09452179013897
 30
0.0
  0
VERTEX
  5
3C80
  8
0
 10
116.28741299704279
 20
-53.923643688395202
 30
0.0
  0
VERTEX
  5
3C81
  8
0
 10
116.0146871896869
 20
-53.50980324415309
 30
0.0
  0
VERTEX
  5
3C82
  8
0
 10
116.0855610315853
 20
-53.167001635871003
 30
0.0
  0
VERTEX
  5
3C83
  8
0
 10
116.31626392202701
 20
-52.161788435847512
 30
0.0
  0
VERTEX
  5
3C84
  8
0
 10
116.32920035404069
 20
-49.873526436172853
 30
0.0
  0
VERTEX
  5
3C85
  8
0
 10
115.9312359264725
 20
-46.001341322806667
 30
0.0
  0
VERTEX
  5
3C86
  8
0
 10
116.409359661054
 20
-42.56114178017063
 30
0.0
  0
VERTEX
  5
3C87
  8
0
 10
115.73998690663279
 20
-40.984383310611548
 30
0.0
  0
VERTEX
  5
3C88
  8
0
 10
116.9168171200409
 20
-36.042700405810393
 30
0.0
  0
VERTEX
  5
3C89
  8
0
 10
115.2408844044658
 20
-27.81946661431769
 30
0.0
  0
VERTEX
  5
3C8A
  8
0
 10
116.1102479690617
 20
-23.21263502328955
 30
0.0
  0
VERTEX
  5
3C8B
  8
0
 10
115.5824525659619
 20
-16.84534425939211
 30
0.0
  0
VERTEX
  5
3C8C
  8
0
 10
114.8144490017376
 20
-10.9752125661451
 30
0.0
  0
VERTEX
  5
3C8D
  8
0
 10
115.7718933029392
 20
-7.6908492211567241
 30
0.0
  0
VERTEX
  5
3C8E
  8
0
 10
116.3854296953219
 20
-3.0183461051281588
 30
0.0
  0
VERTEX
  5
3C8F
  8
0
 10
115.3180806635101
 20
2.1370697962390182
 30
0.0
  0
VERTEX
  5
3C90
  8
0
 10
115.85175399443369
 20
11.025719046929851
 30
0.0
  0
VERTEX
  5
3C91
  8
0
 10
117.0969949265414
 20
14.04785973682851
 30
0.0
  0
VERTEX
  5
3C92
  8
0
 10
115.67386446410229
 20
19.203275638195691
 30
0.0
  0
VERTEX
  5
3C93
  8
0
 10
115.67386446410229
 20
24.180918720557429
 30
0.0
  0
VERTEX
  5
3C94
  8
0
 10
116.4566637162807
 20
31.74075958803655
 30
0.0
  0
VERTEX
  5
3C95
  8
0
 10
115.784669781197
 20
38.1204359577589
 30
0.0
  0
VERTEX
  5
3C96
  8
0
 10
116.79266068382231
 20
42.261630701329068
 30
0.0
  0
VERTEX
  5
3C97
  8
0
 10
115.7027164111082
 20
46.470673061590333
 30
0.0
  0
VERTEX
  5
3C98
  8
0
 10
115.2125248176344
 20
54.308504611543867
 30
0.0
  0
VERTEX
  5
3C99
  8
0
 10
116.35172169119279
 20
55.304702795067897
 30
0.0
  0
VERTEX
  5
3C9A
  8
0
 10
114.9984080109821
 20
58.573032499295998
 30
0.0
  0
VERTEX
  5
3C9B
  8
0
 10
115.74012758166261
 20
62.955352318462239
 30
0.0
  0
VERTEX
  5
3C9C
  8
0
 10
115.4495117810643
 20
69.054230381378147
 30
0.0
  0
VERTEX
  5
3C9D
  8
0
 10
115.3367358385438
 20
71.420952082150734
 30
0.0
  0
VERTEX
  5
3C9E
  8
0
 10
115.520345650084
 20
72.827699921559315
 30
0.0
  0
VERTEX
  5
3C9F
  8
0
 10
115.40391403742581
 20
76.098410462348966
 30
0.0
  0
VERTEX
  5
3CA0
  8
0
 10
115.7408921702432
 20
78.20312946910849
 30
0.0
  0
VERTEX
  5
3CA1
  8
0
 10
115.1511786603397
 20
81.402301474005057
 30
0.0
  0
VERTEX
  5
3CA2
  8
0
 10
115.1511786603397
 20
84.012153485075942
 30
0.0
  0
VERTEX
  5
3CA3
  8
0
 10
116.1736732021041
 20
85.750426688988171
 30
0.0
  0
VERTEX
  5
3CA4
  8
0
 10
115.6735792319292
 20
88.808121164685303
 30
0.0
  0
VERTEX
  5
3CA5
  8
0
 10
116.206036304272
 20
93.606414089627492
 30
0.0
  0
VERTEX
  5
3CA6
  8
0
 10
115.232846351706
 20
96.857593009535904
 30
0.0
  0
VERTEX
  5
3CA7
  8
0
 10
116.3573508104006
 20
100.40133726335139
 30
0.0
  0
VERTEX
  5
3CA8
  8
0
 10
115.23854028569031
 20
102.80428190985459
 30
0.0
  0
VERTEX
  5
3CA9
  8
0
 10
115.6195286103972
 20
105.60912537917621
 30
0.0
  0
VERTEX
  5
3CAA
  8
0
 10
115.2593772238192
 20
109.54427670909411
 30
0.0
  0
VERTEX
  5
3CAB
  8
0
 10
116.14486324732979
 20
112.7292524312182
 30
0.0
  0
VERTEX
  5
3CAC
  8
0
 10
115.5593667178475
 20
114.9014978529447
 30
0.0
  0
VERTEX
  5
3CAD
  8
0
 10
115.0158411732034
 20
115.7304448352501
 30
0.0
  0
VERTEX
  5
3CAE
  8
0
 10
114.01062797317989
 20
115.9611477256918
 30
0.0
  0
VERTEX
  5
3CAF
  8
0
 10
111.72236597350521
 20
115.97408415770551
 30
0.0
  0
VERTEX
  5
3CB0
  8
0
 10
107.85018086013901
 20
115.57611973013729
 30
0.0
  0
VERTEX
  5
3CB1
  8
0
 10
104.409981317503
 20
116.0542434647187
 30
0.0
  0
VERTEX
  5
3CB2
  8
0
 10
102.8332228479439
 20
115.38487071029761
 30
0.0
  0
VERTEX
  5
3CB3
  8
0
 10
97.891539943142789
 20
116.5617009237056
 30
0.0
  0
VERTEX
  5
3CB4
  8
0
 10
89.668306151650086
 20
114.8857682081305
 30
0.0
  0
VERTEX
  5
3CB5
  8
0
 10
85.061474560621946
 20
115.7551317727265
 30
0.0
  0
VERTEX
  5
3CB6
  8
0
 10
78.694183796724474
 20
115.2273363696266
 30
0.0
  0
VERTEX
  5
3CB7
  8
0
 10
72.82405210347747
 20
114.4593328054023
 30
0.0
  0
VERTEX
  5
3CB8
  8
0
 10
69.539688758489092
 20
115.4167771066039
 30
0.0
  0
VERTEX
  5
3CB9
  8
0
 10
64.867185642460527
 20
116.0303134989866
 30
0.0
  0
VERTEX
  5
3CBA
  8
0
 10
59.711769741093349
 20
114.9629644671748
 30
0.0
  0
VERTEX
  5
3CBB
  8
0
 10
50.823120490402509
 20
115.4966377980985
 30
0.0
  0
VERTEX
  5
3CBC
  8
0
 10
47.800979800503868
 20
116.7418787302061
 30
0.0
  0
VERTEX
  5
3CBD
  8
0
 10
42.645563899136697
 20
115.31874826776711
 30
0.0
  0
VERTEX
  5
3CBE
  8
0
 10
37.667920816774974
 20
115.31874826776711
 30
0.0
  0
VERTEX
  5
3CBF
  8
0
 10
30.108079949295838
 20
116.1015475199455
 30
0.0
  0
VERTEX
  5
3CC0
  8
0
 10
23.728403579573499
 20
115.42955358486169
 30
0.0
  0
VERTEX
  5
3CC1
  8
0
 10
19.587208836003331
 20
116.4375444874871
 30
0.0
  0
VERTEX
  5
3CC2
  8
0
 10
15.378166475742059
 20
115.347600214773
 30
0.0
  0
VERTEX
  5
3CC3
  8
0
 10
7.5403349257885282
 20
114.8574086212992
 30
0.0
  0
VERTEX
  5
3CC4
  8
0
 10
6.5441367422644978
 20
115.9966054948576
 30
0.0
  0
VERTEX
  5
3CC5
  8
0
 10
3.27580703803639
 20
114.6432918146469
 30
0.0
  0
VERTEX
  5
3CC6
  8
0
 10
-1.1065127811298501
 20
115.3850113853274
 30
0.0
  0
VERTEX
  5
3CC7
  8
0
 10
-7.205390844045751
 20
115.0943955847291
 30
0.0
  0
VERTEX
  5
3CC8
  8
0
 10
-9.572112544818367
 20
114.9816196422085
 30
0.0
  0
VERTEX
  5
3CC9
  8
0
 10
-11.93883424559095
 20
114.868843699688
 30
0.0
  0
VERTEX
  5
3CCA
  8
0
 10
-18.037712308506851
 20
114.5782278990897
 30
0.0
  0
VERTEX
  5
3CCB
  8
0
 10
-22.420032127673089
 20
115.3199474697702
 30
0.0
  0
VERTEX
  5
3CCC
  8
0
 10
-23.635342035845039
 20
115.1550375220439
 30
0.0
  0
VERTEX
  5
3CCD
  8
0
 10
-27.11276978486444
 20
115.7684414432823
 30
0.0
  0
VERTEX
  5
3CCE
  8
0
 10
-34.522391565378769
 20
114.6156390696441
 30
0.0
  0
VERTEX
  5
3CCF
  8
0
 10
-38.731433925640033
 20
113.52569479693
 30
0.0
  0
VERTEX
  5
3CD0
  8
0
 10
-42.872628669210201
 20
114.53368569955531
 30
0.0
  0
VERTEX
  5
3CD1
  8
0
 10
-49.252305038932548
 20
113.8616917644716
 30
0.0
  0
VERTEX
  5
3CD2
  8
0
 10
-56.812145906411672
 20
114.64449101664999
 30
0.0
  0
VERTEX
  5
3CD3
  8
0
 10
-61.78978898877341
 20
114.64449101664999
 30
0.0
  0
VERTEX
  5
3CD4
  8
0
 10
-66.945204890140587
 20
113.2213605542109
 30
0.0
  0
VERTEX
  5
3CD5
  8
0
 10
-69.96734558003925
 20
114.46660148631859
 30
0.0
  0
VERTEX
  5
3CD6
  8
0
 10
-78.855994830730083
 20
115.0002748172422
 30
0.0
  0
VERTEX
  5
3CD7
  8
0
 10
-84.011410732097275
 20
113.9329257854305
 30
0.0
  0
VERTEX
  5
3CD8
  8
0
 10
-88.683913848125826
 20
114.5464621778131
 30
0.0
  0
VERTEX
  5
3CD9
  8
0
 10
-91.968277193114204
 20
115.5039064790147
 30
0.0
  0
VERTEX
  5
3CDA
  8
0
 10
-97.838408886361194
 20
114.7359029147904
 30
0.0
  0
VERTEX
  5
3CDB
  8
0
 10
-104.20569965025859
 20
114.2081075116906
 30
0.0
  0
VERTEX
  5
3CDC
  8
0
 10
-108.81253124128671
 20
115.0774710762865
 30
0.0
  0
VERTEX
  5
3CDD
  8
0
 10
-117.03576503277939
 20
113.4015383607114
 30
0.0
  0
VERTEX
  5
3CDE
  8
0
 10
-121.97744793758061
 20
114.57836857411949
 30
0.0
  0
VERTEX
  5
3CDF
  8
0
 10
-123.5542064071397
 20
113.9089958196983
 30
0.0
  0
VERTEX
  5
3CE0
  8
0
 10
-126.9944059497757
 20
114.38711955427981
 30
0.0
  0
VERTEX
  5
3CE1
  8
0
 10
-130.8665910631419
 20
113.98915512671149
 30
0.0
  0
VERTEX
  5
3CE2
  8
0
 10
-133.15485306281661
 20
114.0020915587253
 30
0.0
  0
VERTEX
  5
3CE3
  8
0
 10
-134.16006626283999
 20
114.232794449167
 30
0.0
  0
VERTEX
  5
3CE4
  8
0
 10
-134.4318290351622
 20
114.64726794031969
 30
0.0
  0
VERTEX
  5
3CE5
  8
0
 10
-136.79855073593481
 20
114.53449199779909
 30
0.0
  0
VERTEX
  5
3CE6
  8
0
 10
-141.41509742330331
 20
114.39321271563711
 30
0.0
  0
SEQEND
  5
3CE7
  8
0
  0
POLYLINE
  5
228F
  8
0
 66
     1
 10
0.0
 20
0.0
 30
0.0
 70
     1
  0
VERTEX
  5
3CE8
  8
0
 10
41.174999999999891
 20
41.175000000000132
 30
0.0
 42
-0.4000000000000011
  0
VERTEX
  5
3CE9
  8
0
 10
41.174999999999947
 20
31.175000000000072
 30
0.0
  0
VERTEX
  5
3CEA
  8
0
 10
111.1749999999999
 20
31.175000000000072
 30
0.0
 42
-0.3999999999999976
  0
VERTEX
  5
3CEB
  8
0
 10
111.1749999999999
 20
41.175000000000061
 30
0.0
  0
SEQEND
  5
3CEC
  8
0
  0
POLYLINE
  5
2291
  8
0
 66
     1
 10
0.0
 20
0.0
 30
0.0
 70
     1
  0
VERTEX
  5
3CED
  8
0
 10
-128.8250000000001
 20
41.175000000000011
 30
0.0
 42
-0.4000000000000011
  0
VERTEX
  5
3CEE
  8
0
 10
-118.825
 20
41.175000000000061
 30
0.0
  0
VERTEX
  5
3CEF
  8
0
 10
-118.825
 20
111.175
 30
0.0
 42
-0.3999999999999976
  0
VERTEX
  5
3CF0
  8
0
 10
-128.82499999999999
 20
111.175
 30
0.0
  0
SEQEND
  5
3CF1
  8
0
  0
POLYLINE
  5
22C1
  8
0
 66
     1
 10
0.0
 20
0.0
 30
0.0
  0
VERTEX
  5
3CF2
  8
0
 10
-141.41509742330319
 20
-104.8249999999999
 30
0.0
  0
VERTEX
  5
3CF3
  8
0
 10
-141.41509742330319
 20
4.744755161428599
 30
0.0
  0
VERTEX
  5
3CF4
  8
0
 10
-138.6676200038487
 20
5.7447551614286558
 30
0.0
  0
VERTEX
  5
3CF5
  8
0
 10
-144.162574842758
 20
7.7447551614286558
 30
0.0
  0
VERTEX
  5
3CF6
  8
0
 10
-141.41509742330319
 20
8.7447551614285999
 30
0.0
  0
VERTEX
  5
3CF7
  8
0
 10
-141.41509742330319
 20
118.3145103228568
 30
0.0
  0
SEQEND
  5
3CF8
  8
0
  0
POLYLINE
  5
22CB
  8
0
 66
     1
 10
0.0
 20
0.0
 30
0.0
  0
VERTEX
  5
3CF9
  8
0
 10
-104.825
 20
-179.82499999999951
 30
0.0
  0
VERTEX
  5
3CFA
  8
0
 10
5.4093003110777138
 20
-179.82499999999951
 30
0.0
  0
VERTEX
  5
3CFB
  8
0
 10
6.4093003110776863
 20
-182.57247741945429
 30
0.0
  0
VERTEX
  5
3CFC
  8
0
 10
8.4093003110776863
 20
-177.07752258054501
 30
0.0
  0
VERTEX
  5
3CFD
  8
0
 10
9.4093003110777147
 20
-179.82499999999951
 30
0.0
  0
VERTEX
  5
3CFE
  8
0
 10
119.6467727538335
 20
-179.82499999999951
 30
0.0
  0
SEQEND
  5
3CFF
  8
0
  0
POLYLINE
  5
22CD
  8
0
 66
     1
 10
0.0
 20
0.0
 30
0.0
  0
VERTEX
  5
3D00
  8
0
 10
-89.825000000000045
 20
-134.8249999999999
 30
0.0
  0
VERTEX
  5
3D01
  8
0
 10
-89.825000000000387
 20
-179.82499999999951
 30
0.0
  0
SEQEND
  5
3D02
  8
0
  0
POLYLINE
  5
22CE
  8
0
 66
     1
 10
0.0
 20
0.0
 30
0.0
  0
VERTEX
  5
3D03
  8
0
 10
-141.41509742330319
 20
111.175
 30
0.0
  0
VERTEX
  5
3D04
  8
0
 10
-128.82499999999999
 20
111.175
 30
0.0
  0
VERTEX
  5
3D05
  8
0
 10
-128.82499999999999
 20
41.175000000000061
 30
0.0
  0
VERTEX
  5
3D06
  8
0
 10
-141.41509742330319
 20
41.175000000000061
 30
0.0
  0
SEQEND
  5
3D07
  8
0
  0
INSERT
  5
22D5
  8
0
  6
CONTINUOUS
  2
*X11
 10
0.0
 20
0.0
 30
0.0
1001
ACAD
1000
HATCH
1002
{
1070
    19
1000
ANSI32
1040
3.0
1040
1.5707963267948959
1000
R14_HATCH_DATA
1000
22D5
1011
1.0
1021
-0.0
1031
-1.8832276890478811E+281
1021
0.0
1031
0.0
1011
0.0
1021
-0.0
1031
-1.8832276890478811E+281
1021
1.0
1031
0.0
1011
0.0
1021
-0.0
1031
-1.8832276890478811E+281
1021
0.0
1031
1.0
1040
0.0
1010
0.0
1020
0.0
1030
1.0
1000
ANSI32
1070
     0
1070
     0
1071
        1
1071
        1
1071
        4
1070
     1
1040
-141.41509742330311
1040
111.175
1040
-141.41509742330319
1040
41.175000000000132
1070
     1
1040
-141.41509742330319
1040
41.175000000000132
1040
-128.82499999999999
1040
41.175000000000061
1070
     1
1040
-128.82499999999999
1040
41.175000000000061
1040
-128.82499999999999
1040
111.175
1070
     1
1040
-128.82499999999999
1040
111.175
1040
-141.41509742330311
1040
111.175
1071
        0
1070
     0
1070
     1
1040
1.5707963267948959
1040
3.0
1070
     0
1070
     2
1040
2.3561944901923439
1040
-358.82499999999999
1040
41.175000000000061
1040
-20.205576272405601
1040
-20.205576272405601
1070
     0
1040
2.3561944901923439
1040
-358.82499999999999
1040
54.645390000000077
1040
-20.205576272405601
1040
-20.205576272405601
1070
     0
1071
        9
1040
-258.93439903334672
1040
75.980393556389117
1040
0.0
1040
-258.93439903334672
1040
75.980393556389117
1040
0.0
1040
-258.93439903334672
1040
75.980393556389117
1040
0.0
1040
-258.93439903334672
1040
75.980393556389117
1040
0.0
1040
-258.93439903334672
1040
75.980393556389117
1040
0.0
1040
-258.93439903334672
1040
75.980393556389117
1040
0.0
1040
-258.93439903334672
1040
75.980393556389117
1040
0.0
1040
-258.93439903334672
1040
75.980393556389117
1040
0.0
1040
-258.93439903334672
1040
75.980393556389117
1040
0.0
1002
}
  0
POLYLINE
  5
22DC
  8
0
 66
     1
 10
0.0
 20
0.0
 30
0.0
  0
VERTEX
  5
3D0F
  8
0
 10
-112.325
 20
-22.32499999999985
 30
0.0
 42
0.5042124932514329
  0
VERTEX
  5
3D10
  8
0
 10
-141.41509742330319
 20
-0.8117339543391609
 30
0.0
 42
0.5042124932514329
  0
SEQEND
  5
3D11
  8
0
  0
POLYLINE
  8
0
  5
4075
  66
     1
 10
0.000000
 20
0.000000
 30
0.000000
  70
     8
  0
VERTEX
  8
0
  5
4076
 10
-134.825
 20
-67.3250
 30
0.000000
  70
    32
  0
VERTEX
  8
0
  5
4077
 10
-134.844
 20
-67.2074
 30
0.000000
  70
    32
  0
VERTEX
  8
0
  5
4078
 10
-134.862
 20
-67.0899
 30
0.000000
  70
    32
  0
VERTEX
  8
0
  5
4079
 10
-134.881
 20
-66.9723
 30
0.000000
  70
    32
  0
VERTEX
  8
0
  5
407A
 10
-134.899
 20
-66.8547
 30
0.000000
  70
    32
  0
VERTEX
  8
0
  5
407B
 10
-134.918
 20
-66.7372
 30
0.000000
  70
    32
  0
VERTEX
  8
0
  5
407C
 10
-134.937
 20
-66.6197
 30
0.000000
  70
    32
  0
VERTEX
  8
0
  5
407D
 10
-134.955
 20
-66.5022
 30
0.000000
  70
    32
  0
VERTEX
  8
0
  5
407E
 10
-134.974
 20
-66.3847
 30
0.000000
  70
    32
  0
VERTEX
  8
0
  5
407F
 10
-134.993
 20
-66.2672
 30
0.000000
  70
    32
  0
VERTEX
  8
0
  5
4080
 10
-135.012
 20
-66.1498
 30
0.000000
  70
    32
  0
VERTEX
  8
0
  5
4081
 10
-135.031
 20
-66.0324
 30
0.000000
  70
    32
  0
VERTEX
  8
0
  5
4082
 10
-135.050
 20
-65.9150
 30
0.000000
  70
    32
  0
VERTEX
  8
0
  5
4083
 10
-135.069
 20
-65.7976
 30
0.000000
  70
    32
  0
VERTEX
  8
0
  5
4084
 10
-135.088
 20
-65.6803
 30
0.000000
  70
    32
  0
VERTEX
  8
0
  5
4085
 10
-135.107
 20
-65.5631
 30
0.000000
  70
    32
  0
VERTEX
  8
0
  5
4086
 10
-135.127
 20
-65.4458
 30
0.000000
  70
    32
  0
VERTEX
  8
0
  5
4087
 10
-135.146
 20
-65.3287
 30
0.000000
  70
    32
  0
VERTEX
  8
0
  5
4088
 10
-135.166
 20
-65.2115
 30
0.000000
  70
    32
  0
VERTEX
  8
0
  5
4089
 10
-135.185
 20
-65.0944
 30
0.000000
  70
    32
  0
VERTEX
  8
0
  5
408A
 10
-135.205
 20
-64.9774
 30
0.000000
  70
    32
  0
VERTEX
  8
0
  5
408B
 10
-135.225
 20
-64.8605
 30
0.000000
  70
    32
  0
VERTEX
  8
0
  5
408C
 10
-135.245
 20
-64.7436
 30
0.000000
  70
    32
  0
VERTEX
  8
0
  5
408D
 10
-135.265
 20
-64.6267
 30
0.000000
  70
    32
  0
VERTEX
  8
0
  5
408E
 10
-135.286
 20
-64.5099
 30
0.000000
  70
    32
  0
VERTEX
  8
0
  5
408F
 10
-135.306
 20
-64.3932
 30
0.000000
  70
    32
  0
VERTEX
  8
0
  5
4090
 10
-135.327
 20
-64.2766
 30
0.000000
  70
    32
  0
VERTEX
  8
0
  5
4091
 10
-135.348
 20
-64.1600
 30
0.000000
  70
    32
  0
VERTEX
  8
0
  5
4092
 10
-135.369
 20
-64.0436
 30
0.000000
  70
    32
  0
VERTEX
  8
0
  5
4093
 10
-135.390
 20
-63.9272
 30
0.000000
  70
    32
  0
VERTEX
  8
0
  5
4094
 10
-135.411
 20
-63.8108
 30
0.000000
  70
    32
  0
VERTEX
  8
0
  5
4095
 10
-135.433
 20
-63.6946
 30
0.000000
  70
    32
  0
VERTEX
  8
0
  5
4096
 10
-135.454
 20
-63.5785
 30
0.000000
  70
    32
  0
VERTEX
  8
0
  5
4097
 10
-135.476
 20
-63.4624
 30
0.000000
  70
    32
  0
VERTEX
  8
0
  5
4098
 10
-135.498
 20
-63.3465
 30
0.000000
  70
    32
  0
VERTEX
  8
0
  5
4099
 10
-135.521
 20
-63.2306
 30
0.000000
  70
    32
  0
VERTEX
  8
0
  5
409A
 10
-135.543
 20
-63.1149
 30
0.000000
  70
    32
  0
VERTEX
  8
0
  5
409B
 10
-135.566
 20
-62.9992
 30
0.000000
  70
    32
  0
VERTEX
  8
0
  5
409C
 10
-135.589
 20
-62.8837
 30
0.000000
  70
    32
  0
VERTEX
  8
0
  5
409D
 10
-135.613
 20
-62.7682
 30
0.000000
  70
    32
  0
VERTEX
  8
0
  5
409E
 10
-135.636
 20
-62.6529
 30
0.000000
  70
    32
  0
VERTEX
  8
0
  5
409F
 10
-135.660
 20
-62.5377
 30
0.000000
  70
    32
  0
VERTEX
  8
0
  5
40A0
 10
-135.684
 20
-62.4226
 30
0.000000
  70
    32
  0
VERTEX
  8
0
  5
40A1
 10
-135.708
 20
-62.3077
 30
0.000000
  70
    32
  0
VERTEX
  8
0
  5
40A2
 10
-135.733
 20
-62.1928
 30
0.000000
  70
    32
  0
VERTEX
  8
0
  5
40A3
 10
-135.758
 20
-62.0781
 30
0.000000
  70
    32
  0
VERTEX
  8
0
  5
40A4
 10
-135.783
 20
-61.9635
 30
0.000000
  70
    32
  0
VERTEX
  8
0
  5
40A5
 10
-135.808
 20
-61.8491
 30
0.000000
  70
    32
  0
VERTEX
  8
0
  5
40A6
 10
-135.834
 20
-61.7347
 30
0.000000
  70
    32
  0
VERTEX
  8
0
  5
40A7
 10
-135.860
 20
-61.6206
 30
0.000000
  70
    32
  0
VERTEX
  8
0
  5
40A8
 10
-135.887
 20
-61.5065
 30
0.000000
  70
    32
  0
VERTEX
  8
0
  5
40A9
 10
-135.913
 20
-61.3926
 30
0.000000
  70
    32
  0
VERTEX
  8
0
  5
40AA
 10
-135.940
 20
-61.2789
 30
0.000000
  70
    32
  0
VERTEX
  8
0
  5
40AB
 10
-135.968
 20
-61.1653
 30
0.000000
  70
    32
  0
VERTEX
  8
0
  5
40AC
 10
-135.995
 20
-61.0519
 30
0.000000
  70
    32
  0
VERTEX
  8
0
  5
40AD
 10
-136.023
 20
-60.9386
 30
0.000000
  70
    32
  0
VERTEX
  8
0
  5
40AE
 10
-136.052
 20
-60.8254
 30
0.000000
  70
    32
  0
VERTEX
  8
0
  5
40AF
 10
-136.081
 20
-60.7125
 30
0.000000
  70
    32
  0
VERTEX
  8
0
  5
40B0
 10
-136.110
 20
-60.5997
 30
0.000000
  70
    32
  0
VERTEX
  8
0
  5
40B1
 10
-136.139
 20
-60.4870
 30
0.000000
  70
    32
  0
VERTEX
  8
0
  5
40B2
 10
-136.169
 20
-60.3746
 30
0.000000
  70
    32
  0
VERTEX
  8
0
  5
40B3
 10
-136.199
 20
-60.2623
 30
0.000000
  70
    32
  0
VERTEX
  8
0
  5
40B4
 10
-136.230
 20
-60.1502
 30
0.000000
  70
    32
  0
VERTEX
  8
0
  5
40B5
 10
-136.261
 20
-60.0382
 30
0.000000
  70
    32
  0
VERTEX
  8
0
  5
40B6
 10
-136.292
 20
-59.9265
 30
0.000000
  70
    32
  0
VERTEX
  8
0
  5
40B7
 10
-136.324
 20
-59.8149
 30
0.000000
  70
    32
  0
VERTEX
  8
0
  5
40B8
 10
-136.356
 20
-59.7035
 30
0.000000
  70
    32
  0
VERTEX
  8
0
  5
40B9
 10
-136.389
 20
-59.5923
 30
0.000000
  70
    32
  0
VERTEX
  8
0
  5
40BA
 10
-136.422
 20
-59.4813
 30
0.000000
  70
    32
  0
VERTEX
  8
0
  5
40BB
 10
-136.455
 20
-59.3705
 30
0.000000
  70
    32
  0
VERTEX
  8
0
  5
40BC
 10
-136.489
 20
-59.2599
 30
0.000000
  70
    32
  0
VERTEX
  8
0
  5
40BD
 10
-136.524
 20
-59.1495
 30
0.000000
  70
    32
  0
VERTEX
  8
0
  5
40BE
 10
-136.559
 20
-59.0393
 30
0.000000
  70
    32
  0
VERTEX
  8
0
  5
40BF
 10
-136.594
 20
-58.9293
 30
0.000000
  70
    32
  0
VERTEX
  8
0
  5
40C0
 10
-136.630
 20
-58.8195
 30
0.000000
  70
    32
  0
VERTEX
  8
0
  5
40C1
 10
-136.666
 20
-58.7100
 30
0.000000
  70
    32
  0
VERTEX
  8
0
  5
40C2
 10
-136.703
 20
-58.6006
 30
0.000000
  70
    32
  0
VERTEX
  8
0
  5
40C3
 10
-136.740
 20
-58.4915
 30
0.000000
  70
    32
  0
VERTEX
  8
0
  5
40C4
 10
-136.777
 20
-58.3826
 30
0.000000
  70
    32
  0
VERTEX
  8
0
  5
40C5
 10
-136.816
 20
-58.2739
 30
0.000000
  70
    32
  0
VERTEX
  8
0
  5
40C6
 10
-136.854
 20
-58.1654
 30
0.000000
  70
    32
  0
VERTEX
  8
0
  5
40C7
 10
-136.894
 20
-58.0572
 30
0.000000
  70
    32
  0
VERTEX
  8
0
  5
40C8
 10
-136.933
 20
-57.9492
 30
0.000000
  70
    32
  0
VERTEX
  8
0
  5
40C9
 10
-136.973
 20
-57.8415
 30
0.000000
  70
    32
  0
VERTEX
  8
0
  5
40CA
 10
-137.014
 20
-57.7339
 30
0.000000
  70
    32
  0
VERTEX
  8
0
  5
40CB
 10
-137.055
 20
-57.6267
 30
0.000000
  70
    32
  0
VERTEX
  8
0
  5
40CC
 10
-137.097
 20
-57.5196
 30
0.000000
  70
    32
  0
VERTEX
  8
0
  5
40CD
 10
-137.140
 20
-57.4129
 30
0.000000
  70
    32
  0
VERTEX
  8
0
  5
40CE
 10
-137.183
 20
-57.3063
 30
0.000000
  70
    32
  0
VERTEX
  8
0
  5
40CF
 10
-137.226
 20
-57.2000
 30
0.000000
  70
    32
  0
VERTEX
  8
0
  5
40D0
 10
-137.270
 20
-57.0940
 30
0.000000
  70
    32
  0
VERTEX
  8
0
  5
40D1
 10
-137.315
 20
-56.9883
 30
0.000000
  70
    32
  0
VERTEX
  8
0
  5
40D2
 10
-137.360
 20
-56.8827
 30
0.000000
  70
    32
  0
VERTEX
  8
0
  5
40D3
 10
-137.406
 20
-56.7775
 30
0.000000
  70
    32
  0
VERTEX
  8
0
  5
40D4
 10
-137.452
 20
-56.6724
 30
0.000000
  70
    32
  0
VERTEX
  8
0
  5
40D5
 10
-137.499
 20
-56.5677
 30
0.000000
  70
    32
  0
VERTEX
  8
0
  5
40D6
 10
-137.546
 20
-56.4631
 30
0.000000
  70
    32
  0
VERTEX
  8
0
  5
40D7
 10
-137.594
 20
-56.3588
 30
0.000000
  70
    32
  0
VERTEX
  8
0
  5
40D8
 10
-137.642
 20
-56.2547
 30
0.000000
  70
    32
  0
VERTEX
  8
0
  5
40D9
 10
-137.691
 20
-56.1509
 30
0.000000
  70
    32
  0
VERTEX
  8
0
  5
40DA
 10
-137.740
 20
-56.0473
 30
0.000000
  70
    32
  0
VERTEX
  8
0
  5
40DB
 10
-137.790
 20
-55.9440
 30
0.000000
  70
    32
  0
VERTEX
  8
0
  5
40DC
 10
-137.841
 20
-55.8408
 30
0.000000
  70
    32
  0
VERTEX
  8
0
  5
40DD
 10
-137.892
 20
-55.7379
 30
0.000000
  70
    32
  0
VERTEX
  8
0
  5
40DE
 10
-137.943
 20
-55.6353
 30
0.000000
  70
    32
  0
VERTEX
  8
0
  5
40DF
 10
-137.995
 20
-55.5328
 30
0.000000
  70
    32
  0
VERTEX
  8
0
  5
40E0
 10
-138.048
 20
-55.4306
 30
0.000000
  70
    32
  0
VERTEX
  8
0
  5
40E1
 10
-138.100
 20
-55.3286
 30
0.000000
  70
    32
  0
VERTEX
  8
0
  5
40E2
 10
-138.154
 20
-55.2268
 30
0.000000
  70
    32
  0
VERTEX
  8
0
  5
40E3
 10
-138.208
 20
-55.1252
 30
0.000000
  70
    32
  0
VERTEX
  8
0
  5
40E4
 10
-138.262
 20
-55.0239
 30
0.000000
  70
    32
  0
VERTEX
  8
0
  5
40E5
 10
-138.317
 20
-54.9227
 30
0.000000
  70
    32
  0
VERTEX
  8
0
  5
40E6
 10
-138.372
 20
-54.8218
 30
0.000000
  70
    32
  0
VERTEX
  8
0
  5
40E7
 10
-138.428
 20
-54.7211
 30
0.000000
  70
    32
  0
VERTEX
  8
0
  5
40E8
 10
-138.484
 20
-54.6206
 30
0.000000
  70
    32
  0
VERTEX
  8
0
  5
40E9
 10
-138.541
 20
-54.5202
 30
0.000000
  70
    32
  0
VERTEX
  8
0
  5
40EA
 10
-138.598
 20
-54.4201
 30
0.000000
  70
    32
  0
VERTEX
  8
0
  5
40EB
 10
-138.655
 20
-54.3202
 30
0.000000
  70
    32
  0
VERTEX
  8
0
  5
40EC
 10
-138.713
 20
-54.2205
 30
0.000000
  70
    32
  0
VERTEX
  8
0
  5
40ED
 10
-138.772
 20
-54.1210
 30
0.000000
  70
    32
  0
VERTEX
  8
0
  5
40EE
 10
-138.830
 20
-54.0217
 30
0.000000
  70
    32
  0
VERTEX
  8
0
  5
40EF
 10
-138.890
 20
-53.9226
 30
0.000000
  70
    32
  0
VERTEX
  8
0
  5
40F0
 10
-138.949
 20
-53.8237
 30
0.000000
  70
    32
  0
VERTEX
  8
0
  5
40F1
 10
-139.010
 20
-53.7249
 30
0.000000
  70
    32
  0
VERTEX
  8
0
  5
40F2
 10
-139.070
 20
-53.6264
 30
0.000000
  70
    32
  0
VERTEX
  8
0
  5
40F3
 10
-139.131
 20
-53.5280
 30
0.000000
  70
    32
  0
VERTEX
  8
0
  5
40F4
 10
-139.192
 20
-53.4298
 30
0.000000
  70
    32
  0
VERTEX
  8
0
  5
40F5
 10
-139.254
 20
-53.3318
 30
0.000000
  70
    32
  0
VERTEX
  8
0
  5
40F6
 10
-139.316
 20
-53.2340
 30
0.000000
  70
    32
  0
VERTEX
  8
0
  5
40F7
 10
-139.379
 20
-53.1363
 30
0.000000
  70
    32
  0
VERTEX
  8
0
  5
40F8
 10
-139.442
 20
-53.0389
 30
0.000000
  70
    32
  0
VERTEX
  8
0
  5
40F9
 10
-139.505
 20
-52.9416
 30
0.000000
  70
    32
  0
VERTEX
  8
0
  5
40FA
 10
-139.569
 20
-52.8444
 30
0.000000
  70
    32
  0
VERTEX
  8
0
  5
40FB
 10
-139.633
 20
-52.7475
 30
0.000000
  70
    32
  0
VERTEX
  8
0
  5
40FC
 10
-139.697
 20
-52.6507
 30
0.000000
  70
    32
  0
VERTEX
  8
0
  5
40FD
 10
-139.762
 20
-52.5541
 30
0.000000
  70
    32
  0
VERTEX
  8
0
  5
40FE
 10
-139.827
 20
-52.4576
 30
0.000000
  70
    32
  0
VERTEX
  8
0
  5
40FF
 10
-139.892
 20
-52.3613
 30
0.000000
  70
    32
  0
VERTEX
  8
0
  5
4100
 10
-139.958
 20
-52.2652
 30
0.000000
  70
    32
  0
VERTEX
  8
0
  5
4101
 10
-140.024
 20
-52.1692
 30
0.000000
  70
    32
  0
VERTEX
  8
0
  5
4102
 10
-140.091
 20
-52.0734
 30
0.000000
  70
    32
  0
VERTEX
  8
0
  5
4103
 10
-140.158
 20
-51.9777
 30
0.000000
  70
    32
  0
VERTEX
  8
0
  5
4104
 10
-140.225
 20
-51.8822
 30
0.000000
  70
    32
  0
VERTEX
  8
0
  5
4105
 10
-140.293
 20
-51.7869
 30
0.000000
  70
    32
  0
VERTEX
  8
0
  5
4106
 10
-140.361
 20
-51.6917
 30
0.000000
  70
    32
  0
VERTEX
  8
0
  5
4107
 10
-140.429
 20
-51.5966
 30
0.000000
  70
    32
  0
VERTEX
  8
0
  5
4108
 10
-140.497
 20
-51.5017
 30
0.000000
  70
    32
  0
VERTEX
  8
0
  5
4109
 10
-140.566
 20
-51.4069
 30
0.000000
  70
    32
  0
VERTEX
  8
0
  5
410A
 10
-140.635
 20
-51.3122
 30
0.000000
  70
    32
  0
VERTEX
  8
0
  5
410B
 10
-140.705
 20
-51.2177
 30
0.000000
  70
    32
  0
VERTEX
  8
0
  5
410C
 10
-140.774
 20
-51.1234
 30
0.000000
  70
    32
  0
VERTEX
  8
0
  5
410D
 10
-140.845
 20
-51.0292
 30
0.000000
  70
    32
  0
VERTEX
  8
0
  5
410E
 10
-140.915
 20
-50.9351
 30
0.000000
  70
    32
  0
VERTEX
  8
0
  5
410F
 10
-140.985
 20
-50.8411
 30
0.000000
  70
    32
  0
VERTEX
  8
0
  5
4110
 10
-141.056
 20
-50.7473
 30
0.000000
  70
    32
  0
VERTEX
  8
0
  5
4111
 10
-141.128
 20
-50.6535
 30
0.000000
  70
    32
  0
VERTEX
  8
0
  5
4112
 10
-141.199
 20
-50.5600
 30
0.000000
  70
    32
  0
VERTEX
  8
0
  5
4113
 10
-141.271
 20
-50.4665
 30
0.000000
  70
    32
  0
VERTEX
  8
0
  5
4114
 10
-141.343
 20
-50.3732
 30
0.000000
  70
    32
  0
VERTEX
  8
0
  5
4115
 10
-141.415
 20
-50.2799
 30
0.000000
  70
    32
  0
SEQEND
  8
0
  5
4116
  0
POLYLINE
  8
0
  5
4117
  66
     1
 10
0.000000
 20
0.000000
 30
0.000000
  70
     8
  0
VERTEX
  8
0
  5
4118
 10
-134.825
 20
-67.3250
 30
0.000000
  70
    32
  0
VERTEX
  8
0
  5
4119
 10
-134.788
 20
-67.0940
 30
0.000000
  70
    32
  0
VERTEX
  8
0
  5
411A
 10
-134.752
 20
-66.8630
 30
0.000000
  70
    32
  0
VERTEX
  8
0
  5
411B
 10
-134.715
 20
-66.6321
 30
0.000000
  70
    32
  0
VERTEX
  8
0
  5
411C
 10
-134.678
 20
-66.4013
 30
0.000000
  70
    32
  0
VERTEX
  8
0
  5
411D
 10
-134.641
 20
-66.1705
 30
0.000000
  70
    32
  0
VERTEX
  8
0
  5
411E
 10
-134.604
 20
-65.9398
 30
0.000000
  70
    32
  0
VERTEX
  8
0
  5
411F
 10
-134.567
 20
-65.7093
 30
0.000000
  70
    32
  0
VERTEX
  8
0
  5
4120
 10
-134.529
 20
-65.4789
 30
0.000000
  70
    32
  0
VERTEX
  8
0
  5
4121
 10
-134.491
 20
-65.2487
 30
0.000000
  70
    32
  0
VERTEX
  8
0
  5
4122
 10
-134.452
 20
-65.0187
 30
0.000000
  70
    32
  0
VERTEX
  8
0
  5
4123
 10
-134.413
 20
-64.7889
 30
0.000000
  70
    32
  0
VERTEX
  8
0
  5
4124
 10
-134.373
 20
-64.5594
 30
0.000000
  70
    32
  0
VERTEX
  8
0
  5
4125
 10
-134.333
 20
-64.3301
 30
0.000000
  70
    32
  0
VERTEX
  8
0
  5
4126
 10
-134.292
 20
-64.1011
 30
0.000000
  70
    32
  0
VERTEX
  8
0
  5
4127
 10
-134.250
 20
-63.8724
 30
0.000000
  70
    32
  0
VERTEX
  8
0
  5
4128
 10
-134.208
 20
-63.6440
 30
0.000000
  70
    32
  0
VERTEX
  8
0
  5
4129
 10
-134.165
 20
-63.4160
 30
0.000000
  70
    32
  0
VERTEX
  8
0
  5
412A
 10
-134.121
 20
-63.1884
 30
0.000000
  70
    32
  0
VERTEX
  8
0
  5
412B
 10
-134.076
 20
-62.9611
 30
0.000000
  70
    32
  0
VERTEX
  8
0
  5
412C
 10
-134.030
 20
-62.7343
 30
0.000000
  70
    32
  0
VERTEX
  8
0
  5
412D
 10
-133.984
 20
-62.5079
 30
0.000000
  70
    32
  0
VERTEX
  8
0
  5
412E
 10
-133.936
 20
-62.2819
 30
0.000000
  70
    32
  0
VERTEX
  8
0
  5
412F
 10
-133.887
 20
-62.0565
 30
0.000000
  70
    32
  0
VERTEX
  8
0
  5
4130
 10
-133.838
 20
-61.8315
 30
0.000000
  70
    32
  0
VERTEX
  8
0
  5
4131
 10
-133.787
 20
-61.6071
 30
0.000000
  70
    32
  0
VERTEX
  8
0
  5
4132
 10
-133.734
 20
-61.3832
 30
0.000000
  70
    32
  0
VERTEX
  8
0
  5
4133
 10
-133.681
 20
-61.1599
 30
0.000000
  70
    32
  0
VERTEX
  8
0
  5
4134
 10
-133.626
 20
-60.9372
 30
0.000000
  70
    32
  0
VERTEX
  8
0
  5
4135
 10
-133.570
 20
-60.7151
 30
0.000000
  70
    32
  0
VERTEX
  8
0
  5
4136
 10
-133.513
 20
-60.4936
 30
0.000000
  70
    32
  0
VERTEX
  8
0
  5
4137
 10
-133.454
 20
-60.2728
 30
0.000000
  70
    32
  0
VERTEX
  8
0
  5
4138
 10
-133.393
 20
-60.0526
 30
0.000000
  70
    32
  0
VERTEX
  8
0
  5
4139
 10
-133.331
 20
-59.8332
 30
0.000000
  70
    32
  0
VERTEX
  8
0
  5
413A
 10
-133.268
 20
-59.6145
 30
0.000000
  70
    32
  0
VERTEX
  8
0
  5
413B
 10
-133.202
 20
-59.3965
 30
0.000000
  70
    32
  0
VERTEX
  8
0
  5
413C
 10
-133.136
 20
-59.1793
 30
0.000000
  70
    32
  0
VERTEX
  8
0
  5
413D
 10
-133.067
 20
-58.9629
 30
0.000000
  70
    32
  0
VERTEX
  8
0
  5
413E
 10
-132.996
 20
-58.7473
 30
0.000000
  70
    32
  0
VERTEX
  8
0
  5
413F
 10
-132.924
 20
-58.5325
 30
0.000000
  70
    32
  0
VERTEX
  8
0
  5
4140
 10
-132.850
 20
-58.3185
 30
0.000000
  70
    32
  0
VERTEX
  8
0
  5
4141
 10
-132.774
 20
-58.1055
 30
0.000000
  70
    32
  0
VERTEX
  8
0
  5
4142
 10
-132.696
 20
-57.8933
 30
0.000000
  70
    32
  0
VERTEX
  8
0
  5
4143
 10
-132.616
 20
-57.6821
 30
0.000000
  70
    32
  0
VERTEX
  8
0
  5
4144
 10
-132.534
 20
-57.4718
 30
0.000000
  70
    32
  0
VERTEX
  8
0
  5
4145
 10
-132.450
 20
-57.2625
 30
0.000000
  70
    32
  0
VERTEX
  8
0
  5
4146
 10
-132.363
 20
-57.0541
 30
0.000000
  70
    32
  0
VERTEX
  8
0
  5
4147
 10
-132.275
 20
-56.8467
 30
0.000000
  70
    32
  0
VERTEX
  8
0
  5
4148
 10
-132.184
 20
-56.6403
 30
0.000000
  70
    32
  0
VERTEX
  8
0
  5
4149
 10
-132.091
 20
-56.4348
 30
0.000000
  70
    32
  0
VERTEX
  8
0
  5
414A
 10
-131.996
 20
-56.2302
 30
0.000000
  70
    32
  0
VERTEX
  8
0
  5
414B
 10
-131.900
 20
-56.0266
 30
0.000000
  70
    32
  0
VERTEX
  8
0
  5
414C
 10
-131.801
 20
-55.8238
 30
0.000000
  70
    32
  0
VERTEX
  8
0
  5
414D
 10
-131.700
 20
-55.6219
 30
0.000000
  70
    32
  0
VERTEX
  8
0
  5
414E
 10
-131.597
 20
-55.4209
 30
0.000000
  70
    32
  0
VERTEX
  8
0
  5
414F
 10
-131.493
 20
-55.2207
 30
0.000000
  70
    32
  0
VERTEX
  8
0
  5
4150
 10
-131.387
 20
-55.0214
 30
0.000000
  70
    32
  0
VERTEX
  8
0
  5
4151
 10
-131.279
 20
-54.8229
 30
0.000000
  70
    32
  0
VERTEX
  8
0
  5
4152
 10
-131.169
 20
-54.6252
 30
0.000000
  70
    32
  0
VERTEX
  8
0
  5
4153
 10
-131.057
 20
-54.4283
 30
0.000000
  70
    32
  0
VERTEX
  8
0
  5
4154
 10
-130.944
 20
-54.2321
 30
0.000000
  70
    32
  0
VERTEX
  8
0
  5
4155
 10
-130.828
 20
-54.0368
 30
0.000000
  70
    32
  0
VERTEX
  8
0
  5
4156
 10
-130.712
 20
-53.8422
 30
0.000000
  70
    32
  0
VERTEX
  8
0
  5
4157
 10
-130.593
 20
-53.6483
 30
0.000000
  70
    32
  0
VERTEX
  8
0
  5
4158
 10
-130.474
 20
-53.4551
 30
0.000000
  70
    32
  0
VERTEX
  8
0
  5
4159
 10
-130.352
 20
-53.2626
 30
0.000000
  70
    32
  0
VERTEX
  8
0
  5
415A
 10
-130.229
 20
-53.0708
 30
0.000000
  70
    32
  0
VERTEX
  8
0
  5
415B
 10
-130.105
 20
-52.8797
 30
0.000000
  70
    32
  0
VERTEX
  8
0
  5
415C
 10
-129.979
 20
-52.6893
 30
0.000000
  70
    32
  0
VERTEX
  8
0
  5
415D
 10
-129.851
 20
-52.4995
 30
0.000000
  70
    32
  0
VERTEX
  8
0
  5
415E
 10
-129.723
 20
-52.3103
 30
0.000000
  70
    32
  0
VERTEX
  8
0
  5
415F
 10
-129.593
 20
-52.1217
 30
0.000000
  70
    32
  0
VERTEX
  8
0
  5
4160
 10
-129.461
 20
-51.9338
 30
0.000000
  70
    32
  0
VERTEX
  8
0
  5
4161
 10
-129.329
 20
-51.7464
 30
0.000000
  70
    32
  0
VERTEX
  8
0
  5
4162
 10
-129.195
 20
-51.5596
 30
0.000000
  70
    32
  0
VERTEX
  8
0
  5
4163
 10
-129.059
 20
-51.3733
 30
0.000000
  70
    32
  0
VERTEX
  8
0
  5
4164
 10
-128.923
 20
-51.1876
 30
0.000000
  70
    32
  0
VERTEX
  8
0
  5
4165
 10
-128.786
 20
-51.0025
 30
0.000000
  70
    32
  0
VERTEX
  8
0
  5
4166
 10
-128.647
 20
-50.8178
 30
0.000000
  70
    32
  0
VERTEX
  8
0
  5
4167
 10
-128.507
 20
-50.6336
 30
0.000000
  70
    32
  0
VERTEX
  8
0
  5
4168
 10
-128.366
 20
-50.4499
 30
0.000000
  70
    32
  0
VERTEX
  8
0
  5
4169
 10
-128.225
 20
-50.2667
 30
0.000000
  70
    32
  0
VERTEX
  8
0
  5
416A
 10
-128.082
 20
-50.0839
 30
0.000000
  70
    32
  0
VERTEX
  8
0
  5
416B
 10
-127.938
 20
-49.9015
 30
0.000000
  70
    32
  0
VERTEX
  8
0
  5
416C
 10
-127.793
 20
-49.7196
 30
0.000000
  70
    32
  0
VERTEX
  8
0
  5
416D
 10
-127.648
 20
-49.5381
 30
0.000000
  70
    32
  0
VERTEX
  8
0
  5
416E
 10
-127.501
 20
-49.3570
 30
0.000000
  70
    32
  0
VERTEX
  8
0
  5
416F
 10
-127.354
 20
-49.1762
 30
0.000000
  70
    32
  0
VERTEX
  8
0
  5
4170
 10
-127.206
 20
-48.9958
 30
0.000000
  70
    32
  0
VERTEX
  8
0
  5
4171
 10
-127.057
 20
-48.8158
 30
0.000000
  70
    32
  0
VERTEX
  8
0
  5
4172
 10
-126.907
 20
-48.6361
 30
0.000000
  70
    32
  0
VERTEX
  8
0
  5
4173
 10
-126.757
 20
-48.4567
 30
0.000000
  70
    32
  0
VERTEX
  8
0
  5
4174
 10
-126.606
 20
-48.2776
 30
0.000000
  70
    32
  0
VERTEX
  8
0
  5
4175
 10
-126.454
 20
-48.0988
 30
0.000000
  70
    32
  0
VERTEX
  8
0
  5
4176
 10
-126.302
 20
-47.9203
 30
0.000000
  70
    32
  0
VERTEX
  8
0
  5
4177
 10
-126.149
 20
-47.7421
 30
0.000000
  70
    32
  0
VERTEX
  8
0
  5
4178
 10
-125.996
 20
-47.5641
 30
0.000000
  70
    32
  0
VERTEX
  8
0
  5
4179
 10
-125.842
 20
-47.3863
 30
0.000000
  70
    32
  0
VERTEX
  8
0
  5
417A
 10
-125.688
 20
-47.2087
 30
0.000000
  70
    32
  0
VERTEX
  8
0
  5
417B
 10
-125.533
 20
-47.0313
 30
0.000000
  70
    32
  0
VERTEX
  8
0
  5
417C
 10
-125.378
 20
-46.8541
 30
0.000000
  70
    32
  0
VERTEX
  8
0
  5
417D
 10
-125.223
 20
-46.6771
 30
0.000000
  70
    32
  0
VERTEX
  8
0
  5
417E
 10
-125.067
 20
-46.5003
 30
0.000000
  70
    32
  0
VERTEX
  8
0
  5
417F
 10
-124.910
 20
-46.3235
 30
0.000000
  70
    32
  0
VERTEX
  8
0
  5
4180
 10
-124.754
 20
-46.1469
 30
0.000000
  70
    32
  0
VERTEX
  8
0
  5
4181
 10
-124.597
 20
-45.9705
 30
0.000000
  70
    32
  0
VERTEX
  8
0
  5
4182
 10
-124.440
 20
-45.7941
 30
0.000000
  70
    32
  0
VERTEX
  8
0
  5
4183
 10
-124.283
 20
-45.6178
 30
0.000000
  70
    32
  0
VERTEX
  8
0
  5
4184
 10
-124.126
 20
-45.4415
 30
0.000000
  70
    32
  0
VERTEX
  8
0
  5
4185
 10
-123.969
 20
-45.2653
 30
0.000000
  70
    32
  0
VERTEX
  8
0
  5
4186
 10
-123.811
 20
-45.0892
 30
0.000000
  70
    32
  0
VERTEX
  8
0
  5
4187
 10
-123.654
 20
-44.9131
 30
0.000000
  70
    32
  0
VERTEX
  8
0
  5
4188
 10
-123.496
 20
-44.7369
 30
0.000000
  70
    32
  0
VERTEX
  8
0
  5
4189
 10
-123.339
 20
-44.5608
 30
0.000000
  70
    32
  0
VERTEX
  8
0
  5
418A
 10
-123.181
 20
-44.3847
 30
0.000000
  70
    32
  0
VERTEX
  8
0
  5
418B
 10
-123.024
 20
-44.2085
 30
0.000000
  70
    32
  0
VERTEX
  8
0
  5
418C
 10
-122.867
 20
-44.0322
 30
0.000000
  70
    32
  0
VERTEX
  8
0
  5
418D
 10
-122.710
 20
-43.8559
 30
0.000000
  70
    32
  0
VERTEX
  8
0
  5
418E
 10
-122.553
 20
-43.6795
 30
0.000000
  70
    32
  0
VERTEX
  8
0
  5
418F
 10
-122.396
 20
-43.5031
 30
0.000000
  70
    32
  0
VERTEX
  8
0
  5
4190
 10
-122.240
 20
-43.3265
 30
0.000000
  70
    32
  0
VERTEX
  8
0
  5
4191
 10
-122.083
 20
-43.1497
 30
0.000000
  70
    32
  0
VERTEX
  8
0
  5
4192
 10
-121.927
 20
-42.9729
 30
0.000000
  70
    32
  0
VERTEX
  8
0
  5
4193
 10
-121.772
 20
-42.7959
 30
0.000000
  70
    32
  0
VERTEX
  8
0
  5
4194
 10
-121.617
 20
-42.6187
 30
0.000000
  70
    32
  0
VERTEX
  8
0
  5
4195
 10
-121.462
 20
-42.4413
 30
0.000000
  70
    32
  0
VERTEX
  8
0
  5
4196
 10
-121.308
 20
-42.2637
 30
0.000000
  70
    32
  0
VERTEX
  8
0
  5
4197
 10
-121.154
 20
-42.0859
 30
0.000000
  70
    32
  0
VERTEX
  8
0
  5
4198
 10
-121.001
 20
-41.9079
 30
0.000000
  70
    32
  0
VERTEX
  8
0
  5
4199
 10
-120.848
 20
-41.7297
 30
0.000000
  70
    32
  0
VERTEX
  8
0
  5
419A
 10
-120.696
 20
-41.5512
 30
0.000000
  70
    32
  0
VERTEX
  8
0
  5
419B
 10
-120.544
 20
-41.3724
 30
0.000000
  70
    32
  0
VERTEX
  8
0
  5
419C
 10
-120.393
 20
-41.1933
 30
0.000000
  70
    32
  0
VERTEX
  8
0
  5
419D
 10
-120.243
 20
-41.0139
 30
0.000000
  70
    32
  0
VERTEX
  8
0
  5
419E
 10
-120.093
 20
-40.8342
 30
0.000000
  70
    32
  0
VERTEX
  8
0
  5
419F
 10
-119.944
 20
-40.6542
 30
0.000000
  70
    32
  0
VERTEX
  8
0
  5
41A0
 10
-119.796
 20
-40.4738
 30
0.000000
  70
    32
  0
VERTEX
  8
0
  5
41A1
 10
-119.649
 20
-40.2930
 30
0.000000
  70
    32
  0
VERTEX
  8
0
  5
41A2
 10
-119.502
 20
-40.1119
 30
0.000000
  70
    32
  0
VERTEX
  8
0
  5
41A3
 10
-119.357
 20
-39.9304
 30
0.000000
  70
    32
  0
VERTEX
  8
0
  5
41A4
 10
-119.212
 20
-39.7485
 30
0.000000
  70
    32
  0
VERTEX
  8
0
  5
41A5
 10
-119.068
 20
-39.5661
 30
0.000000
  70
    32
  0
VERTEX
  8
0
  5
41A6
 10
-118.925
 20
-39.3833
 30
0.000000
  70
    32
  0
VERTEX
  8
0
  5
41A7
 10
-118.784
 20
-39.2001
 30
0.000000
  70
    32
  0
VERTEX
  8
0
  5
41A8
 10
-118.643
 20
-39.0164
 30
0.000000
  70
    32
  0
VERTEX
  8
0
  5
41A9
 10
-118.503
 20
-38.8322
 30
0.000000
  70
    32
  0
VERTEX
  8
0
  5
41AA
 10
-118.364
 20
-38.6475
 30
0.000000
  70
    32
  0
VERTEX
  8
0
  5
41AB
 10
-118.227
 20
-38.4624
 30
0.000000
  70
    32
  0
VERTEX
  8
0
  5
41AC
 10
-118.091
 20
-38.2767
 30
0.000000
  70
    32
  0
VERTEX
  8
0
  5
41AD
 10
-117.955
 20
-38.0904
 30
0.000000
  70
    32
  0
VERTEX
  8
0
  5
41AE
 10
-117.821
 20
-37.9036
 30
0.000000
  70
    32
  0
VERTEX
  8
0
  5
41AF
 10
-117.689
 20
-37.7162
 30
0.000000
  70
    32
  0
VERTEX
  8
0
  5
41B0
 10
-117.557
 20
-37.5283
 30
0.000000
  70
    32
  0
VERTEX
  8
0
  5
41B1
 10
-117.427
 20
-37.3397
 30
0.000000
  70
    32
  0
VERTEX
  8
0
  5
41B2
 10
-117.299
 20
-37.1505
 30
0.000000
  70
    32
  0
VERTEX
  8
0
  5
41B3
 10
-117.171
 20
-36.9607
 30
0.000000
  70
    32
  0
VERTEX
  8
0
  5
41B4
 10
-117.045
 20
-36.7703
 30
0.000000
  70
    32
  0
VERTEX
  8
0
  5
41B5
 10
-116.921
 20
-36.5792
 30
0.000000
  70
    32
  0
VERTEX
  8
0
  5
41B6
 10
-116.798
 20
-36.3874
 30
0.000000
  70
    32
  0
VERTEX
  8
0
  5
41B7
 10
-116.676
 20
-36.1949
 30
0.000000
  70
    32
  0
VERTEX
  8
0
  5
41B8
 10
-116.557
 20
-36.0017
 30
0.000000
  70
    32
  0
VERTEX
  8
0
  5
41B9
 10
-116.438
 20
-35.8078
 30
0.000000
  70
    32
  0
VERTEX
  8
0
  5
41BA
 10
-116.322
 20
-35.6132
 30
0.000000
  70
    32
  0
VERTEX
  8
0
  5
41BB
 10
-116.206
 20
-35.4179
 30
0.000000
  70
    32
  0
VERTEX
  8
0
  5
41BC
 10
-116.093
 20
-35.2217
 30
0.000000
  70
    32
  0
VERTEX
  8
0
  5
41BD
 10
-115.981
 20
-35.0248
 30
0.000000
  70
    32
  0
VERTEX
  8
0
  5
41BE
 10
-115.871
 20
-34.8271
 30
0.000000
  70
    32
  0
VERTEX
  8
0
  5
41BF
 10
-115.763
 20
-34.6286
 30
0.000000
  70
    32
  0
VERTEX
  8
0
  5
41C0
 10
-115.657
 20
-34.4293
 30
0.000000
  70
    32
  0
VERTEX
  8
0
  5
41C1
 10
-115.553
 20
-34.2291
 30
0.000000
  70
    32
  0
VERTEX
  8
0
  5
41C2
 10
-115.450
 20
-34.0281
 30
0.000000
  70
    32
  0
VERTEX
  8
0
  5
41C3
 10
-115.349
 20
-33.8262
 30
0.000000
  70
    32
  0
VERTEX
  8
0
  5
41C4
 10
-115.250
 20
-33.6234
 30
0.000000
  70
    32
  0
VERTEX
  8
0
  5
41C5
 10
-115.154
 20
-33.4198
 30
0.000000
  70
    32
  0
VERTEX
  8
0
  5
41C6
 10
-115.059
 20
-33.2152
 30
0.000000
  70
    32
  0
VERTEX
  8
0
  5
41C7
 10
-114.966
 20
-33.0097
 30
0.000000
  70
    32
  0
VERTEX
  8
0
  5
41C8
 10
-114.875
 20
-32.8033
 30
0.000000
  70
    32
  0
VERTEX
  8
0
  5
41C9
 10
-114.787
 20
-32.5959
 30
0.000000
  70
    32
  0
VERTEX
  8
0
  5
41CA
 10
-114.700
 20
-32.3875
 30
0.000000
  70
    32
  0
VERTEX
  8
0
  5
41CB
 10
-114.616
 20
-32.1782
 30
0.000000
  70
    32
  0
VERTEX
  8
0
  5
41CC
 10
-114.534
 20
-31.9679
 30
0.000000
  70
    32
  0
VERTEX
  8
0
  5
41CD
 10
-114.454
 20
-31.7567
 30
0.000000
  70
    32
  0
VERTEX
  8
0
  5
41CE
 10
-114.376
 20
-31.5445
 30
0.000000
  70
    32
  0
VERTEX
  8
0
  5
41CF
 10
-114.300
 20
-31.3315
 30
0.000000
  70
    32
  0
VERTEX
  8
0
  5
41D0
 10
-114.226
 20
-31.1175
 30
0.000000
  70
    32
  0
VERTEX
  8
0
  5
41D1
 10
-114.154
 20
-30.9027
 30
0.000000
  70
    32
  0
VERTEX
  8
0
  5
41D2
 10
-114.083
 20
-30.6871
 30
0.000000
  70
    32
  0
VERTEX
  8
0
  5
41D3
 10
-114.014
 20
-30.4707
 30
0.000000
  70
    32
  0
VERTEX
  8
0
  5
41D4
 10
-113.948
 20
-30.2535
 30
0.000000
  70
    32
  0
VERTEX
  8
0
  5
41D5
 10
-113.882
 20
-30.0355
 30
0.000000
  70
    32
  0
VERTEX
  8
0
  5
41D6
 10
-113.819
 20
-29.8168
 30
0.000000
  70
    32
  0
VERTEX
  8
0
  5
41D7
 10
-113.757
 20
-29.5974
 30
0.000000
  70
    32
  0
VERTEX
  8
0
  5
41D8
 10
-113.696
 20
-29.3772
 30
0.000000
  70
    32
  0
VERTEX
  8
0
  5
41D9
 10
-113.637
 20
-29.1564
 30
0.000000
  70
    32
  0
VERTEX
  8
0
  5
41DA
 10
-113.580
 20
-28.9349
 30
0.000000
  70
    32
  0
VERTEX
  8
0
  5
41DB
 10
-113.524
 20
-28.7128
 30
0.000000
  70
    32
  0
VERTEX
  8
0
  5
41DC
 10
-113.469
 20
-28.4901
 30
0.000000
  70
    32
  0
VERTEX
  8
0
  5
41DD
 10
-113.416
 20
-28.2668
 30
0.000000
  70
    32
  0
VERTEX
  8
0
  5
41DE
 10
-113.363
 20
-28.0429
 30
0.000000
  70
    32
  0
VERTEX
  8
0
  5
41DF
 10
-113.312
 20
-27.8185
 30
0.000000
  70
    32
  0
VERTEX
  8
0
  5
41E0
 10
-113.263
 20
-27.5935
 30
0.000000
  70
    32
  0
VERTEX
  8
0
  5
41E1
 10
-113.214
 20
-27.3681
 30
0.000000
  70
    32
  0
VERTEX
  8
0
  5
41E2
 10
-113.166
 20
-27.1421
 30
0.000000
  70
    32
  0
VERTEX
  8
0
  5
41E3
 10
-113.120
 20
-26.9157
 30
0.000000
  70
    32
  0
VERTEX
  8
0
  5
41E4
 10
-113.074
 20
-26.6889
 30
0.000000
  70
    32
  0
VERTEX
  8
0
  5
41E5
 10
-113.029
 20
-26.4616
 30
0.000000
  70
    32
  0
VERTEX
  8
0
  5
41E6
 10
-112.985
 20
-26.2340
 30
0.000000
  70
    32
  0
VERTEX
  8
0
  5
41E7
 10
-112.942
 20
-26.0060
 30
0.000000
  70
    32
  0
VERTEX
  8
0
  5
41E8
 10
-112.900
 20
-25.7776
 30
0.000000
  70
    32
  0
VERTEX
  8
0
  5
41E9
 10
-112.858
 20
-25.5489
 30
0.000000
  70
    32
  0
VERTEX
  8
0
  5
41EA
 10
-112.817
 20
-25.3199
 30
0.000000
  70
    32
  0
VERTEX
  8
0
  5
41EB
 10
-112.777
 20
-25.0906
 30
0.000000
  70
    32
  0
VERTEX
  8
0
  5
41EC
 10
-112.737
 20
-24.8611
 30
0.000000
  70
    32
  0
VERTEX
  8
0
  5
41ED
 10
-112.698
 20
-24.6313
 30
0.000000
  70
    32
  0
VERTEX
  8
0
  5
41EE
 10
-112.659
 20
-24.4013
 30
0.000000
  70
    32
  0
VERTEX
  8
0
  5
41EF
 10
-112.621
 20
-24.1711
 30
0.000000
  70
    32
  0
VERTEX
  8
0
  5
41F0
 10
-112.583
 20
-23.9407
 30
0.000000
  70
    32
  0
VERTEX
  8
0
  5
41F1
 10
-112.546
 20
-23.7102
 30
0.000000
  70
    32
  0
VERTEX
  8
0
  5
41F2
 10
-112.509
 20
-23.4795
 30
0.000000
  70
    32
  0
VERTEX
  8
0
  5
41F3
 10
-112.472
 20
-23.2487
 30
0.000000
  70
    32
  0
VERTEX
  8
0
  5
41F4
 10
-112.435
 20
-23.0179
 30
0.000000
  70
    32
  0
VERTEX
  8
0
  5
41F5
 10
-112.398
 20
-22.7870
 30
0.000000
  70
    32
  0
VERTEX
  8
0
  5
41F6
 10
-112.362
 20
-22.5560
 30
0.000000
  70
    32
  0
VERTEX
  8
0
  5
41F7
 10
-112.325
 20
-22.3250
 30
0.000000
  70
    32
  0
SEQEND
  8
0
  5
41F8
  0
POLYLINE
  5
22DF
  8
0
 66
     1
 10
0.0
 20
0.0
 30
0.0
  0
VERTEX
  5
3D12
  8
0
 10
-141.41509742330319
 20
-83.234902576697166
 30
0.0
 42
0.1989123673796545
  0
VERTEX
  5
3D13
  8
0
 10
-134.8250000000007
 20
-67.32499999999996
 30
0.0
  0
SEQEND
  5
3D14
  8
0
  0
POLYLINE
  5
22E0
  8
0
 66
     1
 10
0.0
 20
0.0
 30
0.0
  0
VERTEX
  5
3D15
  8
0
 10
-134.8250000000007
 20
-67.325000000000188
 30
0.0
 42
0.4142135623731025
  0
VERTEX
  5
3D16
  8
0
 10
-112.325
 20
-89.825000000000301
 30
0.0
 42
0.4142135623731025
  0
SEQEND
  5
3D17
  8
0
  0
POINT
  5
22E1
  8
DEFPOINTS
 10
-112.325
 20
-44.82499999999996
 30
0.0
  0
POLYLINE
  5
2449
  8
0
 66
     1
 10
0.0
 20
0.0
 30
0.0
  0
VERTEX
  5
3D18
  8
0
 10
-141.41509742330319
 20
111.175
 30
0.0
  0
VERTEX
  5
3D19
  8
0
 10
-128.82499999999999
 20
111.175
 30
0.0
  0
SEQEND
  5
3D1A
  8
0
  0
POLYLINE
  5
244A
  8
0
 66
     1
 10
0.0
 20
0.0
 30
0.0
  0
VERTEX
  5
3D1B
  8
0
 10
111.1749999999999
 20
-179.82499999999951
 30
0.0
  0
VERTEX
  5
3D1C
  8
0
 10
111.1749999999999
 20
-178.6949980106229
 30
0.0
  0
SEQEND
  5
3D1D
  8
0
  0
INSERT
  5
2528
  8
0
  6
CONTINUOUS
  2
*X12
 10
0.0
 20
0.0
 30
0.0
1001
ACAD
1000
HATCH
1002
{
1070
    19
1000
AR-SAND
1040
0.1
1040
0.0
1000
R14_HATCH_DATA
1000
2528
1011
1.0
1021
-0.0
1031
-1.8832276890478811E+281
1021
0.0
1031
0.0
1011
0.0
1021
-0.0
1031
-1.8832276890478811E+281
1021
1.0
1031
0.0
1011
0.0
1021
-0.0
1031
-1.8832276890478811E+281
1021
0.0
1031
1.0
1040
0.0
1010
0.0
1020
0.0
1030
1.0
1000
AR-SAND
1070
     0
1070
     0
1071
        1
1071
        7
1070
     1
1070
     1
1071
      143
1040
117.1191119643449
1040
-68.421909535169789
1040
0.0
1040
115.9947169288409
1040
-66.021572940336853
1040
0.0
1040
116.3691821580438
1040
-63.215851146737663
1040
0.0
1040
115.9998813896669
1040
-59.281547910701498
1040
0.0
1040
116.87795903726099
1040
-56.09452179013897
1040
0.0
1040
116.28741299704279
1040
-53.923643688395202
1040
0.0
1040
116.0146871896869
1040
-53.50980324415309
1040
0.0
1040
116.0855610315853
1040
-53.167001635871031
1040
0.0
1040
116.31626392202701
1040
-52.161788435847512
1040
0.0
1040
116.32920035404069
1040
-49.873526436172853
1040
0.0
1040
115.9312359264725
1040
-46.001341322806667
1040
0.0
1040
116.409359661054
1040
-42.561141780170587
1040
0.0
1040
115.73998690663279
1040
-40.984383310611548
1040
0.0
1040
116.9168171200409
1040
-36.042700405810372
1040
0.0
1040
115.2408844044658
1040
-27.81946661431769
1040
0.0
1040
116.1102479690617
1040
-23.212635023289518
1040
0.0
1040
115.5824525659619
1040
-16.84534425939216
1040
0.0
1040
114.8144490017376
1040
-10.9752125661451
1040
0.0
1040
115.7718933029392
1040
-7.6908492211567241
1040
0.0
1040
116.3854296953219
1040
-3.0183461051281588
1040
0.0
1040
115.3180806635101
1040
2.1370697962390182
1040
0.0
1040
115.85175399443369
1040
11.025719046929851
1040
0.0
1040
117.0969949265414
1040
14.04785973682851
1040
0.0
1040
115.67386446410229
1040
19.203275638195691
1040
0.0
1040
115.67386446410229
1040
24.180918720557429
1040
0.0
1040
116.4566637162807
1040
31.74075958803655
1040
0.0
1040
115.784669781197
1040
38.1204359577589
1040
0.0
1040
116.79266068382231
1040
42.261630701329068
1040
0.0
1040
115.7027164111082
1040
46.470673061590333
1040
0.0
1040
115.2125248176344
1040
54.308504611543867
1040
0.0
1040
116.35172169119279
1040
55.304702795067897
1040
0.0
1040
114.9984080109821
1040
58.573032499295998
1040
0.0
1040
115.74012758166261
1040
62.955352318462239
1040
0.0
1040
115.4495117810643
1040
69.054230381378147
1040
0.0
1040
115.3367358385438
1040
71.420952082150734
1040
0.0
1040
115.520345650084
1040
72.827699921559315
1040
0.0
1040
115.40391403742581
1040
76.098410462348966
1040
0.0
1040
115.7408921702432
1040
78.20312946910849
1040
0.0
1040
115.1511786603397
1040
81.402301474005057
1040
0.0
1040
115.1511786603397
1040
84.012153485075942
1040
0.0
1040
116.1736732021041
1040
85.750426688988114
1040
0.0
1040
115.6735792319292
1040
88.808121164685303
1040
0.0
1040
116.206036304272
1040
93.606414089627492
1040
0.0
1040
115.232846351706
1040
96.857593009535904
1040
0.0
1040
116.3573508104006
1040
100.40133726335139
1040
0.0
1040
115.23854028569031
1040
102.80428190985459
1040
0.0
1040
115.6195286103972
1040
105.60912537917621
1040
0.0
1040
115.2593772238192
1040
109.54427670909411
1040
0.0
1040
116.14486324732979
1040
112.7292524312182
1040
0.0
1040
115.5593667178475
1040
114.9014978529447
1040
0.0
1040
115.0158411732034
1040
115.7304448352501
1040
0.0
1040
114.01062797317989
1040
115.9611477256918
1040
0.0
1040
111.7223659735053
1040
115.97408415770551
1040
0.0
1040
107.85018086013901
1040
115.57611973013729
1040
0.0
1040
104.409981317503
1040
116.0542434647187
1040
0.0
1040
102.8332228479439
1040
115.38487071029761
1040
0.0
1040
97.891539943142675
1040
116.5617009237056
1040
0.0
1040
89.668306151649972
1040
114.8857682081305
1040
0.0
1040
85.061474560621988
1040
115.7551317727265
1040
0.0
1040
78.694183796725156
1040
115.2273363696266
1040
0.0
1040
72.824052103477527
1040
114.4593328054023
1040
0.0
1040
69.539688758489405
1040
115.4167771066039
1040
0.0
1040
64.867185642460413
1040
116.0303134989866
1040
0.0
1040
59.71176974109337
1040
114.9629644671748
1040
0.0
1040
50.82312049040258
1040
115.4966377980985
1040
0.0
1040
47.800979800503853
1040
116.7418787302061
1040
0.0
1040
42.645563899136782
1040
115.31874826776711
1040
0.0
1040
37.667920816774881
1040
115.31874826776711
1040
0.0
1040
30.108079949295981
1040
116.1015475199455
1040
0.0
1040
23.728403579573438
1040
115.42955358486169
1040
0.0
1040
19.587208836003381
1040
116.4375444874871
1040
0.0
1040
15.378166475741979
1040
115.347600214773
1040
0.0
1040
7.5403349257884988
1040
114.8574086212992
1040
0.0
1040
6.5441367422645271
1040
115.9966054948576
1040
0.0
1040
3.27580703803639
1040
114.6432918146469
1040
0.0
1040
-1.1065127811298221
1040
115.3850113853274
1040
0.0
1040
-7.205390844045751
1040
115.0943955847291
1040
0.0
1040
-9.572112544818367
1040
114.9816196422085
1040
0.0
1040
-11.93883424559095
1040
114.868843699688
1040
0.0
1040
-18.037712308506801
1040
114.5782278990897
1040
0.0
1040
-22.420032127673181
1040
115.3199474697702
1040
0.0
1040
-23.6353420358449
1040
115.1550375220439
1040
0.0
1040
-27.112769784864302
1040
115.7684414432823
1040
0.0
1040
-34.522391565379081
1040
114.6156390696441
1040
0.0
1040
-38.731433925640012
1040
113.52569479693
1040
0.0
1040
-42.872628669210229
1040
114.53368569955531
1040
0.0
1040
-49.252305038932398
1040
113.8616917644716
1040
0.0
1040
-56.812145906411843
1040
114.64449101664999
1040
0.0
1040
-61.78978898877358
1040
114.64449101664999
1040
0.0
1040
-66.945204890140587
1040
113.2213605542109
1040
0.0
1040
-69.96734558003925
1040
114.46660148631859
1040
0.0
1040
-78.855994830730197
1040
115.0002748172422
1040
0.0
1040
-84.011410732097204
1040
113.9329257854305
1040
0.0
1040
-88.683913848125712
1040
114.5464621778131
1040
0.0
1040
-91.968277193114091
1040
115.5039064790147
1040
0.0
1040
-97.838408886360426
1040
114.7359029147904
1040
0.0
1040
-104.2056996502585
1040
114.2081075116906
1040
0.0
1040
-108.81253124128681
1040
115.0774710762865
1040
0.0
1040
-117.03576503277949
1040
113.4015383607114
1040
0.0
1040
-121.97744793758061
1040
114.57836857411949
1040
0.0
1040
-123.5542064071397
1040
113.9089958196983
1040
0.0
1040
-126.9944059497759
1040
114.38711955427981
1040
0.0
1040
-130.86659106314181
1040
113.98915512671149
1040
0.0
1040
-133.1548530628165
1040
114.0020915587253
1040
0.0
1040
-134.16006626283999
1040
114.232794449167
1040
0.0
1040
-134.4318290351622
1040
114.64726794031969
1040
0.0
1040
-136.7985507359333
1040
114.53449199779919
1040
0.0
1040
-141.41509742330319
1040
114.3932127156372
1040
0.0
1040
-141.41509742330319
1040
111.175
1040
0.0
1040
-128.82499999999999
1040
111.175
1040
0.4000000000000039
1040
-118.8249999999999
1040
111.1750000000002
1040
0.0
1040
111.1749999999999
1040
111.1750000000002
1040
0.0
1040
111.1749999999999
1040
41.175000000000061
1040
0.3999999999999976
1040
111.1749999999999
1040
31.175000000000072
1040
0.0
1040
111.1749999999999
1040
-179.82499999999951
1040
0.0
1040
116.0232806958949
1040
-179.82499999999951
1040
0.0
1040
115.936224058164
1040
-179.30016272676281
1040
0.0
1040
116.6010449233567
1040
-176.51639089422559
1040
0.0
1040
117.2145813157393
1040
-171.843887778197
1040
0.0
1040
116.14723228392759
1040
-166.68847187682991
1040
0.0
1040
116.6809056148512
1040
-157.79982262613899
1040
0.0
1040
117.9261465469589
1040
-154.77768193624041
1040
0.0
1040
116.5030160845198
1040
-149.62226603487321
1040
0.0
1040
116.5030160845198
1040
-144.6446229525115
1040
0.0
1040
117.28581533669821
1040
-137.08478208503229
1040
0.0
1040
116.6138214016145
1040
-130.70510571531
1040
0.0
1040
117.6218123042398
1040
-126.5639109717398
1040
0.0
1040
116.5318680315257
1040
-122.35486861147849
1040
0.0
1040
116.04167643805189
1040
-114.517037061525
1040
0.0
1040
117.1808733116103
1040
-113.520838878001
1040
0.0
1040
115.82755963139959
1040
-110.25250917377291
1040
0.0
1040
116.5692792020801
1040
-105.87018935460659
1040
0.0
1040
116.27866340148179
1040
-99.771311291690751
1040
0.0
1040
116.16588745896129
1040
-97.404589590918164
1040
0.0
1040
116.346225681927
1040
-95.997418609156469
1040
0.0
1040
116.222189043977
1040
-92.726987647569786
1040
0.0
1040
116.5542721904457
1040
-90.621490760076654
1040
0.0
1040
115.95712128237361
1040
-87.423698657130387
1040
0.0
1040
115.9510526279299
1040
-84.813853701750105
1040
0.0
1040
116.9695024216537
1040
-83.073207604164111
1040
0.0
1040
116.462299786857
1040
-80.016684256802023
1040
0.0
1040
116.9835980124876
1040
-75.217166188558849
1040
0.0
1040
116.0028507674818
1040
-71.968259003912635
1040
0.0
1071
        0
1070
     0
1070
     1
1040
0.0
1040
0.1
1070
     0
1070
     4
1040
0.6544984694978737
1040
197.96235229852161
1040
-274.34078625083731
1040
-0.1600031295984046
1040
4.8941323732934228
1070
     6
1040
0.0
1040
-3.8607999999999998
1040
0.0
1040
-4.3179999999999996
1040
0.0
1040
-4.1275000000000004
1040
0.1308996938995747
1040
197.96235229852161
1040
-274.34078625083731
1040
4.4952328313800258
1040
7.1682510056835431
1070
     6
1040
0.0
1040
-2.0828000000000002
1040
0.0
1040
-3.4798
1040
0.0
1040
-1.3334999999999999
1040
5.715953300281428
1040
194.83815229852161
1040
-274.34078625083731
1040
7.909923702414579
1040
0.0143718467854569
1070
     6
1040
0.0
1040
-1.27
1040
0.0
1040
-4.5720000000000001
1040
0.0
1040
-5.9690000000000003
1040
5.5414203750819961
1040
194.83815229852161
1040
-274.34078625083731
1040
7.6355645247229722
1040
2.2292932325721622
1070
     6
1040
0.0
1040
-0.635
1040
0.0
1040
-2.997199999999999
1040
0.0
1040
-3.4289999999999998
1040
0.5325324606043931
1071
        1
1040
114.1952553462865
1040
-70.154320813467962
1040
0.0
1002
}
  0
INSERT
  5
263F
  8
0
  6
CONTINUOUS
  2
*U13
 10
0.0
 20
0.0
 30
0.0
  0
INSERT
  5
2640
  8
0
  6
CONTINUOUS
  2
*U14
 10
0.0
 20
0.0
 30
0.0
  0
INSERT
  5
2650
  8
0
  6
CONTINUOUS
  2
*U15
 10
0.0
 20
0.0
 30
0.0
  0
INSERT
  5
2651
  8
0
  6
CONTINUOUS
  2
*U16
 10
0.0
 20
0.0
 30
0.0
  0
INSERT
  5
2652
  8
0
  6
CONTINUOUS
  2
*U17
 10
0.0
 20
0.0
 30
0.0
  0
INSERT
  5
2653
  8
0
  6
CONTINUOUS
  2
*U18
 10
0.0
 20
0.0
 30
0.0
  0
INSERT
  5
2654
  8
0
  6
CONTINUOUS
  2
*U19
 10
0.0
 20
0.0
 30
0.0
  0
INSERT
  5
2655
  8
0
  6
CONTINUOUS
  2
*U20
 10
0.0
 20
0.0
 30
0.0
  0
INSERT
  5
2656
  8
0
  6
CONTINUOUS
  2
*U21
 10
0.0
 20
0.0
 30
0.0
  0
INSERT
  5
2657
  8
0
  6
CONTINUOUS
  2
*U22
 10
0.0
 20
0.0
 30
0.0
  0
INSERT
  5
2658
  8
0
  6
CONTINUOUS
  2
*U23
 10
0.0
 20
0.0
 30
0.0
  0
INSERT
  5
2659
  8
0
  6
CONTINUOUS
  2
*U24
 10
0.0
 20
0.0
 30
0.0
  0
POLYLINE
  5
2BB8
  8
0
 66
     1
 10
0.0
 20
0.0
 30
0.0
 40
0.35
 41
0.35
  0
VERTEX
  5
3FE1
  8
0
 10
-141.41509742330319
 20
111.0
 30
0.0
  0
VERTEX
  5
3FE2
  8
0
 10
-129.0
 20
111.0
 30
0.0
  0
VERTEX
  5
3FE3
  8
0
 10
-129.0
 20
41.350000000000058
 30
0.0
  0
VERTEX
  5
3FE4
  8
0
 10
-141.41509742330319
 20
41.350000000000058
 30
0.0
  0
SEQEND
  5
3FE5
  8
0
  0
POLYLINE
  5
2C18
  8
0
 66
     1
 10
0.0
 20
0.0
 30
0.0
  0
VERTEX
  5
3FE6
  8
0
 10
-112.325
 20
0.1749999999996845
 30
0.0
  0
VERTEX
  5
3FE7
  8
0
 10
-141.4150974233026
 20
0.1749999999996845
 30
0.0
  0
SEQEND
  5
3FE8
  8
0
  0
POLYLINE
  5
3B7D
  8
0
 66
     1
 10
0.0
 20
0.0
 30
0.0
 70
     1
  0
VERTEX
  5
3FF4
  8
0
 10
0.1749999999999545
 20
-134.8249999999999
 30
0.0
  0
VERTEX
  5
3FF5
  8
0
 10
-89.825000000000045
 20
-134.8249999999999
 30
0.0
  0
VERTEX
  5
3FF6
  8
0
 10
-89.825000000000074
 20
-89.824999999999974
 30
0.0
  0
VERTEX
  5
3FF7
  8
0
 10
0.1749999999999511
 20
-89.82499999999996
 30
0.0
  0
SEQEND
  5
3FF8
  8
0
  0
POLYLINE
  5
3B7E
  8
0
 66
     1
 10
0.0
 20
0.0
 30
0.0
 70
     1
 40
0.35
 41
0.35
  0
VERTEX
  5
3FF9
  8
0
 10
-0.0000000000000455
 20
-134.64999999999989
 30
0.0
  0
VERTEX
  5
3FFA
  8
0
 10
-89.650000000000034
 20
-134.65000000000001
 30
0.0
  0
VERTEX
  5
3FFB
  8
0
 10
-89.650000000000048
 20
-89.999999999999957
 30
0.0
  0
VERTEX
  5
3FFC
  8
0
 10
-0.000000000000074
 20
-89.999999999999957
 30
0.0
  0
SEQEND
  5
3FFD
  8
0
  0
POLYLINE
  5
3B7F
  8
0
  6
CONTINUOUS
 66
     1
 10
0.0
 20
0.0
 30
0.0
  0
VERTEX
  5
3FFE
  8
0
  6
CONTINUOUS
 10
-89.650000000000034
 20
-134.65000000000001
 30
0.0
  0
VERTEX
  5
3FFF
  8
0
  6
CONTINUOUS
 10
-0.000000000000074
 20
-89.999999999999957
 30
0.0
  0
SEQEND
  5
4000
  8
0
  6
CONTINUOUS
  0
POLYLINE
  5
3B80
  8
0
  6
CONTINUOUS
 66
     1
 10
0.0
 20
0.0
 30
0.0
  0
VERTEX
  5
4001
  8
0
  6
CONTINUOUS
 10
-89.650000000000048
 20
-89.999999999999957
 30
0.0
  0
VERTEX
  5
4002
  8
0
  6
CONTINUOUS
 10
-0.0000000000000569
 20
-134.64999999999981
 30
0.0
  0
SEQEND
  5
4003
  8
0
  6
CONTINUOUS
  0
INSERT
  5
3B83
  8
0
  6
CONTINUOUS
  2
*X25
 10
0.0
 20
0.0
 30
0.0
1001
ACAD
1000
HATCH
1002
{
1070
    19
1000
ANSI32
1040
3.0
1040
1.5707963267948959
1000
R14_HATCH_DATA
1000
3B83
1011
1.0
1021
-0.0
1031
-1.8832276890478811E+281
1021
0.0
1031
0.0
1011
0.0
1021
-0.0
1031
-1.8832276890478811E+281
1021
1.0
1031
0.0
1011
0.0
1021
-0.0
1031
-1.8832276890478811E+281
1021
0.0
1031
1.0
1040
0.0
1010
0.0
1020
0.0
1030
1.0
1000
ANSI32
1070
     0
1070
     0
1071
        9
1071
        7
1070
     0
1070
     1
1071
        4
1040
111.1749999999999
1040
111.1750000000002
1040
-118.825
1040
111.1750000000002
1040
-118.825
1040
41.175000000000182
1040
111.1749999999999
1040
41.175000000000182
1071
        0
1071
       22
1070
     1
1070
     1
1071
        2
1040
-26.735786190549899
1040
59.871283999999378
1040
-1.0
1040
-41.212611809449193
1040
59.871283999999378
1040
-1.0
1071
        0
1071
       22
1070
     1
1070
     1
1071
        2
1040
-41.212611809449193
1040
92.478716000000986
1040
-1.0
1040
-26.735786190549899
1040
92.478716000000986
1040
-1.0
1071
        0
1071
       22
1070
     1
1070
     1
1071
        2
1040
30.764213809450101
1040
59.871283999999378
1040
-1.0
1040
16.287388190550811
1040
59.871283999999378
1040
-1.0
1071
        0
1071
       22
1070
     1
1070
     1
1071
        2
1040
16.287388190550811
1040
92.478716000000986
1040
-1.0
1040
30.764213809450101
1040
92.478716000000986
1040
-1.0
1071
        0
1071
       22
1070
     1
1070
     1
1071
        2
1040
-84.235786190549916
1040
59.871283999999378
1040
-1.0
1040
-98.712611809449186
1040
59.871283999999378
1040
-1.0
1071
        0
1071
       22
1070
     1
1070
     1
1071
        2
1040
-98.712611809449186
1040
92.478716000000986
1040
-1.0
1040
-84.235786190549916
1040
92.478716000000986
1040
-1.0
1071
        0
1071
       22
1070
     1
1070
     1
1071
        2
1040
91.062611809449095
1040
59.871283999999378
1040
-1.0
1040
76.585786190549811
1040
59.871283999999378
1040
-1.0
1071
        0
1071
       22
1070
     1
1070
     1
1071
        2
1040
76.585786190549811
1040
92.478716000000986
1040
-1.0
1040
91.062611809449095
1040
92.478716000000986
1040
-1.0
1071
        0
1070
     0
1070
     1
1040
1.5707963267948959
1040
3.0
1070
     0
1070
     2
1040
2.3561944901923439
1040
-118.825
1040
41.175000000000182
1040
-20.205576272405601
1040
-20.205576272405601
1070
     0
1040
2.3561944901923439
1040
-118.825
1040
54.645390000000177
1040
-20.205576272405601
1040
-20.205576272405601
1070
     0
1040
0.3788336310962341
1071
        9
1040
-18.934399033346718
1040
75.980393556389231
1040
0.0
1040
-18.934399033346718
1040
75.980393556389231
1040
0.0
1040
-18.934399033346718
1040
75.980393556389231
1040
0.0
1040
-18.934399033346718
1040
75.980393556389231
1040
0.0
1040
-18.934399033346718
1040
75.980393556389231
1040
0.0
1040
-18.934399033346718
1040
75.980393556389231
1040
0.0
1040
-18.934399033346718
1040
75.980393556389231
1040
0.0
1040
-18.934399033346718
1040
75.980393556389231
1040
0.0
1040
-18.934399033346718
1040
75.980393556389231
1040
0.0
1002
}
  0
CIRCLE
  5
3B84
  8
0
  6
CONTINUOUS
 10
83.824198999999453
 20
92.478716000000986
 30
0.0
 40
7.2384128094496338
  0
CIRCLE
  5
3B85
  8
0
  6
CONTINUOUS
 10
83.824198999999453
 20
59.871283999999378
 30
0.0
 40
7.2384128094496338
  0
POLYLINE
  5
3B86
  8
0
  6
CONTINUOUS
 66
     1
 10
0.0
 20
0.0
 30
0.0
 70
     1
  0
VERTEX
  5
401F
  8
0
  6
CONTINUOUS
 10
111.1749999999999
 20
41.175000000000182
 30
0.0
  0
VERTEX
  5
4020
  8
0
  6
CONTINUOUS
 10
-118.825
 20
41.175000000000182
 30
0.0
  0
VERTEX
  5
4021
  8
0
  6
CONTINUOUS
 10
-118.825
 20
111.1750000000002
 30
0.0
  0
VERTEX
  5
4022
  8
0
  6
CONTINUOUS
 10
111.1749999999999
 20
111.1750000000002
 30
0.0
  0
SEQEND
  5
4023
  8
0
  6
CONTINUOUS
  0
POLYLINE
  5
3B87
  8
0
  6
CONTINUOUS
 66
     1
 10
0.0
 20
0.0
 30
0.0
 70
     1
 40
0.5
 41
0.5
  0
VERTEX
  5
4024
  8
0
  6
CONTINUOUS
 10
110.9249999999999
 20
41.425000000000182
 30
0.0
  0
VERTEX
  5
4025
  8
0
  6
CONTINUOUS
 10
-118.575
 20
41.425000000000182
 30
0.0
  0
VERTEX
  5
4026
  8
0
  6
CONTINUOUS
 10
-118.575
 20
110.9250000000002
 30
0.0
  0
VERTEX
  5
4027
  8
0
  6
CONTINUOUS
 10
110.9249999999999
 20
110.9250000000002
 30
0.0
  0
SEQEND
  5
4028
  8
0
  6
CONTINUOUS
  0
CIRCLE
  5
3B88
  8
0
  6
CONTINUOUS
 10
-91.474198999999544
 20
92.478716000000986
 30
0.0
 40
7.2384128094496338
  0
CIRCLE
  5
3B89
  8
0
  6
CONTINUOUS
 10
-91.474198999999544
 20
59.871283999999378
 30
0.0
 40
7.2384128094496338
  0
CIRCLE
  5
3B8A
  8
0
  6
CONTINUOUS
 10
-33.974198999999551
 20
92.478716000000986
 30
0.0
 40
7.2384128094496338
  0
CIRCLE
  5
3B8B
  8
0
  6
CONTINUOUS
 10
-33.974198999999551
 20
59.871283999999378
 30
0.0
 40
7.2384128094496338
  0
CIRCLE
  5
3B8C
  8
0
  6
CONTINUOUS
 10
23.52580100000046
 20
92.478716000000986
 30
0.0
 40
7.2384128094496338
  0
CIRCLE
  5
3B8D
  8
0
  6
CONTINUOUS
 10
23.52580100000046
 20
59.871283999999378
 30
0.0
 40
7.2384128094496338
  0
POLYLINE
  5
3B8E
  8
0
  6
CONTINUOUS
 66
     1
 10
0.0
 20
0.0
 30
0.0
  0
VERTEX
  5
4029
  8
0
  6
CONTINUOUS
 10
41.174999999999891
 20
-179.82499999999939
 30
0.0
  0
VERTEX
  5
402A
  8
0
  6
CONTINUOUS
 10
41.174999999999947
 20
31.175000000000072
 30
0.0
  0
VERTEX
  5
402B
  8
0
  6
CONTINUOUS
 10
111.1749999999999
 20
31.175000000000111
 30
0.0
  0
VERTEX
  5
402C
  8
0
  6
CONTINUOUS
 10
111.1749999999999
 20
-179.82499999999951
 30
0.0
  0
SEQEND
  5
402D
  8
0
  6
CONTINUOUS
  0
POLYLINE
  5
3B8F
  8
0
  6
CONTINUOUS
 66
     1
 10
0.0
 20
0.0
 30
0.0
 40
0.35
 41
0.35
  0
VERTEX
  5
402E
  8
0
  6
CONTINUOUS
 10
41.349999999999888
 20
-179.82499999999939
 30
0.0
  0
VERTEX
  5
402F
  8
0
  6
CONTINUOUS
 10
41.349999999999952
 20
31.000000000000028
 30
0.0
  0
VERTEX
  5
4030
  8
0
  6
CONTINUOUS
 10
110.9999999999999
 20
31.00000000000011
 30
0.0
  0
VERTEX
  5
4031
  8
0
  6
CONTINUOUS
 10
110.9999999999999
 20
-179.82499999999939
 30
0.0
  0
SEQEND
  5
4032
  8
0
  6
CONTINUOUS
  0
CIRCLE
  5
3B90
  8
0
  6
CONTINUOUS
 10
92.478716000000759
 20
3.824198999999612
 30
0.0
 40
7.2384128094496338
  0
CIRCLE
  5
3B91
  8
0
  6
CONTINUOUS
 10
59.87128399999915
 20
3.8241989999995631
 30
0.0
 40
7.2384128094496338
  0
CIRCLE
  5
3B92
  8
0
  6
CONTINUOUS
 10
92.478716000000716
 20
-53.675801000000419
 30
0.0
 40
7.2384128094496338
  0
CIRCLE
  5
3B93
  8
0
  6
CONTINUOUS
 10
59.871283999999108
 20
-53.675801000000398
 30
0.0
 40
7.2384128094496338
  0
CIRCLE
  5
3B94
  8
0
  6
CONTINUOUS
 10
92.478716000000716
 20
-111.1758010000004
 30
0.0
 40
7.2384128094496338
  0
CIRCLE
  5
3B95
  8
0
  6
CONTINUOUS
 10
59.871283999999122
 20
-111.1758010000004
 30
0.0
 40
7.2384128094496338
  0
INSERT
  5
3B96
  8
0
  6
CONTINUOUS
  2
*X26
 10
0.0
 20
0.0
 30
0.0
1001
ACAD
1000
HATCH
1002
{
1070
    19
1000
ANSI32
1040
3.0
1040
-0.0000000000000002
1000
R14_HATCH_DATA
1000
3B96
1011
1.0
1021
-0.0
1031
-1.8832276890478811E+281
1021
0.0
1031
0.0
1011
0.0
1021
-0.0
1031
-1.8832276890478811E+281
1021
1.0
1031
0.0
1011
0.0
1021
-0.0
1031
-1.8832276890478811E+281
1021
0.0
1031
1.0
1040
0.0
1010
0.0
1020
0.0
1030
1.0
1000
ANSI32
1070
     0
1070
     0
1071
        9
1071
       22
1070
     1
1070
     1
1071
        2
1040
59.8712839999991
1040
-60.91421380945004
1040
-1.0
1040
59.8712839999991
1040
-46.437388190550763
1040
-1.0
1071
        0
1071
       22
1070
     1
1070
     1
1071
        2
1040
92.478716000000716
1040
-46.43738819055077
1040
-1.0
1040
92.478716000000716
1040
-60.914213809450061
1040
-1.0
1071
        0
1071
       22
1070
     1
1070
     1
1071
        2
1040
59.871283999999129
1040
-118.41421380945
1040
-1.0
1040
59.871283999999122
1040
-103.93738819055071
1040
-1.0
1071
        0
1071
       22
1070
     1
1070
     1
1071
        2
1040
92.478716000000716
1040
-103.93738819055071
1040
-1.0
1040
92.478716000000716
1040
-118.41421380945
1040
-1.0
1071
        0
1071
       22
1070
     1
1070
     1
1071
        2
1040
59.871283999999143
1040
-3.4142138094500818
1040
-1.0
1040
59.87128399999915
1040
11.0626118094492
1040
-1.0
1071
        0
1071
       22
1070
     1
1070
     1
1071
        2
1040
92.478716000000759
1040
11.062611809449249
1040
-1.0
1040
92.478716000000759
1040
-3.4142138094500321
1040
-1.0
1071
        0
1071
       22
1070
     1
1070
     1
1071
        2
1040
59.871283999999093
1040
-178.71261180944899
1040
-1.0
1040
59.871283999999079
1040
-164.2357861905497
1040
-1.0
1071
        0
1071
       22
1070
     1
1070
     1
1071
        2
1040
92.478716000000716
1040
-164.2357861905497
1040
-1.0
1040
92.478716000000716
1040
-178.71261180944899
1040
-1.0
1071
        0
1071
        1
1071
        4
1070
     1
1040
41.174999999999891
1040
-179.82499999999939
1040
111.1749999999999
1040
-179.82499999999939
1070
     1
1040
111.1749999999999
1040
-179.82499999999939
1040
111.175
1040
31.175000000000129
1070
     1
1040
111.1749999999999
1040
31.175000000000111
1040
41.174999999999947
1040
31.175000000000111
1070
     1
1040
41.174999999999947
1040
31.175000000000072
1040
41.174999999999898
1040
-179.82499999999951
1071
        0
1070
     0
1070
     1
1040
-0.0000000000000002
1040
3.0
1070
     0
1070
     2
1040
0.7853981633974481
1040
41.174999999999947
1040
31.175000000000072
1040
-20.20557627240559
1040
20.205576272405601
1070
     0
1040
0.7853981633974481
1040
54.645389999999963
1040
31.175000000000061
1040
-20.20557627240559
1040
20.205576272405601
1070
     0
1040
0.3788336310962341
1071
        9
1040
75.980393556388975
1040
-68.715600966653241
1040
0.0
1040
75.980393556388975
1040
-68.715600966653241
1040
0.0
1040
75.980393556388975
1040
-68.715600966653241
1040
0.0
1040
75.980393556388975
1040
-68.715600966653241
1040
0.0
1040
75.980393556388975
1040
-68.715600966653241
1040
0.0
1040
75.980393556388975
1040
-68.715600966653241
1040
0.0
1040
75.980393556388975
1040
-68.715600966653241
1040
0.0
1040
75.980393556388975
1040
-68.715600966653241
1040
0.0
1040
75.980393556388975
1040
-68.715600966653241
1040
0.0
1002
}
  0
CIRCLE
  5
3B97
  8
0
  6
CONTINUOUS
 10
92.478716000000716
 20
-171.4741989999994
 30
0.0
 40
7.2384128094496338
  0
CIRCLE
  5
3B98
  8
0
  6
CONTINUOUS
 10
59.871283999999079
 20
-171.4741989999994
 30
0.0
 40
7.2384128094496338
  0
POLYLINE
  5
3B99
  8
0
 66
     1
 10
0.0
 20
0.0
 30
0.0
  0
VERTEX
  5
404C
  8
0
 10
-22.324999999999939
 20
-179.8250000000001
 30
0.0
 42
0.9999999999999989
  0
VERTEX
  5
404D
  8
0
 10
-22.324999999999928
 20
-134.82499999999979
 30
0.0
  0
SEQEND
  5
404E
  8
0
  0
POLYLINE
  8
0
  5
41F9
  66
     1
 10
0.000000
 20
0.000000
 30
0.000000
  70
     8
  0
VERTEX
  8
0
  5
41FA
 10
-67.3250
 20
-157.325
 30
0.000000
  70
    32
  0
VERTEX
  8
0
  5
41FB
 10
-67.0940
 20
-157.288
 30
0.000000
  70
    32
  0
VERTEX
  8
0
  5
41FC
 10
-66.8630
 20
-157.252
 30
0.000000
  70
    32
  0
VERTEX
  8
0
  5
41FD
 10
-66.6321
 20
-157.215
 30
0.000000
  70
    32
  0
VERTEX
  8
0
  5
41FE
 10
-66.4013
 20
-157.178
 30
0.000000
  70
    32
  0
VERTEX
  8
0
  5
41FF
 10
-66.1705
 20
-157.141
 30
0.000000
  70
    32
  0
VERTEX
  8
0
  5
4200
 10
-65.9398
 20
-157.104
 30
0.000000
  70
    32
  0
VERTEX
  8
0
  5
4201
 10
-65.7093
 20
-157.067
 30
0.000000
  70
    32
  0
VERTEX
  8
0
  5
4202
 10
-65.4789
 20
-157.029
 30
0.000000
  70
    32
  0
VERTEX
  8
0
  5
4203
 10
-65.2487
 20
-156.991
 30
0.000000
  70
    32
  0
VERTEX
  8
0
  5
4204
 10
-65.0187
 20
-156.952
 30
0.000000
  70
    32
  0
VERTEX
  8
0
  5
4205
 10
-64.7889
 20
-156.913
 30
0.000000
  70
    32
  0
VERTEX
  8
0
  5
4206
 10
-64.5594
 20
-156.873
 30
0.000000
  70
    32
  0
VERTEX
  8
0
  5
4207
 10
-64.3301
 20
-156.833
 30
0.000000
  70
    32
  0
VERTEX
  8
0
  5
4208
 10
-64.1011
 20
-156.792
 30
0.000000
  70
    32
  0
VERTEX
  8
0
  5
4209
 10
-63.8724
 20
-156.750
 30
0.000000
  70
    32
  0
VERTEX
  8
0
  5
420A
 10
-63.6440
 20
-156.708
 30
0.000000
  70
    32
  0
VERTEX
  8
0
  5
420B
 10
-63.4160
 20
-156.665
 30
0.000000
  70
    32
  0
VERTEX
  8
0
  5
420C
 10
-63.1884
 20
-156.621
 30
0.000000
  70
    32
  0
VERTEX
  8
0
  5
420D
 10
-62.9611
 20
-156.576
 30
0.000000
  70
    32
  0
VERTEX
  8
0
  5
420E
 10
-62.7343
 20
-156.530
 30
0.000000
  70
    32
  0
VERTEX
  8
0
  5
420F
 10
-62.5079
 20
-156.484
 30
0.000000
  70
    32
  0
VERTEX
  8
0
  5
4210
 10
-62.2819
 20
-156.436
 30
0.000000
  70
    32
  0
VERTEX
  8
0
  5
4211
 10
-62.0565
 20
-156.387
 30
0.000000
  70
    32
  0
VERTEX
  8
0
  5
4212
 10
-61.8315
 20
-156.338
 30
0.000000
  70
    32
  0
VERTEX
  8
0
  5
4213
 10
-61.6071
 20
-156.287
 30
0.000000
  70
    32
  0
VERTEX
  8
0
  5
4214
 10
-61.3832
 20
-156.234
 30
0.000000
  70
    32
  0
VERTEX
  8
0
  5
4215
 10
-61.1599
 20
-156.181
 30
0.000000
  70
    32
  0
VERTEX
  8
0
  5
4216
 10
-60.9372
 20
-156.126
 30
0.000000
  70
    32
  0
VERTEX
  8
0
  5
4217
 10
-60.7151
 20
-156.070
 30
0.000000
  70
    32
  0
VERTEX
  8
0
  5
4218
 10
-60.4936
 20
-156.013
 30
0.000000
  70
    32
  0
VERTEX
  8
0
  5
4219
 10
-60.2728
 20
-155.954
 30
0.000000
  70
    32
  0
VERTEX
  8
0
  5
421A
 10
-60.0526
 20
-155.893
 30
0.000000
  70
    32
  0
VERTEX
  8
0
  5
421B
 10
-59.8332
 20
-155.831
 30
0.000000
  70
    32
  0
VERTEX
  8
0
  5
421C
 10
-59.6145
 20
-155.768
 30
0.000000
  70
    32
  0
VERTEX
  8
0
  5
421D
 10
-59.3965
 20
-155.702
 30
0.000000
  70
    32
  0
VERTEX
  8
0
  5
421E
 10
-59.1793
 20
-155.636
 30
0.000000
  70
    32
  0
VERTEX
  8
0
  5
421F
 10
-58.9629
 20
-155.567
 30
0.000000
  70
    32
  0
VERTEX
  8
0
  5
4220
 10
-58.7472
 20
-155.497
 30
0.000000
  70
    32
  0
VERTEX
  8
0
  5
4221
 10
-58.5325
 20
-155.424
 30
0.000000
  70
    32
  0
VERTEX
  8
0
  5
4222
 10
-58.3185
 20
-155.350
 30
0.000000
  70
    32
  0
VERTEX
  8
0
  5
4223
 10
-58.1055
 20
-155.274
 30
0.000000
  70
    32
  0
VERTEX
  8
0
  5
4224
 10
-57.8933
 20
-155.196
 30
0.000000
  70
    32
  0
VERTEX
  8
0
  5
4225
 10
-57.6821
 20
-155.116
 30
0.000000
  70
    32
  0
VERTEX
  8
0
  5
4226
 10
-57.4718
 20
-155.034
 30
0.000000
  70
    32
  0
VERTEX
  8
0
  5
4227
 10
-57.2625
 20
-154.950
 30
0.000000
  70
    32
  0
VERTEX
  8
0
  5
4228
 10
-57.0541
 20
-154.863
 30
0.000000
  70
    32
  0
VERTEX
  8
0
  5
4229
 10
-56.8467
 20
-154.775
 30
0.000000
  70
    32
  0
VERTEX
  8
0
  5
422A
 10
-56.6403
 20
-154.684
 30
0.000000
  70
    32
  0
VERTEX
  8
0
  5
422B
 10
-56.4348
 20
-154.591
 30
0.000000
  70
    32
  0
VERTEX
  8
0
  5
422C
 10
-56.2302
 20
-154.496
 30
0.000000
  70
    32
  0
VERTEX
  8
0
  5
422D
 10
-56.0265
 20
-154.400
 30
0.000000
  70
    32
  0
VERTEX
  8
0
  5
422E
 10
-55.8238
 20
-154.301
 30
0.000000
  70
    32
  0
VERTEX
  8
0
  5
422F
 10
-55.6219
 20
-154.200
 30
0.000000
  70
    32
  0
VERTEX
  8
0
  5
4230
 10
-55.4209
 20
-154.097
 30
0.000000
  70
    32
  0
VERTEX
  8
0
  5
4231
 10
-55.2207
 20
-153.993
 30
0.000000
  70
    32
  0
VERTEX
  8
0
  5
4232
 10
-55.0214
 20
-153.887
 30
0.000000
  70
    32
  0
VERTEX
  8
0
  5
4233
 10
-54.8229
 20
-153.779
 30
0.000000
  70
    32
  0
VERTEX
  8
0
  5
4234
 10
-54.6252
 20
-153.669
 30
0.000000
  70
    32
  0
VERTEX
  8
0
  5
4235
 10
-54.4283
 20
-153.557
 30
0.000000
  70
    32
  0
VERTEX
  8
0
  5
4236
 10
-54.2321
 20
-153.444
 30
0.000000
  70
    32
  0
VERTEX
  8
0
  5
4237
 10
-54.0368
 20
-153.328
 30
0.000000
  70
    32
  0
VERTEX
  8
0
  5
4238
 10
-53.8422
 20
-153.212
 30
0.000000
  70
    32
  0
VERTEX
  8
0
  5
4239
 10
-53.6483
 20
-153.093
 30
0.000000
  70
    32
  0
VERTEX
  8
0
  5
423A
 10
-53.4551
 20
-152.974
 30
0.000000
  70
    32
  0
VERTEX
  8
0
  5
423B
 10
-53.2626
 20
-152.852
 30
0.000000
  70
    32
  0
VERTEX
  8
0
  5
423C
 10
-53.0708
 20
-152.729
 30
0.000000
  70
    32
  0
VERTEX
  8
0
  5
423D
 10
-52.8797
 20
-152.605
 30
0.000000
  70
    32
  0
VERTEX
  8
0
  5
423E
 10
-52.6893
 20
-152.479
 30
0.000000
  70
    32
  0
VERTEX
  8
0
  5
423F
 10
-52.4995
 20
-152.351
 30
0.000000
  70
    32
  0
VERTEX
  8
0
  5
4240
 10
-52.3103
 20
-152.223
 30
0.000000
  70
    32
  0
VERTEX
  8
0
  5
4241
 10
-52.1217
 20
-152.093
 30
0.000000
  70
    32
  0
VERTEX
  8
0
  5
4242
 10
-51.9338
 20
-151.961
 30
0.000000
  70
    32
  0
VERTEX
  8
0
  5
4243
 10
-51.7464
 20
-151.829
 30
0.000000
  70
    32
  0
VERTEX
  8
0
  5
4244
 10
-51.5596
 20
-151.695
 30
0.000000
  70
    32
  0
VERTEX
  8
0
  5
4245
 10
-51.3733
 20
-151.559
 30
0.000000
  70
    32
  0
VERTEX
  8
0
  5
4246
 10
-51.1876
 20
-151.423
 30
0.000000
  70
    32
  0
VERTEX
  8
0
  5
4247
 10
-51.0024
 20
-151.286
 30
0.000000
  70
    32
  0
VERTEX
  8
0
  5
4248
 10
-50.8178
 20
-151.147
 30
0.000000
  70
    32
  0
VERTEX
  8
0
  5
4249
 10
-50.6336
 20
-151.007
 30
0.000000
  70
    32
  0
VERTEX
  8
0
  5
424A
 10
-50.4499
 20
-150.866
 30
0.000000
  70
    32
  0
VERTEX
  8
0
  5
424B
 10
-50.2667
 20
-150.725
 30
0.000000
  70
    32
  0
VERTEX
  8
0
  5
424C
 10
-50.0839
 20
-150.582
 30
0.000000
  70
    32
  0
VERTEX
  8
0
  5
424D
 10
-49.9015
 20
-150.438
 30
0.000000
  70
    32
  0
VERTEX
  8
0
  5
424E
 10
-49.7196
 20
-150.293
 30
0.000000
  70
    32
  0
VERTEX
  8
0
  5
424F
 10
-49.5381
 20
-150.148
 30
0.000000
  70
    32
  0
VERTEX
  8
0
  5
4250
 10
-49.3570
 20
-150.001
 30
0.000000
  70
    32
  0
VERTEX
  8
0
  5
4251
 10
-49.1762
 20
-149.854
 30
0.000000
  70
    32
  0
VERTEX
  8
0
  5
4252
 10
-48.9958
 20
-149.706
 30
0.000000
  70
    32
  0
VERTEX
  8
0
  5
4253
 10
-48.8158
 20
-149.557
 30
0.000000
  70
    32
  0
VERTEX
  8
0
  5
4254
 10
-48.6361
 20
-149.407
 30
0.000000
  70
    32
  0
VERTEX
  8
0
  5
4255
 10
-48.4567
 20
-149.257
 30
0.000000
  70
    32
  0
VERTEX
  8
0
  5
4256
 10
-48.2776
 20
-149.106
 30
0.000000
  70
    32
  0
VERTEX
  8
0
  5
4257
 10
-48.0988
 20
-148.954
 30
0.000000
  70
    32
  0
VERTEX
  8
0
  5
4258
 10
-47.9203
 20
-148.802
 30
0.000000
  70
    32
  0
VERTEX
  8
0
  5
4259
 10
-47.7421
 20
-148.649
 30
0.000000
  70
    32
  0
VERTEX
  8
0
  5
425A
 10
-47.5641
 20
-148.496
 30
0.000000
  70
    32
  0
VERTEX
  8
0
  5
425B
 10
-47.3863
 20
-148.342
 30
0.000000
  70
    32
  0
VERTEX
  8
0
  5
425C
 10
-47.2087
 20
-148.188
 30
0.000000
  70
    32
  0
VERTEX
  8
0
  5
425D
 10
-47.0313
 20
-148.033
 30
0.000000
  70
    32
  0
VERTEX
  8
0
  5
425E
 10
-46.8541
 20
-147.878
 30
0.000000
  70
    32
  0
VERTEX
  8
0
  5
425F
 10
-46.6771
 20
-147.723
 30
0.000000
  70
    32
  0
VERTEX
  8
0
  5
4260
 10
-46.5003
 20
-147.567
 30
0.000000
  70
    32
  0
VERTEX
  8
0
  5
4261
 10
-46.3235
 20
-147.410
 30
0.000000
  70
    32
  0
VERTEX
  8
0
  5
4262
 10
-46.1469
 20
-147.254
 30
0.000000
  70
    32
  0
VERTEX
  8
0
  5
4263
 10
-45.9705
 20
-147.097
 30
0.000000
  70
    32
  0
VERTEX
  8
0
  5
4264
 10
-45.7941
 20
-146.940
 30
0.000000
  70
    32
  0
VERTEX
  8
0
  5
4265
 10
-45.6178
 20
-146.783
 30
0.000000
  70
    32
  0
VERTEX
  8
0
  5
4266
 10
-45.4415
 20
-146.626
 30
0.000000
  70
    32
  0
VERTEX
  8
0
  5
4267
 10
-45.2653
 20
-146.469
 30
0.000000
  70
    32
  0
VERTEX
  8
0
  5
4268
 10
-45.0892
 20
-146.311
 30
0.000000
  70
    32
  0
VERTEX
  8
0
  5
4269
 10
-44.9131
 20
-146.154
 30
0.000000
  70
    32
  0
VERTEX
  8
0
  5
426A
 10
-44.7369
 20
-145.996
 30
0.000000
  70
    32
  0
VERTEX
  8
0
  5
426B
 10
-44.5608
 20
-145.839
 30
0.000000
  70
    32
  0
VERTEX
  8
0
  5
426C
 10
-44.3847
 20
-145.681
 30
0.000000
  70
    32
  0
VERTEX
  8
0
  5
426D
 10
-44.2085
 20
-145.524
 30
0.000000
  70
    32
  0
VERTEX
  8
0
  5
426E
 10
-44.0322
 20
-145.367
 30
0.000000
  70
    32
  0
VERTEX
  8
0
  5
426F
 10
-43.8559
 20
-145.210
 30
0.000000
  70
    32
  0
VERTEX
  8
0
  5
4270
 10
-43.6795
 20
-145.053
 30
0.000000
  70
    32
  0
VERTEX
  8
0
  5
4271
 10
-43.5031
 20
-144.896
 30
0.000000
  70
    32
  0
VERTEX
  8
0
  5
4272
 10
-43.3265
 20
-144.740
 30
0.000000
  70
    32
  0
VERTEX
  8
0
  5
4273
 10
-43.1497
 20
-144.583
 30
0.000000
  70
    32
  0
VERTEX
  8
0
  5
4274
 10
-42.9729
 20
-144.427
 30
0.000000
  70
    32
  0
VERTEX
  8
0
  5
4275
 10
-42.7959
 20
-144.272
 30
0.000000
  70
    32
  0
VERTEX
  8
0
  5
4276
 10
-42.6187
 20
-144.117
 30
0.000000
  70
    32
  0
VERTEX
  8
0
  5
4277
 10
-42.4413
 20
-143.962
 30
0.000000
  70
    32
  0
VERTEX
  8
0
  5
4278
 10
-42.2637
 20
-143.808
 30
0.000000
  70
    32
  0
VERTEX
  8
0
  5
4279
 10
-42.0859
 20
-143.654
 30
0.000000
  70
    32
  0
VERTEX
  8
0
  5
427A
 10
-41.9079
 20
-143.501
 30
0.000000
  70
    32
  0
VERTEX
  8
0
  5
427B
 10
-41.7297
 20
-143.348
 30
0.000000
  70
    32
  0
VERTEX
  8
0
  5
427C
 10
-41.5512
 20
-143.196
 30
0.000000
  70
    32
  0
VERTEX
  8
0
  5
427D
 10
-41.3724
 20
-143.044
 30
0.000000
  70
    32
  0
VERTEX
  8
0
  5
427E
 10
-41.1933
 20
-142.893
 30
0.000000
  70
    32
  0
VERTEX
  8
0
  5
427F
 10
-41.0139
 20
-142.743
 30
0.000000
  70
    32
  0
VERTEX
  8
0
  5
4280
 10
-40.8342
 20
-142.593
 30
0.000000
  70
    32
  0
VERTEX
  8
0
  5
4281
 10
-40.6542
 20
-142.444
 30
0.000000
  70
    32
  0
VERTEX
  8
0
  5
4282
 10
-40.4738
 20
-142.296
 30
0.000000
  70
    32
  0
VERTEX
  8
0
  5
4283
 10
-40.2930
 20
-142.149
 30
0.000000
  70
    32
  0
VERTEX
  8
0
  5
4284
 10
-40.1119
 20
-142.002
 30
0.000000
  70
    32
  0
VERTEX
  8
0
  5
4285
 10
-39.9304
 20
-141.857
 30
0.000000
  70
    32
  0
VERTEX
  8
0
  5
4286
 10
-39.7485
 20
-141.712
 30
0.000000
  70
    32
  0
VERTEX
  8
0
  5
4287
 10
-39.5661
 20
-141.568
 30
0.000000
  70
    32
  0
VERTEX
  8
0
  5
4288
 10
-39.3833
 20
-141.425
 30
0.000000
  70
    32
  0
VERTEX
  8
0
  5
4289
 10
-39.2001
 20
-141.284
 30
0.000000
  70
    32
  0
VERTEX
  8
0
  5
428A
 10
-39.0164
 20
-141.143
 30
0.000000
  70
    32
  0
VERTEX
  8
0
  5
428B
 10
-38.8322
 20
-141.003
 30
0.000000
  70
    32
  0
VERTEX
  8
0
  5
428C
 10
-38.6476
 20
-140.864
 30
0.000000
  70
    32
  0
VERTEX
  8
0
  5
428D
 10
-38.4624
 20
-140.727
 30
0.000000
  70
    32
  0
VERTEX
  8
0
  5
428E
 10
-38.2767
 20
-140.591
 30
0.000000
  70
    32
  0
VERTEX
  8
0
  5
428F
 10
-38.0904
 20
-140.455
 30
0.000000
  70
    32
  0
VERTEX
  8
0
  5
4290
 10
-37.9036
 20
-140.321
 30
0.000000
  70
    32
  0
VERTEX
  8
0
  5
4291
 10
-37.7162
 20
-140.189
 30
0.000000
  70
    32
  0
VERTEX
  8
0
  5
4292
 10
-37.5283
 20
-140.057
 30
0.000000
  70
    32
  0
VERTEX
  8
0
  5
4293
 10
-37.3397
 20
-139.927
 30
0.000000
  70
    32
  0
VERTEX
  8
0
  5
4294
 10
-37.1505
 20
-139.799
 30
0.000000
  70
    32
  0
VERTEX
  8
0
  5
4295
 10
-36.9607
 20
-139.671
 30
0.000000
  70
    32
  0
VERTEX
  8
0
  5
4296
 10
-36.7703
 20
-139.545
 30
0.000000
  70
    32
  0
VERTEX
  8
0
  5
4297
 10
-36.5792
 20
-139.421
 30
0.000000
  70
    32
  0
VERTEX
  8
0
  5
4298
 10
-36.3874
 20
-139.298
 30
0.000000
  70
    32
  0
VERTEX
  8
0
  5
4299
 10
-36.1949
 20
-139.176
 30
0.000000
  70
    32
  0
VERTEX
  8
0
  5
429A
 10
-36.0017
 20
-139.057
 30
0.000000
  70
    32
  0
VERTEX
  8
0
  5
429B
 10
-35.8078
 20
-138.938
 30
0.000000
  70
    32
  0
VERTEX
  8
0
  5
429C
 10
-35.6132
 20
-138.822
 30
0.000000
  70
    32
  0
VERTEX
  8
0
  5
429D
 10
-35.4179
 20
-138.706
 30
0.000000
  70
    32
  0
VERTEX
  8
0
  5
429E
 10
-35.2217
 20
-138.593
 30
0.000000
  70
    32
  0
VERTEX
  8
0
  5
429F
 10
-35.0248
 20
-138.481
 30
0.000000
  70
    32
  0
VERTEX
  8
0
  5
42A0
 10
-34.8271
 20
-138.371
 30
0.000000
  70
    32
  0
VERTEX
  8
0
  5
42A1
 10
-34.6286
 20
-138.263
 30
0.000000
  70
    32
  0
VERTEX
  8
0
  5
42A2
 10
-34.4293
 20
-138.157
 30
0.000000
  70
    32
  0
VERTEX
  8
0
  5
42A3
 10
-34.2291
 20
-138.053
 30
0.000000
  70
    32
  0
VERTEX
  8
0
  5
42A4
 10
-34.0281
 20
-137.950
 30
0.000000
  70
    32
  0
VERTEX
  8
0
  5
42A5
 10
-33.8262
 20
-137.849
 30
0.000000
  70
    32
  0
VERTEX
  8
0
  5
42A6
 10
-33.6235
 20
-137.750
 30
0.000000
  70
    32
  0
VERTEX
  8
0
  5
42A7
 10
-33.4198
 20
-137.654
 30
0.000000
  70
    32
  0
VERTEX
  8
0
  5
42A8
 10
-33.2152
 20
-137.559
 30
0.000000
  70
    32
  0
VERTEX
  8
0
  5
42A9
 10
-33.0097
 20
-137.466
 30
0.000000
  70
    32
  0
VERTEX
  8
0
  5
42AA
 10
-32.8033
 20
-137.375
 30
0.000000
  70
    32
  0
VERTEX
  8
0
  5
42AB
 10
-32.5959
 20
-137.287
 30
0.000000
  70
    32
  0
VERTEX
  8
0
  5
42AC
 10
-32.3875
 20
-137.200
 30
0.000000
  70
    32
  0
VERTEX
  8
0
  5
42AD
 10
-32.1782
 20
-137.116
 30
0.000000
  70
    32
  0
VERTEX
  8
0
  5
42AE
 10
-31.9679
 20
-137.034
 30
0.000000
  70
    32
  0
VERTEX
  8
0
  5
42AF
 10
-31.7567
 20
-136.954
 30
0.000000
  70
    32
  0
VERTEX
  8
0
  5
42B0
 10
-31.5445
 20
-136.876
 30
0.000000
  70
    32
  0
VERTEX
  8
0
  5
42B1
 10
-31.3315
 20
-136.800
 30
0.000000
  70
    32
  0
VERTEX
  8
0
  5
42B2
 10
-31.1175
 20
-136.726
 30
0.000000
  70
    32
  0
VERTEX
  8
0
  5
42B3
 10
-30.9028
 20
-136.653
 30
0.000000
  70
    32
  0
VERTEX
  8
0
  5
42B4
 10
-30.6871
 20
-136.583
 30
0.000000
  70
    32
  0
VERTEX
  8
0
  5
42B5
 10
-30.4707
 20
-136.514
 30
0.000000
  70
    32
  0
VERTEX
  8
0
  5
42B6
 10
-30.2535
 20
-136.448
 30
0.000000
  70
    32
  0
VERTEX
  8
0
  5
42B7
 10
-30.0355
 20
-136.382
 30
0.000000
  70
    32
  0
VERTEX
  8
0
  5
42B8
 10
-29.8168
 20
-136.319
 30
0.000000
  70
    32
  0
VERTEX
  8
0
  5
42B9
 10
-29.5974
 20
-136.257
 30
0.000000
  70
    32
  0
VERTEX
  8
0
  5
42BA
 10
-29.3772
 20
-136.196
 30
0.000000
  70
    32
  0
VERTEX
  8
0
  5
42BB
 10
-29.1564
 20
-136.137
 30
0.000000
  70
    32
  0
VERTEX
  8
0
  5
42BC
 10
-28.9349
 20
-136.080
 30
0.000000
  70
    32
  0
VERTEX
  8
0
  5
42BD
 10
-28.7128
 20
-136.024
 30
0.000000
  70
    32
  0
VERTEX
  8
0
  5
42BE
 10
-28.4901
 20
-135.969
 30
0.000000
  70
    32
  0
VERTEX
  8
0
  5
42BF
 10
-28.2668
 20
-135.916
 30
0.000000
  70
    32
  0
VERTEX
  8
0
  5
42C0
 10
-28.0429
 20
-135.863
 30
0.000000
  70
    32
  0
VERTEX
  8
0
  5
42C1
 10
-27.8185
 20
-135.812
 30
0.000000
  70
    32
  0
VERTEX
  8
0
  5
42C2
 10
-27.5935
 20
-135.763
 30
0.000000
  70
    32
  0
VERTEX
  8
0
  5
42C3
 10
-27.3681
 20
-135.714
 30
0.000000
  70
    32
  0
VERTEX
  8
0
  5
42C4
 10
-27.1421
 20
-135.666
 30
0.000000
  70
    32
  0
VERTEX
  8
0
  5
42C5
 10
-26.9157
 20
-135.620
 30
0.000000
  70
    32
  0
VERTEX
  8
0
  5
42C6
 10
-26.6889
 20
-135.574
 30
0.000000
  70
    32
  0
VERTEX
  8
0
  5
42C7
 10
-26.4616
 20
-135.529
 30
0.000000
  70
    32
  0
VERTEX
  8
0
  5
42C8
 10
-26.2340
 20
-135.485
 30
0.000000
  70
    32
  0
VERTEX
  8
0
  5
42C9
 10
-26.0060
 20
-135.442
 30
0.000000
  70
    32
  0
VERTEX
  8
0
  5
42CA
 10
-25.7776
 20
-135.400
 30
0.000000
  70
    32
  0
VERTEX
  8
0
  5
42CB
 10
-25.5489
 20
-135.358
 30
0.000000
  70
    32
  0
VERTEX
  8
0
  5
42CC
 10
-25.3199
 20
-135.317
 30
0.000000
  70
    32
  0
VERTEX
  8
0
  5
42CD
 10
-25.0906
 20
-135.277
 30
0.000000
  70
    32
  0
VERTEX
  8
0
  5
42CE
 10
-24.8611
 20
-135.237
 30
0.000000
  70
    32
  0
VERTEX
  8
0
  5
42CF
 10
-24.6313
 20
-135.198
 30
0.000000
  70
    32
  0
VERTEX
  8
0
  5
42D0
 10
-24.4013
 20
-135.159
 30
0.000000
  70
    32
  0
VERTEX
  8
0
  5
42D1
 10
-24.1711
 20
-135.121
 30
0.000000
  70
    32
  0
VERTEX
  8
0
  5
42D2
 10
-23.9407
 20
-135.083
 30
0.000000
  70
    32
  0
VERTEX
  8
0
  5
42D3
 10
-23.7102
 20
-135.046
 30
0.000000
  70
    32
  0
VERTEX
  8
0
  5
42D4
 10
-23.4795
 20
-135.009
 30
0.000000
  70
    32
  0
VERTEX
  8
0
  5
42D5
 10
-23.2487
 20
-134.972
 30
0.000000
  70
    32
  0
VERTEX
  8
0
  5
42D6
 10
-23.0179
 20
-134.935
 30
0.000000
  70
    32
  0
VERTEX
  8
0
  5
42D7
 10
-22.7870
 20
-134.898
 30
0.000000
  70
    32
  0
VERTEX
  8
0
  5
42D8
 10
-22.5560
 20
-134.862
 30
0.000000
  70
    32
  0
VERTEX
  8
0
  5
42D9
 10
-22.3250
 20
-134.825
 30
0.000000
  70
    32
  0
SEQEND
  8
0
  5
42DA
  0
POLYLINE
  8
0
  5
42DB
  66
     1
 10
0.000000
 20
0.000000
 30
0.000000
  70
     8
  0
VERTEX
  8
0
  5
42DC
 10
-67.3250
 20
-157.325
 30
0.000000
  70
    32
  0
VERTEX
  8
0
  5
42DD
 10
-67.0940
 20
-157.362
 30
0.000000
  70
    32
  0
VERTEX
  8
0
  5
42DE
 10
-66.8630
 20
-157.398
 30
0.000000
  70
    32
  0
VERTEX
  8
0
  5
42DF
 10
-66.6321
 20
-157.435
 30
0.000000
  70
    32
  0
VERTEX
  8
0
  5
42E0
 10
-66.4013
 20
-157.472
 30
0.000000
  70
    32
  0
VERTEX
  8
0
  5
42E1
 10
-66.1705
 20
-157.509
 30
0.000000
  70
    32
  0
VERTEX
  8
0
  5
42E2
 10
-65.9398
 20
-157.546
 30
0.000000
  70
    32
  0
VERTEX
  8
0
  5
42E3
 10
-65.7093
 20
-157.583
 30
0.000000
  70
    32
  0
VERTEX
  8
0
  5
42E4
 10
-65.4789
 20
-157.621
 30
0.000000
  70
    32
  0
VERTEX
  8
0
  5
42E5
 10
-65.2487
 20
-157.659
 30
0.000000
  70
    32
  0
VERTEX
  8
0
  5
42E6
 10
-65.0187
 20
-157.698
 30
0.000000
  70
    32
  0
VERTEX
  8
0
  5
42E7
 10
-64.7889
 20
-157.737
 30
0.000000
  70
    32
  0
VERTEX
  8
0
  5
42E8
 10
-64.5594
 20
-157.777
 30
0.000000
  70
    32
  0
VERTEX
  8
0
  5
42E9
 10
-64.3301
 20
-157.817
 30
0.000000
  70
    32
  0
VERTEX
  8
0
  5
42EA
 10
-64.1011
 20
-157.858
 30
0.000000
  70
    32
  0
VERTEX
  8
0
  5
42EB
 10
-63.8724
 20
-157.900
 30
0.000000
  70
    32
  0
VERTEX
  8
0
  5
42EC
 10
-63.6440
 20
-157.942
 30
0.000000
  70
    32
  0
VERTEX
  8
0
  5
42ED
 10
-63.4160
 20
-157.985
 30
0.000000
  70
    32
  0
VERTEX
  8
0
  5
42EE
 10
-63.1884
 20
-158.029
 30
0.000000
  70
    32
  0
VERTEX
  8
0
  5
42EF
 10
-62.9611
 20
-158.074
 30
0.000000
  70
    32
  0
VERTEX
  8
0
  5
42F0
 10
-62.7343
 20
-158.120
 30
0.000000
  70
    32
  0
VERTEX
  8
0
  5
42F1
 10
-62.5079
 20
-158.166
 30
0.000000
  70
    32
  0
VERTEX
  8
0
  5
42F2
 10
-62.2819
 20
-158.214
 30
0.000000
  70
    32
  0
VERTEX
  8
0
  5
42F3
 10
-62.0565
 20
-158.263
 30
0.000000
  70
    32
  0
VERTEX
  8
0
  5
42F4
 10
-61.8315
 20
-158.312
 30
0.000000
  70
    32
  0
VERTEX
  8
0
  5
42F5
 10
-61.6071
 20
-158.363
 30
0.000000
  70
    32
  0
VERTEX
  8
0
  5
42F6
 10
-61.3832
 20
-158.416
 30
0.000000
  70
    32
  0
VERTEX
  8
0
  5
42F7
 10
-61.1599
 20
-158.469
 30
0.000000
  70
    32
  0
VERTEX
  8
0
  5
42F8
 10
-60.9372
 20
-158.524
 30
0.000000
  70
    32
  0
VERTEX
  8
0
  5
42F9
 10
-60.7151
 20
-158.580
 30
0.000000
  70
    32
  0
VERTEX
  8
0
  5
42FA
 10
-60.4936
 20
-158.637
 30
0.000000
  70
    32
  0
VERTEX
  8
0
  5
42FB
 10
-60.2728
 20
-158.696
 30
0.000000
  70
    32
  0
VERTEX
  8
0
  5
42FC
 10
-60.0526
 20
-158.757
 30
0.000000
  70
    32
  0
VERTEX
  8
0
  5
42FD
 10
-59.8332
 20
-158.819
 30
0.000000
  70
    32
  0
VERTEX
  8
0
  5
42FE
 10
-59.6145
 20
-158.882
 30
0.000000
  70
    32
  0
VERTEX
  8
0
  5
42FF
 10
-59.3965
 20
-158.948
 30
0.000000
  70
    32
  0
VERTEX
  8
0
  5
4300
 10
-59.1793
 20
-159.014
 30
0.000000
  70
    32
  0
VERTEX
  8
0
  5
4301
 10
-58.9629
 20
-159.083
 30
0.000000
  70
    32
  0
VERTEX
  8
0
  5
4302
 10
-58.7472
 20
-159.153
 30
0.000000
  70
    32
  0
VERTEX
  8
0
  5
4303
 10
-58.5325
 20
-159.226
 30
0.000000
  70
    32
  0
VERTEX
  8
0
  5
4304
 10
-58.3185
 20
-159.300
 30
0.000000
  70
    32
  0
VERTEX
  8
0
  5
4305
 10
-58.1055
 20
-159.376
 30
0.000000
  70
    32
  0
VERTEX
  8
0
  5
4306
 10
-57.8933
 20
-159.454
 30
0.000000
  70
    32
  0
VERTEX
  8
0
  5
4307
 10
-57.6821
 20
-159.534
 30
0.000000
  70
    32
  0
VERTEX
  8
0
  5
4308
 10
-57.4718
 20
-159.616
 30
0.000000
  70
    32
  0
VERTEX
  8
0
  5
4309
 10
-57.2625
 20
-159.700
 30
0.000000
  70
    32
  0
VERTEX
  8
0
  5
430A
 10
-57.0541
 20
-159.787
 30
0.000000
  70
    32
  0
VERTEX
  8
0
  5
430B
 10
-56.8467
 20
-159.875
 30
0.000000
  70
    32
  0
VERTEX
  8
0
  5
430C
 10
-56.6403
 20
-159.966
 30
0.000000
  70
    32
  0
VERTEX
  8
0
  5
430D
 10
-56.4348
 20
-160.059
 30
0.000000
  70
    32
  0
VERTEX
  8
0
  5
430E
 10
-56.2302
 20
-160.154
 30
0.000000
  70
    32
  0
VERTEX
  8
0
  5
430F
 10
-56.0265
 20
-160.250
 30
0.000000
  70
    32
  0
VERTEX
  8
0
  5
4310
 10
-55.8238
 20
-160.349
 30
0.000000
  70
    32
  0
VERTEX
  8
0
  5
4311
 10
-55.6219
 20
-160.450
 30
0.000000
  70
    32
  0
VERTEX
  8
0
  5
4312
 10
-55.4209
 20
-160.553
 30
0.000000
  70
    32
  0
VERTEX
  8
0
  5
4313
 10
-55.2207
 20
-160.657
 30
0.000000
  70
    32
  0
VERTEX
  8
0
  5
4314
 10
-55.0214
 20
-160.763
 30
0.000000
  70
    32
  0
VERTEX
  8
0
  5
4315
 10
-54.8229
 20
-160.871
 30
0.000000
  70
    32
  0
VERTEX
  8
0
  5
4316
 10
-54.6252
 20
-160.981
 30
0.000000
  70
    32
  0
VERTEX
  8
0
  5
4317
 10
-54.4283
 20
-161.093
 30
0.000000
  70
    32
  0
VERTEX
  8
0
  5
4318
 10
-54.2321
 20
-161.206
 30
0.000000
  70
    32
  0
VERTEX
  8
0
  5
4319
 10
-54.0368
 20
-161.322
 30
0.000000
  70
    32
  0
VERTEX
  8
0
  5
431A
 10
-53.8422
 20
-161.438
 30
0.000000
  70
    32
  0
VERTEX
  8
0
  5
431B
 10
-53.6483
 20
-161.557
 30
0.000000
  70
    32
  0
VERTEX
  8
0
  5
431C
 10
-53.4551
 20
-161.676
 30
0.000000
  70
    32
  0
VERTEX
  8
0
  5
431D
 10
-53.2626
 20
-161.798
 30
0.000000
  70
    32
  0
VERTEX
  8
0
  5
431E
 10
-53.0708
 20
-161.921
 30
0.000000
  70
    32
  0
VERTEX
  8
0
  5
431F
 10
-52.8797
 20
-162.045
 30
0.000000
  70
    32
  0
VERTEX
  8
0
  5
4320
 10
-52.6893
 20
-162.171
 30
0.000000
  70
    32
  0
VERTEX
  8
0
  5
4321
 10
-52.4995
 20
-162.299
 30
0.000000
  70
    32
  0
VERTEX
  8
0
  5
4322
 10
-52.3103
 20
-162.427
 30
0.000000
  70
    32
  0
VERTEX
  8
0
  5
4323
 10
-52.1217
 20
-162.557
 30
0.000000
  70
    32
  0
VERTEX
  8
0
  5
4324
 10
-51.9338
 20
-162.689
 30
0.000000
  70
    32
  0
VERTEX
  8
0
  5
4325
 10
-51.7464
 20
-162.821
 30
0.000000
  70
    32
  0
VERTEX
  8
0
  5
4326
 10
-51.5596
 20
-162.955
 30
0.000000
  70
    32
  0
VERTEX
  8
0
  5
4327
 10
-51.3733
 20
-163.091
 30
0.000000
  70
    32
  0
VERTEX
  8
0
  5
4328
 10
-51.1876
 20
-163.227
 30
0.000000
  70
    32
  0
VERTEX
  8
0
  5
4329
 10
-51.0024
 20
-163.364
 30
0.000000
  70
    32
  0
VERTEX
  8
0
  5
432A
 10
-50.8178
 20
-163.503
 30
0.000000
  70
    32
  0
VERTEX
  8
0
  5
432B
 10
-50.6336
 20
-163.643
 30
0.000000
  70
    32
  0
VERTEX
  8
0
  5
432C
 10
-50.4499
 20
-163.784
 30
0.000000
  70
    32
  0
VERTEX
  8
0
  5
432D
 10
-50.2667
 20
-163.925
 30
0.000000
  70
    32
  0
VERTEX
  8
0
  5
432E
 10
-50.0839
 20
-164.068
 30
0.000000
  70
    32
  0
VERTEX
  8
0
  5
432F
 10
-49.9015
 20
-164.212
 30
0.000000
  70
    32
  0
VERTEX
  8
0
  5
4330
 10
-49.7196
 20
-164.357
 30
0.000000
  70
    32
  0
VERTEX
  8
0
  5
4331
 10
-49.5381
 20
-164.502
 30
0.000000
  70
    32
  0
VERTEX
  8
0
  5
4332
 10
-49.3570
 20
-164.649
 30
0.000000
  70
    32
  0
VERTEX
  8
0
  5
4333
 10
-49.1762
 20
-164.796
 30
0.000000
  70
    32
  0
VERTEX
  8
0
  5
4334
 10
-48.9958
 20
-164.944
 30
0.000000
  70
    32
  0
VERTEX
  8
0
  5
4335
 10
-48.8158
 20
-165.093
 30
0.000000
  70
    32
  0
VERTEX
  8
0
  5
4336
 10
-48.6361
 20
-165.243
 30
0.000000
  70
    32
  0
VERTEX
  8
0
  5
4337
 10
-48.4567
 20
-165.393
 30
0.000000
  70
    32
  0
VERTEX
  8
0
  5
4338
 10
-48.2776
 20
-165.544
 30
0.000000
  70
    32
  0
VERTEX
  8
0
  5
4339
 10
-48.0988
 20
-165.696
 30
0.000000
  70
    32
  0
VERTEX
  8
0
  5
433A
 10
-47.9203
 20
-165.848
 30
0.000000
  70
    32
  0
VERTEX
  8
0
  5
433B
 10
-47.7421
 20
-166.001
 30
0.000000
  70
    32
  0
VERTEX
  8
0
  5
433C
 10
-47.5641
 20
-166.154
 30
0.000000
  70
    32
  0
VERTEX
  8
0
  5
433D
 10
-47.3863
 20
-166.308
 30
0.000000
  70
    32
  0
VERTEX
  8
0
  5
433E
 10
-47.2087
 20
-166.462
 30
0.000000
  70
    32
  0
VERTEX
  8
0
  5
433F
 10
-47.0313
 20
-166.617
 30
0.000000
  70
    32
  0
VERTEX
  8
0
  5
4340
 10
-46.8541
 20
-166.772
 30
0.000000
  70
    32
  0
VERTEX
  8
0
  5
4341
 10
-46.6771
 20
-166.927
 30
0.000000
  70
    32
  0
VERTEX
  8
0
  5
4342
 10
-46.5003
 20
-167.083
 30
0.000000
  70
    32
  0
VERTEX
  8
0
  5
4343
 10
-46.3235
 20
-167.240
 30
0.000000
  70
    32
  0
VERTEX
  8
0
  5
4344
 10
-46.1469
 20
-167.396
 30
0.000000
  70
    32
  0
VERTEX
  8
0
  5
4345
 10
-45.9705
 20
-167.553
 30
0.000000
  70
    32
  0
VERTEX
  8
0
  5
4346
 10
-45.7941
 20
-167.710
 30
0.000000
  70
    32
  0
VERTEX
  8
0
  5
4347
 10
-45.6178
 20
-167.867
 30
0.000000
  70
    32
  0
VERTEX
  8
0
  5
4348
 10
-45.4415
 20
-168.024
 30
0.000000
  70
    32
  0
VERTEX
  8
0
  5
4349
 10
-45.2653
 20
-168.181
 30
0.000000
  70
    32
  0
VERTEX
  8
0
  5
434A
 10
-45.0892
 20
-168.339
 30
0.000000
  70
    32
  0
VERTEX
  8
0
  5
434B
 10
-44.9131
 20
-168.496
 30
0.000000
  70
    32
  0
VERTEX
  8
0
  5
434C
 10
-44.7369
 20
-168.654
 30
0.000000
  70
    32
  0
VERTEX
  8
0
  5
434D
 10
-44.5608
 20
-168.811
 30
0.000000
  70
    32
  0
VERTEX
  8
0
  5
434E
 10
-44.3847
 20
-168.969
 30
0.000000
  70
    32
  0
VERTEX
  8
0
  5
434F
 10
-44.2085
 20
-169.126
 30
0.000000
  70
    32
  0
VERTEX
  8
0
  5
4350
 10
-44.0322
 20
-169.283
 30
0.000000
  70
    32
  0
VERTEX
  8
0
  5
4351
 10
-43.8559
 20
-169.440
 30
0.000000
  70
    32
  0
VERTEX
  8
0
  5
4352
 10
-43.6795
 20
-169.597
 30
0.000000
  70
    32
  0
VERTEX
  8
0
  5
4353
 10
-43.5031
 20
-169.754
 30
0.000000
  70
    32
  0
VERTEX
  8
0
  5
4354
 10
-43.3265
 20
-169.910
 30
0.000000
  70
    32
  0
VERTEX
  8
0
  5
4355
 10
-43.1497
 20
-170.067
 30
0.000000
  70
    32
  0
VERTEX
  8
0
  5
4356
 10
-42.9729
 20
-170.223
 30
0.000000
  70
    32
  0
VERTEX
  8
0
  5
4357
 10
-42.7959
 20
-170.378
 30
0.000000
  70
    32
  0
VERTEX
  8
0
  5
4358
 10
-42.6187
 20
-170.533
 30
0.000000
  70
    32
  0
VERTEX
  8
0
  5
4359
 10
-42.4413
 20
-170.688
 30
0.000000
  70
    32
  0
VERTEX
  8
0
  5
435A
 10
-42.2637
 20
-170.842
 30
0.000000
  70
    32
  0
VERTEX
  8
0
  5
435B
 10
-42.0859
 20
-170.996
 30
0.000000
  70
    32
  0
VERTEX
  8
0
  5
435C
 10
-41.9079
 20
-171.149
 30
0.000000
  70
    32
  0
VERTEX
  8
0
  5
435D
 10
-41.7297
 20
-171.302
 30
0.000000
  70
    32
  0
VERTEX
  8
0
  5
435E
 10
-41.5512
 20
-171.454
 30
0.000000
  70
    32
  0
VERTEX
  8
0
  5
435F
 10
-41.3724
 20
-171.606
 30
0.000000
  70
    32
  0
VERTEX
  8
0
  5
4360
 10
-41.1933
 20
-171.757
 30
0.000000
  70
    32
  0
VERTEX
  8
0
  5
4361
 10
-41.0139
 20
-171.907
 30
0.000000
  70
    32
  0
VERTEX
  8
0
  5
4362
 10
-40.8342
 20
-172.057
 30
0.000000
  70
    32
  0
VERTEX
  8
0
  5
4363
 10
-40.6542
 20
-172.206
 30
0.000000
  70
    32
  0
VERTEX
  8
0
  5
4364
 10
-40.4738
 20
-172.354
 30
0.000000
  70
    32
  0
VERTEX
  8
0
  5
4365
 10
-40.2930
 20
-172.501
 30
0.000000
  70
    32
  0
VERTEX
  8
0
  5
4366
 10
-40.1119
 20
-172.648
 30
0.000000
  70
    32
  0
VERTEX
  8
0
  5
4367
 10
-39.9304
 20
-172.793
 30
0.000000
  70
    32
  0
VERTEX
  8
0
  5
4368
 10
-39.7485
 20
-172.938
 30
0.000000
  70
    32
  0
VERTEX
  8
0
  5
4369
 10
-39.5661
 20
-173.082
 30
0.000000
  70
    32
  0
VERTEX
  8
0
  5
436A
 10
-39.3833
 20
-173.225
 30
0.000000
  70
    32
  0
VERTEX
  8
0
  5
436B
 10
-39.2001
 20
-173.366
 30
0.000000
  70
    32
  0
VERTEX
  8
0
  5
436C
 10
-39.0164
 20
-173.507
 30
0.000000
  70
    32
  0
VERTEX
  8
0
  5
436D
 10
-38.8322
 20
-173.647
 30
0.000000
  70
    32
  0
VERTEX
  8
0
  5
436E
 10
-38.6476
 20
-173.786
 30
0.000000
  70
    32
  0
VERTEX
  8
0
  5
436F
 10
-38.4624
 20
-173.923
 30
0.000000
  70
    32
  0
VERTEX
  8
0
  5
4370
 10
-38.2767
 20
-174.059
 30
0.000000
  70
    32
  0
VERTEX
  8
0
  5
4371
 10
-38.0904
 20
-174.195
 30
0.000000
  70
    32
  0
VERTEX
  8
0
  5
4372
 10
-37.9036
 20
-174.329
 30
0.000000
  70
    32
  0
VERTEX
  8
0
  5
4373
 10
-37.7162
 20
-174.461
 30
0.000000
  70
    32
  0
VERTEX
  8
0
  5
4374
 10
-37.5283
 20
-174.593
 30
0.000000
  70
    32
  0
VERTEX
  8
0
  5
4375
 10
-37.3397
 20
-174.723
 30
0.000000
  70
    32
  0
VERTEX
  8
0
  5
4376
 10
-37.1505
 20
-174.851
 30
0.000000
  70
    32
  0
VERTEX
  8
0
  5
4377
 10
-36.9607
 20
-174.979
 30
0.000000
  70
    32
  0
VERTEX
  8
0
  5
4378
 10
-36.7703
 20
-175.105
 30
0.000000
  70
    32
  0
VERTEX
  8
0
  5
4379
 10
-36.5792
 20
-175.229
 30
0.000000
  70
    32
  0
VERTEX
  8
0
  5
437A
 10
-36.3874
 20
-175.352
 30
0.000000
  70
    32
  0
VERTEX
  8
0
  5
437B
 10
-36.1949
 20
-175.474
 30
0.000000
  70
    32
  0
VERTEX
  8
0
  5
437C
 10
-36.0017
 20
-175.593
 30
0.000000
  70
    32
  0
VERTEX
  8
0
  5
437D
 10
-35.8078
 20
-175.712
 30
0.000000
  70
    32
  0
VERTEX
  8
0
  5
437E
 10
-35.6132
 20
-175.828
 30
0.000000
  70
    32
  0
VERTEX
  8
0
  5
437F
 10
-35.4179
 20
-175.944
 30
0.000000
  70
    32
  0
VERTEX
  8
0
  5
4380
 10
-35.2217
 20
-176.057
 30
0.000000
  70
    32
  0
VERTEX
  8
0
  5
4381
 10
-35.0248
 20
-176.169
 30
0.000000
  70
    32
  0
VERTEX
  8
0
  5
4382
 10
-34.8271
 20
-176.279
 30
0.000000
  70
    32
  0
VERTEX
  8
0
  5
4383
 10
-34.6286
 20
-176.387
 30
0.000000
  70
    32
  0
VERTEX
  8
0
  5
4384
 10
-34.4293
 20
-176.493
 30
0.000000
  70
    32
  0
VERTEX
  8
0
  5
4385
 10
-34.2291
 20
-176.597
 30
0.000000
  70
    32
  0
VERTEX
  8
0
  5
4386
 10
-34.0281
 20
-176.700
 30
0.000000
  70
    32
  0
VERTEX
  8
0
  5
4387
 10
-33.8262
 20
-176.801
 30
0.000000
  70
    32
  0
VERTEX
  8
0
  5
4388
 10
-33.6235
 20
-176.900
 30
0.000000
  70
    32
  0
VERTEX
  8
0
  5
4389
 10
-33.4198
 20
-176.996
 30
0.000000
  70
    32
  0
VERTEX
  8
0
  5
438A
 10
-33.2152
 20
-177.091
 30
0.000000
  70
    32
  0
VERTEX
  8
0
  5
438B
 10
-33.0097
 20
-177.184
 30
0.000000
  70
    32
  0
VERTEX
  8
0
  5
438C
 10
-32.8033
 20
-177.275
 30
0.000000
  70
    32
  0
VERTEX
  8
0
  5
438D
 10
-32.5959
 20
-177.363
 30
0.000000
  70
    32
  0
VERTEX
  8
0
  5
438E
 10
-32.3875
 20
-177.450
 30
0.000000
  70
    32
  0
VERTEX
  8
0
  5
438F
 10
-32.1782
 20
-177.534
 30
0.000000
  70
    32
  0
VERTEX
  8
0
  5
4390
 10
-31.9679
 20
-177.616
 30
0.000000
  70
    32
  0
VERTEX
  8
0
  5
4391
 10
-31.7567
 20
-177.696
 30
0.000000
  70
    32
  0
VERTEX
  8
0
  5
4392
 10
-31.5445
 20
-177.774
 30
0.000000
  70
    32
  0
VERTEX
  8
0
  5
4393
 10
-31.3315
 20
-177.850
 30
0.000000
  70
    32
  0
VERTEX
  8
0
  5
4394
 10
-31.1175
 20
-177.924
 30
0.000000
  70
    32
  0
VERTEX
  8
0
  5
4395
 10
-30.9028
 20
-177.997
 30
0.000000
  70
    32
  0
VERTEX
  8
0
  5
4396
 10
-30.6871
 20
-178.067
 30
0.000000
  70
    32
  0
VERTEX
  8
0
  5
4397
 10
-30.4707
 20
-178.136
 30
0.000000
  70
    32
  0
VERTEX
  8
0
  5
4398
 10
-30.2535
 20
-178.202
 30
0.000000
  70
    32
  0
VERTEX
  8
0
  5
4399
 10
-30.0355
 20
-178.268
 30
0.000000
  70
    32
  0
VERTEX
  8
0
  5
439A
 10
-29.8168
 20
-178.331
 30
0.000000
  70
    32
  0
VERTEX
  8
0
  5
439B
 10
-29.5974
 20
-178.393
 30
0.000000
  70
    32
  0
VERTEX
  8
0
  5
439C
 10
-29.3772
 20
-178.454
 30
0.000000
  70
    32
  0
VERTEX
  8
0
  5
439D
 10
-29.1564
 20
-178.513
 30
0.000000
  70
    32
  0
VERTEX
  8
0
  5
439E
 10
-28.9349
 20
-178.570
 30
0.000000
  70
    32
  0
VERTEX
  8
0
  5
439F
 10
-28.7128
 20
-178.626
 30
0.000000
  70
    32
  0
VERTEX
  8
0
  5
43A0
 10
-28.4901
 20
-178.681
 30
0.000000
  70
    32
  0
VERTEX
  8
0
  5
43A1
 10
-28.2668
 20
-178.734
 30
0.000000
  70
    32
  0
VERTEX
  8
0
  5
43A2
 10
-28.0429
 20
-178.787
 30
0.000000
  70
    32
  0
VERTEX
  8
0
  5
43A3
 10
-27.8185
 20
-178.838
 30
0.000000
  70
    32
  0
VERTEX
  8
0
  5
43A4
 10
-27.5935
 20
-178.887
 30
0.000000
  70
    32
  0
VERTEX
  8
0
  5
43A5
 10
-27.3681
 20
-178.936
 30
0.000000
  70
    32
  0
VERTEX
  8
0
  5
43A6
 10
-27.1421
 20
-178.984
 30
0.000000
  70
    32
  0
VERTEX
  8
0
  5
43A7
 10
-26.9157
 20
-179.030
 30
0.000000
  70
    32
  0
VERTEX
  8
0
  5
43A8
 10
-26.6889
 20
-179.076
 30
0.000000
  70
    32
  0
VERTEX
  8
0
  5
43A9
 10
-26.4616
 20
-179.121
 30
0.000000
  70
    32
  0
VERTEX
  8
0
  5
43AA
 10
-26.2340
 20
-179.165
 30
0.000000
  70
    32
  0
VERTEX
  8
0
  5
43AB
 10
-26.0060
 20
-179.208
 30
0.000000
  70
    32
  0
VERTEX
  8
0
  5
43AC
 10
-25.7776
 20
-179.250
 30
0.000000
  70
    32
  0
VERTEX
  8
0
  5
43AD
 10
-25.5489
 20
-179.292
 30
0.000000
  70
    32
  0
VERTEX
  8
0
  5
43AE
 10
-25.3199
 20
-179.333
 30
0.000000
  70
    32
  0
VERTEX
  8
0
  5
43AF
 10
-25.0906
 20
-179.373
 30
0.000000
  70
    32
  0
VERTEX
  8
0
  5
43B0
 10
-24.8611
 20
-179.413
 30
0.000000
  70
    32
  0
VERTEX
  8
0
  5
43B1
 10
-24.6313
 20
-179.452
 30
0.000000
  70
    32
  0
VERTEX
  8
0
  5
43B2
 10
-24.4013
 20
-179.491
 30
0.000000
  70
    32
  0
VERTEX
  8
0
  5
43B3
 10
-24.1711
 20
-179.529
 30
0.000000
  70
    32
  0
VERTEX
  8
0
  5
43B4
 10
-23.9407
 20
-179.567
 30
0.000000
  70
    32
  0
VERTEX
  8
0
  5
43B5
 10
-23.7102
 20
-179.604
 30
0.000000
  70
    32
  0
VERTEX
  8
0
  5
43B6
 10
-23.4795
 20
-179.641
 30
0.000000
  70
    32
  0
VERTEX
  8
0
  5
43B7
 10
-23.2487
 20
-179.678
 30
0.000000
  70
    32
  0
VERTEX
  8
0
  5
43B8
 10
-23.0179
 20
-179.715
 30
0.000000
  70
    32
  0
VERTEX
  8
0
  5
43B9
 10
-22.7870
 20
-179.752
 30
0.000000
  70
    32
  0
VERTEX
  8
0
  5
43BA
 10
-22.5560
 20
-179.788
 30
0.000000
  70
    32
  0
VERTEX
  8
0
  5
43BB
 10
-22.3250
 20
-179.825
 30
0.000000
  70
    32
  0
SEQEND
  8
0
  5
43BC
  0
POLYLINE
  5
3B9C
  8
0
 66
     1
 10
0.0
 20
0.0
 30
0.0
  0
VERTEX
  5
404F
  8
0
 10
-89.825000000000145
 20
-134.8249999999999
 30
0.0
 42
0.4142135623730862
  0
VERTEX
  5
4050
  8
0
 10
-67.325000000000045
 20
-157.32499999999939
 30
0.0
  0
SEQEND
  5
4051
  8
0
  0
POLYLINE
  5
3B9D
  8
0
 66
     1
 10
0.0
 20
0.0
 30
0.0
  0
VERTEX
  5
4052
  8
0
 10
-67.325000000000273
 20
-157.32499999999939
 30
0.0
 42
0.4142135623731025
  0
VERTEX
  5
4053
  8
0
 10
-89.825000000000387
 20
-179.8250000000001
 30
0.0
 42
0.4142135623731025
  0
SEQEND
  5
4054
  8
0
  0
POINT
  5
3B9E
  8
DEFPOINTS
 10
-44.825000000000053
 20
-179.8250000000001
 30
0.0
 50
90.0
  0
POINT
  5
3B9F
  8
DEFPOINTS
 10
-44.825000000000038
 20
-134.8249999999999
 30
0.0
 50
90.0
  0
POLYLINE
  5
3BA1
  8
0
 66
     1
 10
0.0
 20
0.0
 30
0.0
 70
     1
  0
VERTEX
  5
4055
  8
0
 10
-112.325
 20
-89.82499999999996
 30
0.0
  0
VERTEX
  5
4056
  8
0
 10
-112.325
 20
0.1750000000000398
 30
0.0
  0
VERTEX
  5
4057
  8
0
 10
-67.325000000000017
 20
0.1750000000000398
 30
0.0
  0
VERTEX
  5
4058
  8
0
 10
-67.325000000000045
 20
-89.824999999999974
 30
0.0
  0
SEQEND
  5
4059
  8
0
  0
POLYLINE
  5
3BA2
  8
0
 66
     1
 10
0.0
 20
0.0
 30
0.0
 70
     1
 40
0.35
 41
0.35
  0
VERTEX
  5
405A
  8
0
 10
-112.15000000000001
 20
-89.649999999999963
 30
0.0
  0
VERTEX
  5
405B
  8
0
 10
-112.15000000000001
 20
0.0000000000000284
 30
0.0
  0
VERTEX
  5
405C
  8
0
 10
-67.5
 20
0.0000000000000284
 30
0.0
  0
VERTEX
  5
405D
  8
0
 10
-67.500000000000043
 20
-89.649999999999935
 30
0.0
  0
SEQEND
  5
405E
  8
0
  0
POLYLINE
  5
3BA3
  8
0
  6
CONTINUOUS
 66
     1
 10
0.0
 20
0.0
 30
0.0
  0
VERTEX
  5
405F
  8
0
  6
CONTINUOUS
 10
-112.15000000000001
 20
0.0000000000000284
 30
0.0
  0
VERTEX
  5
4060
  8
0
  6
CONTINUOUS
 10
-67.500000000000043
 20
-89.649999999999935
 30
0.0
  0
SEQEND
  5
4061
  8
0
  6
CONTINUOUS
  0
POLYLINE
  5
3BA4
  8
0
  6
CONTINUOUS
 66
     1
 10
0.0
 20
0.0
 30
0.0
  0
VERTEX
  5
4062
  8
0
  6
CONTINUOUS
 10
-67.5
 20
0.0000000000000284
 30
0.0
  0
VERTEX
  5
4063
  8
0
  6
CONTINUOUS
 10
-112.14999999999991
 20
-89.649999999999935
 30
0.0
  0
SEQEND
  5
4064
  8
0
  6
CONTINUOUS
  0
POLYLINE
  5
3BA6
  8
0
 66
     1
 10
0.0
 20
0.0
 30
0.0
 70
     1
  0
VERTEX
  5
4065
  8
0
 10
-44.825000000000038
 20
-89.82499999999996
 30
0.0
  0
VERTEX
  5
4066
  8
0
 10
-44.825000000000017
 20
0.1750000000000398
 30
0.0
  0
VERTEX
  5
4067
  8
0
 10
0.1749999999999758
 20
0.1750000000000398
 30
0.0
  0
VERTEX
  5
4068
  8
0
 10
0.1749999999999545
 20
-89.824999999999974
 30
0.0
  0
SEQEND
  5
4069
  8
0
  0
POLYLINE
  5
3BA7
  8
0
 66
     1
 10
0.0
 20
0.0
 30
0.0
 70
     1
 40
0.35
 41
0.35
  0
VERTEX
  5
406A
  8
0
 10
-44.650000000000048
 20
-89.649999999999963
 30
0.0
  0
VERTEX
  5
406B
  8
0
 10
-44.65000000000002
 20
0.0000000000000284
 30
0.0
  0
VERTEX
  5
406C
  8
0
 10
-0.0000000000000071
 20
0.0000000000000284
 30
0.0
  0
VERTEX
  5
406D
  8
0
 10
-0.0000000000000426
 20
-89.649999999999935
 30
0.0
  0
SEQEND
  5
406E
  8
0
  0
POLYLINE
  5
3BA8
  8
0
  6
CONTINUOUS
 66
     1
 10
0.0
 20
0.0
 30
0.0
  0
VERTEX
  5
406F
  8
0
  6
CONTINUOUS
 10
-44.65000000000002
 20
0.0000000000000284
 30
0.0
  0
VERTEX
  5
4070
  8
0
  6
CONTINUOUS
 10
-0.0000000000000426
 20
-89.649999999999935
 30
0.0
  0
SEQEND
  5
4071
  8
0
  6
CONTINUOUS
  0
POLYLINE
  5
3BA9
  8
0
  6
CONTINUOUS
 66
     1
 10
0.0
 20
0.0
 30
0.0
  0
VERTEX
  5
4072
  8
0
  6
CONTINUOUS
 10
-0.0000000000000071
 20
0.0000000000000284
 30
0.0
  0
VERTEX
  5
4073
  8
0
  6
CONTINUOUS
 10
-44.649999999999913
 20
-89.649999999999935
 30
0.0
  0
SEQEND
  5
4074
  8
0
  6
CONTINUOUS
  0
VIEWPORT
  5
3B6C
 67
     1
  8
0
  6
CONTINUOUS
 10
143.43592834472651
 20
99.959580898284912
 30
0.0
 40
322.3754288017887
 41
222.15178063964851
 68
     1
 69
     1
1001
ACAD
1000
MVIEW
1002
{
1070
    16
1010
0.0
1020
0.0
1030
0.0
1010
0.0
1020
0.0
1030
1.0
1040
0.0
1040
222.15178063964851
1040
143.43592834472651
1040
99.959580898284912
1040
50.0
1040
0.0
1040
0.0
1070
     0
1070
  1000
1070
     1
1070
     1
1070
     0
1070
     0
1070
     0
1070
     0
1040
0.0
1040
0.0
1040
0.0
1040
10.0
1040
10.0
1040
10.0
1040
10.0
1070
     0
1002
{
1002
}
1002
}
  0
VIEWPORT
  5
3B70
 67
     1
  8
0
  6
CONTINUOUS
 10
143.4359130859375
 20
99.95958781242372
 30
0.0
 40
229.49746093749999
 41
159.9353404998779
 68
     2
 69
     2
1001
ACAD
1000
MVIEW
1002
{
1070
    16
1010
0.0
1020
0.0
1030
0.0
1010
0.0
1020
0.0
1030
1.0
1040
0.0
1040
354.66888925836753
1040
18.30935795334528
1040
-44.069336351627982
1040
50.0
1040
0.0
1040
0.0
1070
     0
1070
  1000
1070
     1
1070
     3
1070
     0
1070
     0
1070
     0
1070
     0
1040
0.0
1040
0.0
1040
0.0
1040
10.0
1040
10.0
1040
10.0
1040
10.0
1070
     0
1002
{
1002
}
1002
}
  0
ENDSEC
  0
EOF
